  0
SECTION
  2
HEADER
  9
$INSBASE
 10
0.0
20
0.0
  9
$REGENMODE
 70
     1
  9
$DRAGMODE
 70
     1
  9
$DIMTAD
 70
     1
  9
$EXTMIN
 10
-210.000000
 20
-148.500000
 30
 0.0
  9
$EXTMAX
 10
210.000000
 20
148.500000
 30
 0.0
  9
$LUPREC
 70
    3
  9
$AUPREC
 70
    3
  9
$LTSCALE
 40
26.250000
  0
ENDSEC
  0
SECTION
  2
TABLES
  0
TABLE
  2
LTYPE
 70
     6
  0
LTYPE
  2
CONTINUOUS
 70
    64
  3
SOLID
 72
    65
 73
     0
 40
0.0
  0
LTYPE
  2
DASHED2
 70
    64
  3
_ _ _ _ _ _ _ _ _ _ _ _ _ _ _ _ _ _ _ _ _ _ 
 72
    65
 73
     2
 40
0.5
 49
0.25
 49
-0.25
  0
LTYPE
  2
DASHED
 70
    64
  3
__ __ __ __ __ __ __ __ __ __ __ __ __ __ __
 72
    65
 73
     2
 40
0.75
 49
0.5
 49
-0.25
  0
LTYPE
  2
DASHEDX2
 70
    64
  3
____  ____  ____  ____  ____  ____  ____  __
 72
    65
 73
     2
 40
1.5
 49
1.0
 49
-0.5
  0
LTYPE
  2
DOT
 70
    64
  3
............................................
 72
    65
 73
     2
 40
0.25
 49
0
 49
-0.25
  0
LTYPE
  2
DASHDOT
 70
    64
  3
__ . __ . __ . __ . __ . __ . __ . __ . __ .
 72
    65
 73
     4
 40
1.0
 49
0.5
 49
-0.25
 49
0.0
 49
-0.25
  0
LTYPE
  2
CENTER
 70
    64
  3
____ _ ____ _ ____ _ ____ _ ____ _ ____ _ __
 72
    65
 73
     4
 40
2.0
 49
1.25
 49
-0.25
 49
0.25
 49
-0.25
  0
LTYPE
  2
DIVIDE
 70
    64
  3
__ . . __ . . __ . . __ . . __ . . __ . . __
 72
    65
 73
     6
 40
1.25
 49
0.5
 49
-0.25
 49
0.0
 49
-0.25
 49
0.0
 49
-0.25
  0
LTYPE
  2
PHANTOM2
 70
    64
  3
___ _ _ ___ _ _ ___ _ _ ___ _ _ ___ _ _ ___ 
 72
    65
 73
     6
 40
1.25
 49
0.625
 49
-0.125
 49
0.125
 49
-0.125
 49
0.125
 49
-0.125
  0
LTYPE
  2
DOTX2
 70
    64
  3
. . . . . . . . . . . . . . . . . . . . . . 
 72
    65
 73
     2
 40
0.5
 49
0
 49
-0.5
  0
ENDTAB
  0
TABLE
  2
LAYER
 70
   255
  0
LAYER
  2
0
 70
    64
 62
     7
  6
CONTINUOUS
  0
LAYER
  2
1
 70
    64
 62
     7
  6
CONTINUOUS
  0
LAYER
  2
2
 70
    64
 62
     7
  6
CONTINUOUS
  0
LAYER
  2
3
 70
    64
 62
     7
  6
CONTINUOUS
  0
LAYER
  2
4
 70
    64
 62
     7
  6
CONTINUOUS
  0
LAYER
  2
5
 70
    64
 62
     7
  6
CONTINUOUS
  0
LAYER
  2
6
 70
    64
 62
     7
  6
CONTINUOUS
  0
LAYER
  2
7
 70
    64
 62
     7
  6
CONTINUOUS
  0
LAYER
  2
8
 70
    64
 62
     7
  6
CONTINUOUS
  0
LAYER
  2
9
 70
    64
 62
     7
  6
CONTINUOUS
  0
LAYER
  2
10
 70
    64
 62
     7
  6
CONTINUOUS
  0
LAYER
  2
11
 70
    64
 62
     7
  6
CONTINUOUS
  0
LAYER
  2
12
 70
    64
 62
     7
  6
CONTINUOUS
  0
LAYER
  2
13
 70
    64
 62
     7
  6
CONTINUOUS
  0
LAYER
  2
14
 70
    64
 62
     7
  6
CONTINUOUS
  0
LAYER
  2
15
 70
    64
 62
     7
  6
CONTINUOUS
  0
LAYER
  2
16
 70
    64
 62
     7
  6
CONTINUOUS
  0
LAYER
  2
17
 70
    64
 62
     7
  6
CONTINUOUS
  0
LAYER
  2
18
 70
    64
 62
     7
  6
CONTINUOUS
  0
LAYER
  2
19
 70
    64
 62
     7
  6
CONTINUOUS
  0
LAYER
  2
20
 70
    64
 62
     7
  6
CONTINUOUS
  0
LAYER
  2
21
 70
    64
 62
     7
  6
CONTINUOUS
  0
LAYER
  2
22
 70
    64
 62
     7
  6
CONTINUOUS
  0
LAYER
  2
23
 70
    64
 62
     7
  6
CONTINUOUS
  0
LAYER
  2
24
 70
    64
 62
     7
  6
CONTINUOUS
  0
LAYER
  2
25
 70
    64
 62
     7
  6
CONTINUOUS
  0
LAYER
  2
26
 70
    64
 62
     7
  6
CONTINUOUS
  0
LAYER
  2
27
 70
    64
 62
     7
  6
CONTINUOUS
  0
LAYER
  2
28
 70
    64
 62
     7
  6
CONTINUOUS
  0
LAYER
  2
29
 70
    64
 62
     7
  6
CONTINUOUS
  0
LAYER
  2
30
 70
    64
 62
     7
  6
CONTINUOUS
  0
LAYER
  2
31
 70
    64
 62
     7
  6
CONTINUOUS
  0
LAYER
  2
32
 70
    64
 62
     7
  6
CONTINUOUS
  0
LAYER
  2
33
 70
    64
 62
     7
  6
CONTINUOUS
  0
LAYER
  2
34
 70
    64
 62
     7
  6
CONTINUOUS
  0
LAYER
  2
35
 70
    64
 62
     7
  6
CONTINUOUS
  0
LAYER
  2
36
 70
    64
 62
     7
  6
CONTINUOUS
  0
LAYER
  2
37
 70
    64
 62
     7
  6
CONTINUOUS
  0
LAYER
  2
38
 70
    64
 62
     7
  6
CONTINUOUS
  0
LAYER
  2
39
 70
    64
 62
     7
  6
CONTINUOUS
  0
LAYER
  2
40
 70
    64
 62
     7
  6
CONTINUOUS
  0
LAYER
  2
41
 70
    64
 62
     7
  6
CONTINUOUS
  0
LAYER
  2
42
 70
    64
 62
     7
  6
CONTINUOUS
  0
LAYER
  2
43
 70
    64
 62
     7
  6
CONTINUOUS
  0
LAYER
  2
44
 70
    64
 62
     7
  6
CONTINUOUS
  0
LAYER
  2
45
 70
    64
 62
     7
  6
CONTINUOUS
  0
LAYER
  2
46
 70
    64
 62
     7
  6
CONTINUOUS
  0
LAYER
  2
47
 70
    64
 62
     7
  6
CONTINUOUS
  0
LAYER
  2
48
 70
    64
 62
     7
  6
CONTINUOUS
  0
LAYER
  2
49
 70
    64
 62
     7
  6
CONTINUOUS
  0
LAYER
  2
50
 70
    64
 62
     7
  6
CONTINUOUS
  0
LAYER
  2
51
 70
    64
 62
     7
  6
CONTINUOUS
  0
LAYER
  2
52
 70
    64
 62
     7
  6
CONTINUOUS
  0
LAYER
  2
53
 70
    64
 62
     7
  6
CONTINUOUS
  0
LAYER
  2
54
 70
    64
 62
     7
  6
CONTINUOUS
  0
LAYER
  2
55
 70
    64
 62
     7
  6
CONTINUOUS
  0
LAYER
  2
56
 70
    64
 62
     7
  6
CONTINUOUS
  0
LAYER
  2
57
 70
    64
 62
     7
  6
CONTINUOUS
  0
LAYER
  2
58
 70
    64
 62
     7
  6
CONTINUOUS
  0
LAYER
  2
59
 70
    64
 62
     7
  6
CONTINUOUS
  0
LAYER
  2
60
 70
    64
 62
     7
  6
CONTINUOUS
  0
LAYER
  2
61
 70
    64
 62
     7
  6
CONTINUOUS
  0
LAYER
  2
62
 70
    64
 62
     7
  6
CONTINUOUS
  0
LAYER
  2
63
 70
    64
 62
     7
  6
CONTINUOUS
  0
LAYER
  2
64
 70
    64
 62
     7
  6
CONTINUOUS
  0
LAYER
  2
65
 70
    64
 62
     7
  6
CONTINUOUS
  0
LAYER
  2
66
 70
    64
 62
     7
  6
CONTINUOUS
  0
LAYER
  2
67
 70
    64
 62
     7
  6
CONTINUOUS
  0
LAYER
  2
68
 70
    64
 62
     7
  6
CONTINUOUS
  0
LAYER
  2
69
 70
    64
 62
     7
  6
CONTINUOUS
  0
LAYER
  2
70
 70
    64
 62
     7
  6
CONTINUOUS
  0
LAYER
  2
71
 70
    64
 62
     7
  6
CONTINUOUS
  0
LAYER
  2
72
 70
    64
 62
     7
  6
CONTINUOUS
  0
LAYER
  2
73
 70
    64
 62
     7
  6
CONTINUOUS
  0
LAYER
  2
74
 70
    64
 62
     7
  6
CONTINUOUS
  0
LAYER
  2
75
 70
    64
 62
     7
  6
CONTINUOUS
  0
LAYER
  2
76
 70
    64
 62
     7
  6
CONTINUOUS
  0
LAYER
  2
77
 70
    64
 62
     7
  6
CONTINUOUS
  0
LAYER
  2
78
 70
    64
 62
     7
  6
CONTINUOUS
  0
LAYER
  2
79
 70
    64
 62
     7
  6
CONTINUOUS
  0
LAYER
  2
80
 70
    64
 62
     7
  6
CONTINUOUS
  0
LAYER
  2
81
 70
    64
 62
     7
  6
CONTINUOUS
  0
LAYER
  2
82
 70
    64
 62
     7
  6
CONTINUOUS
  0
LAYER
  2
83
 70
    64
 62
     7
  6
CONTINUOUS
  0
LAYER
  2
84
 70
    64
 62
     7
  6
CONTINUOUS
  0
LAYER
  2
85
 70
    64
 62
     7
  6
CONTINUOUS
  0
LAYER
  2
86
 70
    64
 62
     7
  6
CONTINUOUS
  0
LAYER
  2
87
 70
    64
 62
     7
  6
CONTINUOUS
  0
LAYER
  2
88
 70
    64
 62
     7
  6
CONTINUOUS
  0
LAYER
  2
89
 70
    64
 62
     7
  6
CONTINUOUS
  0
LAYER
  2
90
 70
    64
 62
     7
  6
CONTINUOUS
  0
LAYER
  2
91
 70
    64
 62
     7
  6
CONTINUOUS
  0
LAYER
  2
92
 70
    64
 62
     7
  6
CONTINUOUS
  0
LAYER
  2
93
 70
    64
 62
     7
  6
CONTINUOUS
  0
LAYER
  2
94
 70
    64
 62
     7
  6
CONTINUOUS
  0
LAYER
  2
95
 70
    64
 62
     7
  6
CONTINUOUS
  0
LAYER
  2
96
 70
    64
 62
     7
  6
CONTINUOUS
  0
LAYER
  2
97
 70
    64
 62
     7
  6
CONTINUOUS
  0
LAYER
  2
98
 70
    64
 62
     7
  6
CONTINUOUS
  0
LAYER
  2
99
 70
    64
 62
     7
  6
CONTINUOUS
  0
LAYER
  2
100
 70
    64
 62
     7
  6
CONTINUOUS
  0
LAYER
  2
101
 70
    64
 62
     7
  6
CONTINUOUS
  0
LAYER
  2
102
 70
    64
 62
     7
  6
CONTINUOUS
  0
LAYER
  2
103
 70
    64
 62
     7
  6
CONTINUOUS
  0
LAYER
  2
104
 70
    64
 62
     7
  6
CONTINUOUS
  0
LAYER
  2
105
 70
    64
 62
     7
  6
CONTINUOUS
  0
LAYER
  2
106
 70
    64
 62
     7
  6
CONTINUOUS
  0
LAYER
  2
107
 70
    64
 62
     7
  6
CONTINUOUS
  0
LAYER
  2
108
 70
    64
 62
     7
  6
CONTINUOUS
  0
LAYER
  2
109
 70
    64
 62
     7
  6
CONTINUOUS
  0
LAYER
  2
110
 70
    64
 62
     7
  6
CONTINUOUS
  0
LAYER
  2
111
 70
    64
 62
     7
  6
CONTINUOUS
  0
LAYER
  2
112
 70
    64
 62
     7
  6
CONTINUOUS
  0
LAYER
  2
113
 70
    64
 62
     7
  6
CONTINUOUS
  0
LAYER
  2
114
 70
    64
 62
     7
  6
CONTINUOUS
  0
LAYER
  2
115
 70
    64
 62
     7
  6
CONTINUOUS
  0
LAYER
  2
116
 70
    64
 62
     7
  6
CONTINUOUS
  0
LAYER
  2
117
 70
    64
 62
     7
  6
CONTINUOUS
  0
LAYER
  2
118
 70
    64
 62
     7
  6
CONTINUOUS
  0
LAYER
  2
119
 70
    64
 62
     7
  6
CONTINUOUS
  0
LAYER
  2
120
 70
    64
 62
     7
  6
CONTINUOUS
  0
LAYER
  2
121
 70
    64
 62
     7
  6
CONTINUOUS
  0
LAYER
  2
122
 70
    64
 62
     7
  6
CONTINUOUS
  0
LAYER
  2
123
 70
    64
 62
     7
  6
CONTINUOUS
  0
LAYER
  2
124
 70
    64
 62
     7
  6
CONTINUOUS
  0
LAYER
  2
125
 70
    64
 62
     7
  6
CONTINUOUS
  0
LAYER
  2
126
 70
    64
 62
     7
  6
CONTINUOUS
  0
LAYER
  2
127
 70
    64
 62
     7
  6
CONTINUOUS
  0
LAYER
  2
128
 70
    64
 62
     7
  6
CONTINUOUS
  0
LAYER
  2
129
 70
    64
 62
     7
  6
CONTINUOUS
  0
LAYER
  2
130
 70
    64
 62
     7
  6
CONTINUOUS
  0
LAYER
  2
131
 70
    64
 62
     7
  6
CONTINUOUS
  0
LAYER
  2
132
 70
    64
 62
     7
  6
CONTINUOUS
  0
LAYER
  2
133
 70
    64
 62
     7
  6
CONTINUOUS
  0
LAYER
  2
134
 70
    64
 62
     7
  6
CONTINUOUS
  0
LAYER
  2
135
 70
    64
 62
     7
  6
CONTINUOUS
  0
LAYER
  2
136
 70
    64
 62
     7
  6
CONTINUOUS
  0
LAYER
  2
137
 70
    64
 62
     7
  6
CONTINUOUS
  0
LAYER
  2
138
 70
    64
 62
     7
  6
CONTINUOUS
  0
LAYER
  2
139
 70
    64
 62
     7
  6
CONTINUOUS
  0
LAYER
  2
140
 70
    64
 62
     7
  6
CONTINUOUS
  0
LAYER
  2
141
 70
    64
 62
     7
  6
CONTINUOUS
  0
LAYER
  2
142
 70
    64
 62
     7
  6
CONTINUOUS
  0
LAYER
  2
143
 70
    64
 62
     7
  6
CONTINUOUS
  0
LAYER
  2
144
 70
    64
 62
     7
  6
CONTINUOUS
  0
LAYER
  2
145
 70
    64
 62
     7
  6
CONTINUOUS
  0
LAYER
  2
146
 70
    64
 62
     7
  6
CONTINUOUS
  0
LAYER
  2
147
 70
    64
 62
     7
  6
CONTINUOUS
  0
LAYER
  2
148
 70
    64
 62
     7
  6
CONTINUOUS
  0
LAYER
  2
149
 70
    64
 62
     7
  6
CONTINUOUS
  0
LAYER
  2
150
 70
    64
 62
     7
  6
CONTINUOUS
  0
LAYER
  2
151
 70
    64
 62
     7
  6
CONTINUOUS
  0
LAYER
  2
152
 70
    64
 62
     7
  6
CONTINUOUS
  0
LAYER
  2
153
 70
    64
 62
     7
  6
CONTINUOUS
  0
LAYER
  2
154
 70
    64
 62
     7
  6
CONTINUOUS
  0
LAYER
  2
155
 70
    64
 62
     7
  6
CONTINUOUS
  0
LAYER
  2
156
 70
    64
 62
     7
  6
CONTINUOUS
  0
LAYER
  2
157
 70
    64
 62
     7
  6
CONTINUOUS
  0
LAYER
  2
158
 70
    64
 62
     7
  6
CONTINUOUS
  0
LAYER
  2
159
 70
    64
 62
     7
  6
CONTINUOUS
  0
LAYER
  2
160
 70
    64
 62
     7
  6
CONTINUOUS
  0
LAYER
  2
161
 70
    64
 62
     7
  6
CONTINUOUS
  0
LAYER
  2
162
 70
    64
 62
     7
  6
CONTINUOUS
  0
LAYER
  2
163
 70
    64
 62
     7
  6
CONTINUOUS
  0
LAYER
  2
164
 70
    64
 62
     7
  6
CONTINUOUS
  0
LAYER
  2
165
 70
    64
 62
     7
  6
CONTINUOUS
  0
LAYER
  2
166
 70
    64
 62
     7
  6
CONTINUOUS
  0
LAYER
  2
167
 70
    64
 62
     7
  6
CONTINUOUS
  0
LAYER
  2
168
 70
    64
 62
     7
  6
CONTINUOUS
  0
LAYER
  2
169
 70
    64
 62
     7
  6
CONTINUOUS
  0
LAYER
  2
170
 70
    64
 62
     7
  6
CONTINUOUS
  0
LAYER
  2
171
 70
    64
 62
     7
  6
CONTINUOUS
  0
LAYER
  2
172
 70
    64
 62
     7
  6
CONTINUOUS
  0
LAYER
  2
173
 70
    64
 62
     7
  6
CONTINUOUS
  0
LAYER
  2
174
 70
    64
 62
     7
  6
CONTINUOUS
  0
LAYER
  2
175
 70
    64
 62
     7
  6
CONTINUOUS
  0
LAYER
  2
176
 70
    64
 62
     7
  6
CONTINUOUS
  0
LAYER
  2
177
 70
    64
 62
     7
  6
CONTINUOUS
  0
LAYER
  2
178
 70
    64
 62
     7
  6
CONTINUOUS
  0
LAYER
  2
179
 70
    64
 62
     7
  6
CONTINUOUS
  0
LAYER
  2
180
 70
    64
 62
     7
  6
CONTINUOUS
  0
LAYER
  2
181
 70
    64
 62
     7
  6
CONTINUOUS
  0
LAYER
  2
182
 70
    64
 62
     7
  6
CONTINUOUS
  0
LAYER
  2
183
 70
    64
 62
     7
  6
CONTINUOUS
  0
LAYER
  2
184
 70
    64
 62
     7
  6
CONTINUOUS
  0
LAYER
  2
185
 70
    64
 62
     7
  6
CONTINUOUS
  0
LAYER
  2
186
 70
    64
 62
     7
  6
CONTINUOUS
  0
LAYER
  2
187
 70
    64
 62
     7
  6
CONTINUOUS
  0
LAYER
  2
188
 70
    64
 62
     7
  6
CONTINUOUS
  0
LAYER
  2
189
 70
    64
 62
     7
  6
CONTINUOUS
  0
LAYER
  2
190
 70
    64
 62
     7
  6
CONTINUOUS
  0
LAYER
  2
191
 70
    64
 62
     7
  6
CONTINUOUS
  0
LAYER
  2
192
 70
    64
 62
     7
  6
CONTINUOUS
  0
LAYER
  2
193
 70
    64
 62
     7
  6
CONTINUOUS
  0
LAYER
  2
194
 70
    64
 62
     7
  6
CONTINUOUS
  0
LAYER
  2
195
 70
    64
 62
     7
  6
CONTINUOUS
  0
LAYER
  2
196
 70
    64
 62
     7
  6
CONTINUOUS
  0
LAYER
  2
197
 70
    64
 62
     7
  6
CONTINUOUS
  0
LAYER
  2
198
 70
    64
 62
     7
  6
CONTINUOUS
  0
LAYER
  2
199
 70
    64
 62
     7
  6
CONTINUOUS
  0
LAYER
  2
200
 70
    64
 62
     7
  6
CONTINUOUS
  0
LAYER
  2
201
 70
    64
 62
     7
  6
CONTINUOUS
  0
LAYER
  2
202
 70
    64
 62
     7
  6
CONTINUOUS
  0
LAYER
  2
203
 70
    64
 62
     7
  6
CONTINUOUS
  0
LAYER
  2
204
 70
    64
 62
     7
  6
CONTINUOUS
  0
LAYER
  2
205
 70
    64
 62
     7
  6
CONTINUOUS
  0
LAYER
  2
206
 70
    64
 62
     7
  6
CONTINUOUS
  0
LAYER
  2
207
 70
    64
 62
     7
  6
CONTINUOUS
  0
LAYER
  2
208
 70
    64
 62
     7
  6
CONTINUOUS
  0
LAYER
  2
209
 70
    64
 62
     7
  6
CONTINUOUS
  0
LAYER
  2
210
 70
    64
 62
     7
  6
CONTINUOUS
  0
LAYER
  2
211
 70
    64
 62
     7
  6
CONTINUOUS
  0
LAYER
  2
212
 70
    64
 62
     7
  6
CONTINUOUS
  0
LAYER
  2
213
 70
    64
 62
     7
  6
CONTINUOUS
  0
LAYER
  2
214
 70
    64
 62
     7
  6
CONTINUOUS
  0
LAYER
  2
215
 70
    64
 62
     7
  6
CONTINUOUS
  0
LAYER
  2
216
 70
    64
 62
     7
  6
CONTINUOUS
  0
LAYER
  2
217
 70
    64
 62
     7
  6
CONTINUOUS
  0
LAYER
  2
218
 70
    64
 62
     7
  6
CONTINUOUS
  0
LAYER
  2
219
 70
    64
 62
     7
  6
CONTINUOUS
  0
LAYER
  2
220
 70
    64
 62
     7
  6
CONTINUOUS
  0
LAYER
  2
221
 70
    64
 62
     7
  6
CONTINUOUS
  0
LAYER
  2
222
 70
    64
 62
     7
  6
CONTINUOUS
  0
LAYER
  2
223
 70
    64
 62
     7
  6
CONTINUOUS
  0
LAYER
  2
224
 70
    64
 62
     7
  6
CONTINUOUS
  0
LAYER
  2
225
 70
    64
 62
     7
  6
CONTINUOUS
  0
LAYER
  2
226
 70
    64
 62
     7
  6
CONTINUOUS
  0
LAYER
  2
227
 70
    64
 62
     7
  6
CONTINUOUS
  0
LAYER
  2
228
 70
    64
 62
     7
  6
CONTINUOUS
  0
LAYER
  2
229
 70
    64
 62
     7
  6
CONTINUOUS
  0
LAYER
  2
230
 70
    64
 62
     7
  6
CONTINUOUS
  0
LAYER
  2
231
 70
    64
 62
     7
  6
CONTINUOUS
  0
LAYER
  2
232
 70
    64
 62
     7
  6
CONTINUOUS
  0
LAYER
  2
233
 70
    64
 62
     7
  6
CONTINUOUS
  0
LAYER
  2
234
 70
    64
 62
     7
  6
CONTINUOUS
  0
LAYER
  2
235
 70
    64
 62
     7
  6
CONTINUOUS
  0
LAYER
  2
236
 70
    64
 62
     7
  6
CONTINUOUS
  0
LAYER
  2
237
 70
    64
 62
     7
  6
CONTINUOUS
  0
LAYER
  2
238
 70
    64
 62
     7
  6
CONTINUOUS
  0
LAYER
  2
239
 70
    64
 62
     7
  6
CONTINUOUS
  0
LAYER
  2
240
 70
    64
 62
     7
  6
CONTINUOUS
  0
LAYER
  2
241
 70
    64
 62
     7
  6
CONTINUOUS
  0
LAYER
  2
242
 70
    64
 62
     7
  6
CONTINUOUS
  0
LAYER
  2
243
 70
    64
 62
     7
  6
CONTINUOUS
  0
LAYER
  2
244
 70
    64
 62
     7
  6
CONTINUOUS
  0
LAYER
  2
245
 70
    64
 62
     7
  6
CONTINUOUS
  0
LAYER
  2
246
 70
    64
 62
     7
  6
CONTINUOUS
  0
LAYER
  2
247
 70
    64
 62
     7
  6
CONTINUOUS
  0
LAYER
  2
248
 70
    64
 62
     7
  6
CONTINUOUS
  0
LAYER
  2
249
 70
    64
 62
     7
  6
CONTINUOUS
  0
LAYER
  2
250
 70
    64
 62
     7
  6
CONTINUOUS
  0
LAYER
  2
251
 70
    64
 62
     7
  6
CONTINUOUS
  0
LAYER
  2
252
 70
    64
 62
     7
  6
CONTINUOUS
  0
LAYER
  2
253
 70
    64
 62
     7
  6
CONTINUOUS
  0
LAYER
  2
254
 70
    64
 62
     7
  6
CONTINUOUS
  0
LAYER
  2
255
 70
    64
 62
     7
  6
CONTINUOUS
  0
ENDTAB
  0
TABLE
  2
STYLE
 70
     2
  0
STYLE
  2
STANDARD
 70
    64
 40
0.0
 41
1.0
 50
0.0
 71
     0
 42
3.000000
  3
TXT
  4
BIGFONT
  0
ENDTAB
  0
ENDSEC
  0
SECTION
  2
ENTITIES
  0
LINE
  8
0
  6
DASHDOT
 62
     7
 10
 0
 20
 25.999999999999993
 11
 0
 21
 0
  0
LINE
  8
0
  6
DASHDOT
 62
     7
 10
 0
 20
-11.5
 11
 0
 21
-36.999999999999993
  0
LINE
  8
0
  6
DASHDOT
 62
     7
 10
-12.999999999999972
 20
 13.000000000000007
 11
 13.000000000000014
 21
 13.000000000000007
  0
CIRCLE
  8
0
  6
CONTINUOUS
 62
     3
 10
 0
 20
 13.000000000000007
 40
 4
  0
CIRCLE
  8
0
  6
CONTINUOUS
 62
     3
 10
 0
 20
 13.000000000000007
 40
 5
  0
CIRCLE
  8
0
  6
DOT
 62
     3
 10
 0
 20
 13.000000000000007
 40
 2
  0
LINE
  8
0
  6
CONTINUOUS
 62
     3
 10
-3.576436455808448
 20
-17
 11
 3.5764364558085049
 21
-17
  0
ARC
  8
0
  6
CONTINUOUS
 62
     3
 10
-3.576436455808448
 20
-17.500000000000004
 40
 0.5
 50
 90.000001535234517
 51
 170.53768070103334
  0
ARC
  8
0
  6
CONTINUOUS
 62
     3
 10
 3.5764364558085049
 20
-17.500000000000004
 40
 0.5
 50
 9.4623223694351726
 51
 90.000001535234517
  0
LINE
  8
0
  6
CONTINUOUS
 62
     3
 10
 5
 20
-22.999999999999989
 11
-5
 21
-22.999999999999989
  0
LINE
  8
0
  6
CONTINUOUS
 62
     3
 10
-3
 20
-24.999999999999989
 11
 3
 21
-24.999999999999989
  0
LINE
  8
0
  6
CONTINUOUS
 62
     3
 10
 3
 20
-24.999999999999989
 11
 3
 21
-26.499999999999993
  0
LINE
  8
0
  6
CONTINUOUS
 62
     3
 10
 3
 20
-26.499999999999993
 11
-3
 21
-26.499999999999993
  0
LINE
  8
0
  6
CONTINUOUS
 62
     3
 10
-3
 20
-26.499999999999993
 11
-3
 21
-24.999999999999989
  0
LINE
  8
0
  6
CONTINUOUS
 62
     3
 10
 0.75
 20
-29.999999999999986
 11
 0.75
 21
-34.999999999999993
  0
LINE
  8
0
  6
CONTINUOUS
 62
     3
 10
 0.75
 20
-34.999999999999993
 11
-0.7499999999999716
 21
-34.999999999999993
  0
LINE
  8
0
  6
CONTINUOUS
 62
     3
 10
-0.7499999999999716
 20
-34.999999999999993
 11
-0.7499999999999716
 21
-29.999999999999986
  0
LINE
  8
0
  6
CONTINUOUS
 62
     3
 10
-0.7499999999999716
 20
-29.999999999999986
 11
-3
 21
-26.499999999999993
  0
LINE
  8
0
  6
CONTINUOUS
 62
     3
 10
 0.75
 20
-29.999999999999986
 11
 3
 21
-26.499999999999993
  0
LINE
  8
0
  6
CONTINUOUS
 62
     3
 10
-1.9999999999999716
 20
-22.999999999999989
 11
-1.9999999999999716
 21
-24.999999999999989
  0
LINE
  8
0
  6
CONTINUOUS
 62
     3
 10
 2
 20
-24.999999999999989
 11
 2
 21
-22.999999999999989
  0
LINE
  8
0
  6
CONTINUOUS
 62
     3
 10
-4.0696334177245319
 20
-17.417800506347319
 11
-5
 21
-22.999999999999989
  0
LINE
  8
0
  6
CONTINUOUS
 62
     3
 10
 4.0696334177245603
 20
-17.417800506347319
 11
 5
 21
-22.999999999999989
  0
LINE
  8
0
  6
CONTINUOUS
 62
     7
 10
 7
 20
-24.999999999999964
 11
 15.959999999999994
 21
-24.999999999999964
  0
LINE
  8
0
  6
CONTINUOUS
 62
     7
 10
 15
 20
-24.999999999999964
 11
 15
 21
-22.999999999999964
  0
TEXT
  8
0
  6
CONTINUOUS
 62
     7
 10
 14.039999999999981
 20
-21.239999999999966
 11
 14.039999999999985
 21
-19.479999999999968
 40
 2.2000000000000002
 41
 0.8
  1
２
 50
 90.000001535234517
 72
  5
  0
LINE
  8
0
  6
CONTINUOUS
 62
     7
 10
 15
 20
-17.719999999999978
 11
 15
 21
-22.999999999999964
  0
LINE
  8
0
  6
CONTINUOUS
 62
     7
 10
 15
 20
-22.999999999999964
 11
 15.776457135307563
 21
-20.102222521132759
  0
LINE
  8
0
  6
CONTINUOUS
 62
     7
 10
 15
 20
-22.999999999999964
 11
 14.223542864692437
 21
-20.102222521132759
  0
LINE
  8
0
  6
CONTINUOUS
 62
     7
 10
-3.9999999999999716
 20
 18.000000000000007
 11
-3.9999999999999716
 21
 28.960000000000001
  0
LINE
  8
0
  6
CONTINUOUS
 62
     7
 10
 4
 20
 18.000000000000007
 11
 4
 21
 28.960000000000001
  0
LINE
  8
0
  6
CONTINUOUS
 62
     7
 10
-3.9999999999999716
 20
 28.000000000000021
 11
 4
 21
 28.000000000000021
  0
LINE
  8
0
  6
CONTINUOUS
 62
     7
 10
-3.9999999999999716
 20
 28.000000000000021
 11
-1.1022225211327665
 21
 27.223542864692458
  0
LINE
  8
0
  6
CONTINUOUS
 62
     7
 10
-3.9999999999999716
 20
 28.000000000000021
 11
-1.1022225211327665
 21
 28.776457135307584
  0
LINE
  8
0
  6
CONTINUOUS
 62
     7
 10
 4
 20
 28.000000000000021
 11
 1.102222521132795
 21
 28.776457135307584
  0
LINE
  8
0
  6
CONTINUOUS
 62
     7
 10
 4
 20
 28.000000000000021
 11
 1.102222521132795
 21
 27.223542864692458
  0
TEXT
  8
0
  6
CONTINUOUS
 62
     7
 10
-1.8799999999999433
 20
 28.959999999999997
 11
 2.1400000000000574
 21
 28.959999999999994
 40
 2.2000000000000002
 41
 0.8
  1
φ８
 50
 0
 72
  5
  0
LINE
  8
0
  6
CONTINUOUS
 62
     7
 10
-4.9999999999999716
 20
 16.000000000000007
 11
-4.9999999999999716
 21
 33.960000000000001
  0
LINE
  8
0
  6
CONTINUOUS
 62
     7
 10
 5.0000000000000284
 20
 16.000000000000007
 11
 5.0000000000000284
 21
 33.960000000000001
  0
LINE
  8
0
  6
CONTINUOUS
 62
     7
 10
-4.9999999999999716
 20
 33.000000000000021
 11
 5.0000000000000284
 21
 33.000000000000021
  0
LINE
  8
0
  6
CONTINUOUS
 62
     7
 10
-4.9999999999999716
 20
 33.000000000000021
 11
-2.1022225211327665
 21
 32.223542864692462
  0
LINE
  8
0
  6
CONTINUOUS
 62
     7
 10
-4.9999999999999716
 20
 33.000000000000021
 11
-2.1022225211327665
 21
 33.776457135307581
  0
LINE
  8
0
  6
CONTINUOUS
 62
     7
 10
 5.0000000000000284
 20
 33.000000000000021
 11
 2.1022225211328234
 21
 33.776457135307581
  0
LINE
  8
0
  6
CONTINUOUS
 62
     7
 10
 5.0000000000000284
 20
 33.000000000000021
 11
 2.1022225211328234
 21
 32.223542864692462
  0
TEXT
  8
0
  6
CONTINUOUS
 62
     7
 10
-3.0099999999999953
 20
 33.959999999999994
 11
 3.2700000000000058
 21
 33.959999999999994
 40
 2.2000000000000002
 41
 0.8
  1
φ１０
 50
 0
 72
  5
  0
LINE
  8
0
  6
CONTINUOUS
 62
     7
 10
-1.9999999999999716
 20
-18
 11
-1.9999999999999716
 21
-5.5399999999999991
  0
LINE
  8
0
  6
CONTINUOUS
 62
     7
 10
 2
 20
-18
 11
 2
 21
-5.5399999999999991
  0
LINE
  8
0
  6
CONTINUOUS
 62
     7
 10
-1.9999999999999716
 20
-6.5
 11
 2
 21
-6.5
  0
TEXT
  8
0
  6
CONTINUOUS
 62
     7
 10
-6.5199999999999578
 20
-5.5400000000000045
 11
-2.4999999999999574
 21
-5.5400000000000045
 40
 2.2000000000000002
 41
 0.8
  1
φ４
 50
 0
 72
  5
  0
LINE
  8
0
  6
CONTINUOUS
 62
     7
 10
-7.2799999999999727
 20
-6.5
 11
-1.9999999999999716
 21
-6.5
  0
LINE
  8
0
  6
CONTINUOUS
 62
     7
 10
-1.9999999999999716
 20
-6.5
 11
-4.8977774788671766
 21
-5.7235428646924378
  0
LINE
  8
0
  6
CONTINUOUS
 62
     7
 10
-1.9999999999999716
 20
-6.5
 11
-4.8977774788671766
 21
-7.2764571353075622
  0
LINE
  8
0
  6
CONTINUOUS
 62
     7
 10
 9.6800000000000352
 20
-6.5
 11
 2
 21
-6.5
  0
LINE
  8
0
  6
CONTINUOUS
 62
     7
 10
 2
 20
-6.5
 11
 4.897777478867205
 21
-7.2764571353075622
  0
LINE
  8
0
  6
CONTINUOUS
 62
     7
 10
 2
 20
-6.5
 11
 4.897777478867205
 21
-5.7235428646924378
  0
LINE
  8
0
  6
CONTINUOUS
 62
     7
 10
-0.7499999999999716
 20
-36.999999999999993
 11
-0.7499999999999716
 21
-45.959999999999987
  0
LINE
  8
0
  6
CONTINUOUS
 62
     7
 10
 0.75
 20
-36.999999999999993
 11
 0.75
 21
-45.959999999999987
  0
LINE
  8
0
  6
CONTINUOUS
 62
     7
 10
-0.7499999999999716
 20
-44.999999999999986
 11
 0.75
 21
-44.999999999999986
  0
TEXT
  8
0
  6
CONTINUOUS
 62
     7
 10
-11.803253171247695
 20
-44.039999999999992
 11
-3.2632531712476931
 21
-44.039999999999992
 40
 2.2000000000000002
 41
 0.8
  1
φ１．５
 50
 0
 72
  5
  0
LINE
  8
0
  6
CONTINUOUS
 62
     7
 10
-11.563253171247709
 20
-44.999999999999986
 11
-0.7499999999999716
 21
-44.999999999999986
  0
LINE
  8
0
  6
CONTINUOUS
 62
     7
 10
-0.7499999999999716
 20
-44.999999999999986
 11
-3.6477774788671766
 21
-44.223542864692426
  0
LINE
  8
0
  6
CONTINUOUS
 62
     7
 10
-0.7499999999999716
 20
-44.999999999999986
 11
-3.6477774788671766
 21
-45.776457135307545
  0
LINE
  8
0
  6
CONTINUOUS
 62
     7
 10
 8.4300000000000352
 20
-44.999999999999986
 11
 0.75
 21
-44.999999999999986
  0
LINE
  8
0
  6
CONTINUOUS
 62
     7
 10
 0.75
 20
-44.999999999999986
 11
 3.647777478867205
 21
-45.776457135307545
  0
LINE
  8
0
  6
CONTINUOUS
 62
     7
 10
 0.75
 20
-44.999999999999986
 11
 3.647777478867205
 21
-44.223542864692426
  0
LINE
  8
0
  6
CONTINUOUS
 62
     7
 10
-3
 20
-28.500000000000004
 11
-3
 21
-50.960000000000008
  0
LINE
  8
0
  6
CONTINUOUS
 62
     7
 10
 3
 20
-28.499999999999993
 11
 3
 21
-50.960000000000008
  0
LINE
  8
0
  6
CONTINUOUS
 62
     7
 10
-3
 20
-50
 11
 3
 21
-50
  0
LINE
  8
0
  6
CONTINUOUS
 62
     7
 10
-3
 20
-50
 11
-0.102222521132795
 21
-50.77645713530756
  0
LINE
  8
0
  6
CONTINUOUS
 62
     7
 10
-3
 20
-50
 11
-0.102222521132795
 21
-49.22354286469244
  0
LINE
  8
0
  6
CONTINUOUS
 62
     7
 10
 3
 20
-50
 11
 0.102222521132795
 21
-49.22354286469244
  0
LINE
  8
0
  6
CONTINUOUS
 62
     7
 10
 3
 20
-50
 11
 0.102222521132795
 21
-50.77645713530756
  0
TEXT
  8
0
  6
CONTINUOUS
 62
     7
 10
-1.880000000000057
 20
-49.039999999999999
 11
 2.1399999999999437
 21
-49.039999999999999
 40
 2.2000000000000002
 41
 0.8
  1
φ６
 50
 0
 72
  5
  0
LINE
  8
0
  6
CONTINUOUS
 62
     7
 10
 7
 20
-29.999999999999986
 11
 15.959999999999994
 21
-29.999999999999986
  0
LINE
  8
0
  6
CONTINUOUS
 62
     7
 10
 15
 20
-29.999999999999986
 11
 15
 21
-24.999999999999964
  0
LINE
  8
0
  6
CONTINUOUS
 62
     7
 10
 15
 20
-29.999999999999986
 11
 15.776457135307563
 21
-27.102222521132781
  0
LINE
  8
0
  6
CONTINUOUS
 62
     7
 10
 15
 20
-29.999999999999986
 11
 14.223542864692437
 21
-27.102222521132781
  0
LINE
  8
0
  6
CONTINUOUS
 62
     7
 10
 15
 20
-24.999999999999964
 11
 14.223542864692437
 21
-27.89777747886717
  0
LINE
  8
0
  6
CONTINUOUS
 62
     7
 10
 15
 20
-24.999999999999964
 11
 15.776457135307563
 21
-27.89777747886717
  0
TEXT
  8
0
  6
CONTINUOUS
 62
     7
 10
 14.039999999999981
 20
-28.379999999999978
 11
 14.039999999999985
 21
-26.61999999999998
 40
 2.2000000000000002
 41
 0.8
  1
5
 50
 90.000001535234517
 72
  5
  0
LINE
  8
0
  6
CONTINUOUS
 62
     7
 10
 1.75
 20
-34.999999999999993
 11
 21
 21
-34.999999999999993
  0
LINE
  8
0
  6
CONTINUOUS
 62
     7
 10
 6
 20
-22.999999999999989
 11
 21
 21
-22.999999999999989
  0
LINE
  8
0
  6
CONTINUOUS
 62
     7
 10
 20
 20
-34.999999999999993
 11
 20
 21
-22.999999999999989
  0
LINE
  8
0
  6
CONTINUOUS
 62
     7
 10
 20
 20
-34.999999999999993
 11
 20.776457135307563
 21
-32.102222521132788
  0
LINE
  8
0
  6
CONTINUOUS
 62
     7
 10
 20
 20
-34.999999999999993
 11
 19.223542864692437
 21
-32.102222521132788
  0
LINE
  8
0
  6
CONTINUOUS
 62
     7
 10
 20
 20
-22.999999999999989
 11
 19.223542864692437
 21
-25.897777478867194
  0
LINE
  8
0
  6
CONTINUOUS
 62
     7
 10
 20
 20
-22.999999999999989
 11
 20.776457135307563
 21
-25.897777478867194
  0
TEXT
  8
0
  6
CONTINUOUS
 62
     7
 10
 19.199999999999999
 20
-30.999999999999993
 11
 19.199999999999999
 21
-26.999999999999993
 40
 2.5
 41
 0.8
  1
12
 50
 90.000001535234517
 72
  5
  0
LINE
  8
0
  6
CONTINUOUS
 62
     7
 10
 5.5764364558085049
 20
-17.000000000000004
 11
 21
 21
-17.000000000000004
  0
LINE
  8
0
  6
CONTINUOUS
 62
     7
 10
 7
 20
-22.999999999999989
 11
 21
 21
-22.999999999999989
  0
LINE
  8
0
  6
CONTINUOUS
 62
     7
 10
 20
 20
-22.999999999999989
 11
 20
 21
-17.000000000000004
  0
LINE
  8
0
  6
CONTINUOUS
 62
     7
 10
 20
 20
-22.999999999999989
 11
 20.776457135307563
 21
-20.102222521132784
  0
LINE
  8
0
  6
CONTINUOUS
 62
     7
 10
 20
 20
-22.999999999999989
 11
 19.223542864692437
 21
-20.102222521132784
  0
LINE
  8
0
  6
CONTINUOUS
 62
     7
 10
 20
 20
-17.000000000000004
 11
 19.223542864692437
 21
-19.897777478867209
  0
LINE
  8
0
  6
CONTINUOUS
 62
     7
 10
 20
 20
-17.000000000000004
 11
 20.776457135307563
 21
-19.897777478867209
  0
TEXT
  8
0
  6
CONTINUOUS
 62
     7
 10
 19.199999999999999
 20
-20.999999999999996
 11
 19.199999999999999
 21
-18.999999999999996
 40
 2.5
 41
 0.8
  1
6
 50
 90.000001535234517
 72
  5
  0
LINE
  8
256
  6
CONTINUOUS
 62
     7
 10
-193.30000000000001
 20
 124.99999645625348
 11
-93.300000000000011
 21
 124.99999645625348
  0
LINE
  8
256
  6
CONTINUOUS
 62
     7
 10
-93.300000000000011
 20
 124.9999964562535
 11
-93.300000000000011
 21
 136.99999721136808
  0
TEXT
  8
256
  6
CONTINUOUS
 62
     7
 10
-188.30000000000001
 20
 127.99999604817611
 11
-140.30000000000001
 21
 127.99999604817611
 40
 6
 41
 1
  1
Ｉ－４４０１３Ｄ
 50
 0
 72
  5
  0
LINE
  8
256
  6
CONTINUOUS
 62
     7
 10
 104.99998474121094
 20
-121.5
 11
 200
 21
-121.5
  0
LINE
  8
256
  6
CONTINUOUS
 62
     7
 10
 170.99998474121094
 20
-109.5
 11
 170.99998474121094
 21
-121.5
  0
TEXT
  8
256
  6
CONTINUOUS
 62
     7
 10
 112.5
 20
-134.25
 11
 136.5
 21
-134.25
 40
 6
 41
 1
  1
ＣＢ－５
 50
 0
 72
  5
  0
TEXT
  8
256
  6
CONTINUOUS
 62
     7
 10
 125.99998474121094
 20
-119.75
 11
 149.99998474121094
 21
-119.75
 40
 5
 41
 0.8
  1
戸当たりゴム
 50
 0
 72
  5
  0
TEXT
  8
256
  6
CONTINUOUS
 62
     7
 10
 106.29998779296875
 20
-112.4499633789062
 11
 111.29998779296875
 21
-112.4499633789062
 40
 2.5
 41
 0.8
  1
品名
 50
 0
 72
  5
  0
TEXT
  8
256
  6
CONTINUOUS
 62
     7
 10
 106.29998779296875
 20
-124.45003051757811
 11
 111.29998779296875
 21
-124.45003051757811
 40
 2.5
 41
 0.8
  1
品番
 50
 0
 72
  5
  0
LINE
  8
256
  6
CONTINUOUS
 62
     7
 10
 104.99998474121094
 20
-139.5
 11
 104.99998474121094
 21
-109.5
  0
LINE
  8
256
  6
CONTINUOUS
 62
     7
 10
 104.99998474121094
 20
-109.5
 11
 200
 21
-109.5
  0
LINE
  8
256
  6
CONTINUOUS
 62
     7
 10
-193.30000000000001
 20
 136.99999721136808
 11
-193.30000000000001
 21
-139.49999999999994
  0
LINE
  8
256
  6
CONTINUOUS
 62
     7
 10
-193.30000000000001
 20
 136.99999721136808
 11
 200
 21
 136.99999721136808
  0
LINE
  8
256
  6
CONTINUOUS
 62
     7
 10
 200
 20
-139.5
 11
-193.30000000000001
 21
-139.49999999999994
  0
LINE
  8
256
  6
CONTINUOUS
 62
     7
 10
 200
 20
 136.99999721136808
 11
 200
 21
-139.5
  0
ENDSEC
  0
EOF
