  0
SECTION
  2
HEADER
  9
$INSBASE
 10
0.0
20
0.0
  9
$REGENMODE
 70
     1
  9
$DRAGMODE
 70
     1
  9
$DIMTAD
 70
     1
  9
$EXTMIN
 10
-210.000000
 20
-148.500000
 30
 0.0
  9
$EXTMAX
 10
210.000000
 20
148.500000
 30
 0.0
  9
$LUPREC
 70
    3
  9
$AUPREC
 70
    3
  9
$LTSCALE
 40
26.250000
  0
ENDSEC
  0
SECTION
  2
TABLES
  0
TABLE
  2
LTYPE
 70
     6
  0
LTYPE
  2
CONTINUOUS
 70
    64
  3
SOLID
 72
    65
 73
     0
 40
0.0
  0
LTYPE
  2
DASHED2
 70
    64
  3
_ _ _ _ _ _ _ _ _ _ _ _ _ _ _ _ _ _ _ _ _ _ 
 72
    65
 73
     2
 40
0.5
 49
0.25
 49
-0.25
  0
LTYPE
  2
DASHED
 70
    64
  3
__ __ __ __ __ __ __ __ __ __ __ __ __ __ __
 72
    65
 73
     2
 40
0.75
 49
0.5
 49
-0.25
  0
LTYPE
  2
DASHEDX2
 70
    64
  3
____  ____  ____  ____  ____  ____  ____  __
 72
    65
 73
     2
 40
1.5
 49
1.0
 49
-0.5
  0
LTYPE
  2
DOT
 70
    64
  3
............................................
 72
    65
 73
     2
 40
0.25
 49
0
 49
-0.25
  0
LTYPE
  2
DASHDOT
 70
    64
  3
__ . __ . __ . __ . __ . __ . __ . __ . __ .
 72
    65
 73
     4
 40
1.0
 49
0.5
 49
-0.25
 49
0.0
 49
-0.25
  0
LTYPE
  2
CENTER
 70
    64
  3
____ _ ____ _ ____ _ ____ _ ____ _ ____ _ __
 72
    65
 73
     4
 40
2.0
 49
1.25
 49
-0.25
 49
0.25
 49
-0.25
  0
LTYPE
  2
DIVIDE
 70
    64
  3
__ . . __ . . __ . . __ . . __ . . __ . . __
 72
    65
 73
     6
 40
1.25
 49
0.5
 49
-0.25
 49
0.0
 49
-0.25
 49
0.0
 49
-0.25
  0
LTYPE
  2
PHANTOM2
 70
    64
  3
___ _ _ ___ _ _ ___ _ _ ___ _ _ ___ _ _ ___ 
 72
    65
 73
     6
 40
1.25
 49
0.625
 49
-0.125
 49
0.125
 49
-0.125
 49
0.125
 49
-0.125
  0
LTYPE
  2
DOTX2
 70
    64
  3
. . . . . . . . . . . . . . . . . . . . . . 
 72
    65
 73
     2
 40
0.5
 49
0
 49
-0.5
  0
ENDTAB
  0
TABLE
  2
LAYER
 70
   255
  0
LAYER
  2
0
 70
    64
 62
     7
  6
CONTINUOUS
  0
LAYER
  2
1
 70
    64
 62
     7
  6
CONTINUOUS
  0
LAYER
  2
2
 70
    64
 62
     7
  6
CONTINUOUS
  0
LAYER
  2
3
 70
    64
 62
     7
  6
CONTINUOUS
  0
LAYER
  2
4
 70
    64
 62
     7
  6
CONTINUOUS
  0
LAYER
  2
5
 70
    64
 62
     7
  6
CONTINUOUS
  0
LAYER
  2
6
 70
    64
 62
     7
  6
CONTINUOUS
  0
LAYER
  2
7
 70
    64
 62
     7
  6
CONTINUOUS
  0
LAYER
  2
8
 70
    64
 62
     7
  6
CONTINUOUS
  0
LAYER
  2
9
 70
    64
 62
     7
  6
CONTINUOUS
  0
LAYER
  2
10
 70
    64
 62
     7
  6
CONTINUOUS
  0
LAYER
  2
11
 70
    64
 62
     7
  6
CONTINUOUS
  0
LAYER
  2
12
 70
    64
 62
     7
  6
CONTINUOUS
  0
LAYER
  2
13
 70
    64
 62
     7
  6
CONTINUOUS
  0
LAYER
  2
14
 70
    64
 62
     7
  6
CONTINUOUS
  0
LAYER
  2
15
 70
    64
 62
     7
  6
CONTINUOUS
  0
LAYER
  2
16
 70
    64
 62
     7
  6
CONTINUOUS
  0
LAYER
  2
17
 70
    64
 62
     7
  6
CONTINUOUS
  0
LAYER
  2
18
 70
    64
 62
     7
  6
CONTINUOUS
  0
LAYER
  2
19
 70
    64
 62
     7
  6
CONTINUOUS
  0
LAYER
  2
20
 70
    64
 62
     7
  6
CONTINUOUS
  0
LAYER
  2
21
 70
    64
 62
     7
  6
CONTINUOUS
  0
LAYER
  2
22
 70
    64
 62
     7
  6
CONTINUOUS
  0
LAYER
  2
23
 70
    64
 62
     7
  6
CONTINUOUS
  0
LAYER
  2
24
 70
    64
 62
     7
  6
CONTINUOUS
  0
LAYER
  2
25
 70
    64
 62
     7
  6
CONTINUOUS
  0
LAYER
  2
26
 70
    64
 62
     7
  6
CONTINUOUS
  0
LAYER
  2
27
 70
    64
 62
     7
  6
CONTINUOUS
  0
LAYER
  2
28
 70
    64
 62
     7
  6
CONTINUOUS
  0
LAYER
  2
29
 70
    64
 62
     7
  6
CONTINUOUS
  0
LAYER
  2
30
 70
    64
 62
     7
  6
CONTINUOUS
  0
LAYER
  2
31
 70
    64
 62
     7
  6
CONTINUOUS
  0
LAYER
  2
32
 70
    64
 62
     7
  6
CONTINUOUS
  0
LAYER
  2
33
 70
    64
 62
     7
  6
CONTINUOUS
  0
LAYER
  2
34
 70
    64
 62
     7
  6
CONTINUOUS
  0
LAYER
  2
35
 70
    64
 62
     7
  6
CONTINUOUS
  0
LAYER
  2
36
 70
    64
 62
     7
  6
CONTINUOUS
  0
LAYER
  2
37
 70
    64
 62
     7
  6
CONTINUOUS
  0
LAYER
  2
38
 70
    64
 62
     7
  6
CONTINUOUS
  0
LAYER
  2
39
 70
    64
 62
     7
  6
CONTINUOUS
  0
LAYER
  2
40
 70
    64
 62
     7
  6
CONTINUOUS
  0
LAYER
  2
41
 70
    64
 62
     7
  6
CONTINUOUS
  0
LAYER
  2
42
 70
    64
 62
     7
  6
CONTINUOUS
  0
LAYER
  2
43
 70
    64
 62
     7
  6
CONTINUOUS
  0
LAYER
  2
44
 70
    64
 62
     7
  6
CONTINUOUS
  0
LAYER
  2
45
 70
    64
 62
     7
  6
CONTINUOUS
  0
LAYER
  2
46
 70
    64
 62
     7
  6
CONTINUOUS
  0
LAYER
  2
47
 70
    64
 62
     7
  6
CONTINUOUS
  0
LAYER
  2
48
 70
    64
 62
     7
  6
CONTINUOUS
  0
LAYER
  2
49
 70
    64
 62
     7
  6
CONTINUOUS
  0
LAYER
  2
50
 70
    64
 62
     7
  6
CONTINUOUS
  0
LAYER
  2
51
 70
    64
 62
     7
  6
CONTINUOUS
  0
LAYER
  2
52
 70
    64
 62
     7
  6
CONTINUOUS
  0
LAYER
  2
53
 70
    64
 62
     7
  6
CONTINUOUS
  0
LAYER
  2
54
 70
    64
 62
     7
  6
CONTINUOUS
  0
LAYER
  2
55
 70
    64
 62
     7
  6
CONTINUOUS
  0
LAYER
  2
56
 70
    64
 62
     7
  6
CONTINUOUS
  0
LAYER
  2
57
 70
    64
 62
     7
  6
CONTINUOUS
  0
LAYER
  2
58
 70
    64
 62
     7
  6
CONTINUOUS
  0
LAYER
  2
59
 70
    64
 62
     7
  6
CONTINUOUS
  0
LAYER
  2
60
 70
    64
 62
     7
  6
CONTINUOUS
  0
LAYER
  2
61
 70
    64
 62
     7
  6
CONTINUOUS
  0
LAYER
  2
62
 70
    64
 62
     7
  6
CONTINUOUS
  0
LAYER
  2
63
 70
    64
 62
     7
  6
CONTINUOUS
  0
LAYER
  2
64
 70
    64
 62
     7
  6
CONTINUOUS
  0
LAYER
  2
65
 70
    64
 62
     7
  6
CONTINUOUS
  0
LAYER
  2
66
 70
    64
 62
     7
  6
CONTINUOUS
  0
LAYER
  2
67
 70
    64
 62
     7
  6
CONTINUOUS
  0
LAYER
  2
68
 70
    64
 62
     7
  6
CONTINUOUS
  0
LAYER
  2
69
 70
    64
 62
     7
  6
CONTINUOUS
  0
LAYER
  2
70
 70
    64
 62
     7
  6
CONTINUOUS
  0
LAYER
  2
71
 70
    64
 62
     7
  6
CONTINUOUS
  0
LAYER
  2
72
 70
    64
 62
     7
  6
CONTINUOUS
  0
LAYER
  2
73
 70
    64
 62
     7
  6
CONTINUOUS
  0
LAYER
  2
74
 70
    64
 62
     7
  6
CONTINUOUS
  0
LAYER
  2
75
 70
    64
 62
     7
  6
CONTINUOUS
  0
LAYER
  2
76
 70
    64
 62
     7
  6
CONTINUOUS
  0
LAYER
  2
77
 70
    64
 62
     7
  6
CONTINUOUS
  0
LAYER
  2
78
 70
    64
 62
     7
  6
CONTINUOUS
  0
LAYER
  2
79
 70
    64
 62
     7
  6
CONTINUOUS
  0
LAYER
  2
80
 70
    64
 62
     7
  6
CONTINUOUS
  0
LAYER
  2
81
 70
    64
 62
     7
  6
CONTINUOUS
  0
LAYER
  2
82
 70
    64
 62
     7
  6
CONTINUOUS
  0
LAYER
  2
83
 70
    64
 62
     7
  6
CONTINUOUS
  0
LAYER
  2
84
 70
    64
 62
     7
  6
CONTINUOUS
  0
LAYER
  2
85
 70
    64
 62
     7
  6
CONTINUOUS
  0
LAYER
  2
86
 70
    64
 62
     7
  6
CONTINUOUS
  0
LAYER
  2
87
 70
    64
 62
     7
  6
CONTINUOUS
  0
LAYER
  2
88
 70
    64
 62
     7
  6
CONTINUOUS
  0
LAYER
  2
89
 70
    64
 62
     7
  6
CONTINUOUS
  0
LAYER
  2
90
 70
    64
 62
     7
  6
CONTINUOUS
  0
LAYER
  2
91
 70
    64
 62
     7
  6
CONTINUOUS
  0
LAYER
  2
92
 70
    64
 62
     7
  6
CONTINUOUS
  0
LAYER
  2
93
 70
    64
 62
     7
  6
CONTINUOUS
  0
LAYER
  2
94
 70
    64
 62
     7
  6
CONTINUOUS
  0
LAYER
  2
95
 70
    64
 62
     7
  6
CONTINUOUS
  0
LAYER
  2
96
 70
    64
 62
     7
  6
CONTINUOUS
  0
LAYER
  2
97
 70
    64
 62
     7
  6
CONTINUOUS
  0
LAYER
  2
98
 70
    64
 62
     7
  6
CONTINUOUS
  0
LAYER
  2
99
 70
    64
 62
     7
  6
CONTINUOUS
  0
LAYER
  2
100
 70
    64
 62
     7
  6
CONTINUOUS
  0
LAYER
  2
101
 70
    64
 62
     7
  6
CONTINUOUS
  0
LAYER
  2
102
 70
    64
 62
     7
  6
CONTINUOUS
  0
LAYER
  2
103
 70
    64
 62
     7
  6
CONTINUOUS
  0
LAYER
  2
104
 70
    64
 62
     7
  6
CONTINUOUS
  0
LAYER
  2
105
 70
    64
 62
     7
  6
CONTINUOUS
  0
LAYER
  2
106
 70
    64
 62
     7
  6
CONTINUOUS
  0
LAYER
  2
107
 70
    64
 62
     7
  6
CONTINUOUS
  0
LAYER
  2
108
 70
    64
 62
     7
  6
CONTINUOUS
  0
LAYER
  2
109
 70
    64
 62
     7
  6
CONTINUOUS
  0
LAYER
  2
110
 70
    64
 62
     7
  6
CONTINUOUS
  0
LAYER
  2
111
 70
    64
 62
     7
  6
CONTINUOUS
  0
LAYER
  2
112
 70
    64
 62
     7
  6
CONTINUOUS
  0
LAYER
  2
113
 70
    64
 62
     7
  6
CONTINUOUS
  0
LAYER
  2
114
 70
    64
 62
     7
  6
CONTINUOUS
  0
LAYER
  2
115
 70
    64
 62
     7
  6
CONTINUOUS
  0
LAYER
  2
116
 70
    64
 62
     7
  6
CONTINUOUS
  0
LAYER
  2
117
 70
    64
 62
     7
  6
CONTINUOUS
  0
LAYER
  2
118
 70
    64
 62
     7
  6
CONTINUOUS
  0
LAYER
  2
119
 70
    64
 62
     7
  6
CONTINUOUS
  0
LAYER
  2
120
 70
    64
 62
     7
  6
CONTINUOUS
  0
LAYER
  2
121
 70
    64
 62
     7
  6
CONTINUOUS
  0
LAYER
  2
122
 70
    64
 62
     7
  6
CONTINUOUS
  0
LAYER
  2
123
 70
    64
 62
     7
  6
CONTINUOUS
  0
LAYER
  2
124
 70
    64
 62
     7
  6
CONTINUOUS
  0
LAYER
  2
125
 70
    64
 62
     7
  6
CONTINUOUS
  0
LAYER
  2
126
 70
    64
 62
     7
  6
CONTINUOUS
  0
LAYER
  2
127
 70
    64
 62
     7
  6
CONTINUOUS
  0
LAYER
  2
128
 70
    64
 62
     7
  6
CONTINUOUS
  0
LAYER
  2
129
 70
    64
 62
     7
  6
CONTINUOUS
  0
LAYER
  2
130
 70
    64
 62
     7
  6
CONTINUOUS
  0
LAYER
  2
131
 70
    64
 62
     7
  6
CONTINUOUS
  0
LAYER
  2
132
 70
    64
 62
     7
  6
CONTINUOUS
  0
LAYER
  2
133
 70
    64
 62
     7
  6
CONTINUOUS
  0
LAYER
  2
134
 70
    64
 62
     7
  6
CONTINUOUS
  0
LAYER
  2
135
 70
    64
 62
     7
  6
CONTINUOUS
  0
LAYER
  2
136
 70
    64
 62
     7
  6
CONTINUOUS
  0
LAYER
  2
137
 70
    64
 62
     7
  6
CONTINUOUS
  0
LAYER
  2
138
 70
    64
 62
     7
  6
CONTINUOUS
  0
LAYER
  2
139
 70
    64
 62
     7
  6
CONTINUOUS
  0
LAYER
  2
140
 70
    64
 62
     7
  6
CONTINUOUS
  0
LAYER
  2
141
 70
    64
 62
     7
  6
CONTINUOUS
  0
LAYER
  2
142
 70
    64
 62
     7
  6
CONTINUOUS
  0
LAYER
  2
143
 70
    64
 62
     7
  6
CONTINUOUS
  0
LAYER
  2
144
 70
    64
 62
     7
  6
CONTINUOUS
  0
LAYER
  2
145
 70
    64
 62
     7
  6
CONTINUOUS
  0
LAYER
  2
146
 70
    64
 62
     7
  6
CONTINUOUS
  0
LAYER
  2
147
 70
    64
 62
     7
  6
CONTINUOUS
  0
LAYER
  2
148
 70
    64
 62
     7
  6
CONTINUOUS
  0
LAYER
  2
149
 70
    64
 62
     7
  6
CONTINUOUS
  0
LAYER
  2
150
 70
    64
 62
     7
  6
CONTINUOUS
  0
LAYER
  2
151
 70
    64
 62
     7
  6
CONTINUOUS
  0
LAYER
  2
152
 70
    64
 62
     7
  6
CONTINUOUS
  0
LAYER
  2
153
 70
    64
 62
     7
  6
CONTINUOUS
  0
LAYER
  2
154
 70
    64
 62
     7
  6
CONTINUOUS
  0
LAYER
  2
155
 70
    64
 62
     7
  6
CONTINUOUS
  0
LAYER
  2
156
 70
    64
 62
     7
  6
CONTINUOUS
  0
LAYER
  2
157
 70
    64
 62
     7
  6
CONTINUOUS
  0
LAYER
  2
158
 70
    64
 62
     7
  6
CONTINUOUS
  0
LAYER
  2
159
 70
    64
 62
     7
  6
CONTINUOUS
  0
LAYER
  2
160
 70
    64
 62
     7
  6
CONTINUOUS
  0
LAYER
  2
161
 70
    64
 62
     7
  6
CONTINUOUS
  0
LAYER
  2
162
 70
    64
 62
     7
  6
CONTINUOUS
  0
LAYER
  2
163
 70
    64
 62
     7
  6
CONTINUOUS
  0
LAYER
  2
164
 70
    64
 62
     7
  6
CONTINUOUS
  0
LAYER
  2
165
 70
    64
 62
     7
  6
CONTINUOUS
  0
LAYER
  2
166
 70
    64
 62
     7
  6
CONTINUOUS
  0
LAYER
  2
167
 70
    64
 62
     7
  6
CONTINUOUS
  0
LAYER
  2
168
 70
    64
 62
     7
  6
CONTINUOUS
  0
LAYER
  2
169
 70
    64
 62
     7
  6
CONTINUOUS
  0
LAYER
  2
170
 70
    64
 62
     7
  6
CONTINUOUS
  0
LAYER
  2
171
 70
    64
 62
     7
  6
CONTINUOUS
  0
LAYER
  2
172
 70
    64
 62
     7
  6
CONTINUOUS
  0
LAYER
  2
173
 70
    64
 62
     7
  6
CONTINUOUS
  0
LAYER
  2
174
 70
    64
 62
     7
  6
CONTINUOUS
  0
LAYER
  2
175
 70
    64
 62
     7
  6
CONTINUOUS
  0
LAYER
  2
176
 70
    64
 62
     7
  6
CONTINUOUS
  0
LAYER
  2
177
 70
    64
 62
     7
  6
CONTINUOUS
  0
LAYER
  2
178
 70
    64
 62
     7
  6
CONTINUOUS
  0
LAYER
  2
179
 70
    64
 62
     7
  6
CONTINUOUS
  0
LAYER
  2
180
 70
    64
 62
     7
  6
CONTINUOUS
  0
LAYER
  2
181
 70
    64
 62
     7
  6
CONTINUOUS
  0
LAYER
  2
182
 70
    64
 62
     7
  6
CONTINUOUS
  0
LAYER
  2
183
 70
    64
 62
     7
  6
CONTINUOUS
  0
LAYER
  2
184
 70
    64
 62
     7
  6
CONTINUOUS
  0
LAYER
  2
185
 70
    64
 62
     7
  6
CONTINUOUS
  0
LAYER
  2
186
 70
    64
 62
     7
  6
CONTINUOUS
  0
LAYER
  2
187
 70
    64
 62
     7
  6
CONTINUOUS
  0
LAYER
  2
188
 70
    64
 62
     7
  6
CONTINUOUS
  0
LAYER
  2
189
 70
    64
 62
     7
  6
CONTINUOUS
  0
LAYER
  2
190
 70
    64
 62
     7
  6
CONTINUOUS
  0
LAYER
  2
191
 70
    64
 62
     7
  6
CONTINUOUS
  0
LAYER
  2
192
 70
    64
 62
     7
  6
CONTINUOUS
  0
LAYER
  2
193
 70
    64
 62
     7
  6
CONTINUOUS
  0
LAYER
  2
194
 70
    64
 62
     7
  6
CONTINUOUS
  0
LAYER
  2
195
 70
    64
 62
     7
  6
CONTINUOUS
  0
LAYER
  2
196
 70
    64
 62
     7
  6
CONTINUOUS
  0
LAYER
  2
197
 70
    64
 62
     7
  6
CONTINUOUS
  0
LAYER
  2
198
 70
    64
 62
     7
  6
CONTINUOUS
  0
LAYER
  2
199
 70
    64
 62
     7
  6
CONTINUOUS
  0
LAYER
  2
200
 70
    64
 62
     7
  6
CONTINUOUS
  0
LAYER
  2
201
 70
    64
 62
     7
  6
CONTINUOUS
  0
LAYER
  2
202
 70
    64
 62
     7
  6
CONTINUOUS
  0
LAYER
  2
203
 70
    64
 62
     7
  6
CONTINUOUS
  0
LAYER
  2
204
 70
    64
 62
     7
  6
CONTINUOUS
  0
LAYER
  2
205
 70
    64
 62
     7
  6
CONTINUOUS
  0
LAYER
  2
206
 70
    64
 62
     7
  6
CONTINUOUS
  0
LAYER
  2
207
 70
    64
 62
     7
  6
CONTINUOUS
  0
LAYER
  2
208
 70
    64
 62
     7
  6
CONTINUOUS
  0
LAYER
  2
209
 70
    64
 62
     7
  6
CONTINUOUS
  0
LAYER
  2
210
 70
    64
 62
     7
  6
CONTINUOUS
  0
LAYER
  2
211
 70
    64
 62
     7
  6
CONTINUOUS
  0
LAYER
  2
212
 70
    64
 62
     7
  6
CONTINUOUS
  0
LAYER
  2
213
 70
    64
 62
     7
  6
CONTINUOUS
  0
LAYER
  2
214
 70
    64
 62
     7
  6
CONTINUOUS
  0
LAYER
  2
215
 70
    64
 62
     7
  6
CONTINUOUS
  0
LAYER
  2
216
 70
    64
 62
     7
  6
CONTINUOUS
  0
LAYER
  2
217
 70
    64
 62
     7
  6
CONTINUOUS
  0
LAYER
  2
218
 70
    64
 62
     7
  6
CONTINUOUS
  0
LAYER
  2
219
 70
    64
 62
     7
  6
CONTINUOUS
  0
LAYER
  2
220
 70
    64
 62
     7
  6
CONTINUOUS
  0
LAYER
  2
221
 70
    64
 62
     7
  6
CONTINUOUS
  0
LAYER
  2
222
 70
    64
 62
     7
  6
CONTINUOUS
  0
LAYER
  2
223
 70
    64
 62
     7
  6
CONTINUOUS
  0
LAYER
  2
224
 70
    64
 62
     7
  6
CONTINUOUS
  0
LAYER
  2
225
 70
    64
 62
     7
  6
CONTINUOUS
  0
LAYER
  2
226
 70
    64
 62
     7
  6
CONTINUOUS
  0
LAYER
  2
227
 70
    64
 62
     7
  6
CONTINUOUS
  0
LAYER
  2
228
 70
    64
 62
     7
  6
CONTINUOUS
  0
LAYER
  2
229
 70
    64
 62
     7
  6
CONTINUOUS
  0
LAYER
  2
230
 70
    64
 62
     7
  6
CONTINUOUS
  0
LAYER
  2
231
 70
    64
 62
     7
  6
CONTINUOUS
  0
LAYER
  2
232
 70
    64
 62
     7
  6
CONTINUOUS
  0
LAYER
  2
233
 70
    64
 62
     7
  6
CONTINUOUS
  0
LAYER
  2
234
 70
    64
 62
     7
  6
CONTINUOUS
  0
LAYER
  2
235
 70
    64
 62
     7
  6
CONTINUOUS
  0
LAYER
  2
236
 70
    64
 62
     7
  6
CONTINUOUS
  0
LAYER
  2
237
 70
    64
 62
     7
  6
CONTINUOUS
  0
LAYER
  2
238
 70
    64
 62
     7
  6
CONTINUOUS
  0
LAYER
  2
239
 70
    64
 62
     7
  6
CONTINUOUS
  0
LAYER
  2
240
 70
    64
 62
     7
  6
CONTINUOUS
  0
LAYER
  2
241
 70
    64
 62
     7
  6
CONTINUOUS
  0
LAYER
  2
242
 70
    64
 62
     7
  6
CONTINUOUS
  0
LAYER
  2
243
 70
    64
 62
     7
  6
CONTINUOUS
  0
LAYER
  2
244
 70
    64
 62
     7
  6
CONTINUOUS
  0
LAYER
  2
245
 70
    64
 62
     7
  6
CONTINUOUS
  0
LAYER
  2
246
 70
    64
 62
     7
  6
CONTINUOUS
  0
LAYER
  2
247
 70
    64
 62
     7
  6
CONTINUOUS
  0
LAYER
  2
248
 70
    64
 62
     7
  6
CONTINUOUS
  0
LAYER
  2
249
 70
    64
 62
     7
  6
CONTINUOUS
  0
LAYER
  2
250
 70
    64
 62
     7
  6
CONTINUOUS
  0
LAYER
  2
251
 70
    64
 62
     7
  6
CONTINUOUS
  0
LAYER
  2
252
 70
    64
 62
     7
  6
CONTINUOUS
  0
LAYER
  2
253
 70
    64
 62
     7
  6
CONTINUOUS
  0
LAYER
  2
254
 70
    64
 62
     7
  6
CONTINUOUS
  0
LAYER
  2
255
 70
    64
 62
     7
  6
CONTINUOUS
  0
ENDTAB
  0
TABLE
  2
STYLE
 70
     2
  0
STYLE
  2
STANDARD
 70
    64
 40
0.0
 41
1.0
 50
0.0
 71
     0
 42
3.000000
  3
TXT
  4
BIGFONT
  0
ENDTAB
  0
ENDSEC
  0
SECTION
  2
BLOCKS
  0
BLOCK
  8
0
  2
CADWIN-G0
 70
    0
 10
0.0
 20
0.0
  0
LINE
  8
256
  6
CONTINUOUS
 62
     7
 10
 104.99998474121094
 20
-121.5
 11
 200
 21
-121.5
  0
LINE
  8
256
  6
CONTINUOUS
 62
     7
 10
 170.99998474121094
 20
-109.5
 11
 170.99998474121094
 21
-121.5
  0
TEXT
  8
256
  6
CONTINUOUS
 62
     7
 10
 112.5
 20
-134.25
 11
 154.5
 21
-134.25
 40
 6
 41
 1
  1
ＮＦＫＭ－７５
 50
 0
 72
  5
  0
TEXT
  8
256
  6
CONTINUOUS
 62
     7
 10
 117.99998474121094
 20
-119.75
 11
 157.99998474121094
 21
-119.75
 40
 5
 41
 0.8
  1
主幹ＭＣＣＢ取付金具
 50
 0
 72
  5
  0
TEXT
  8
256
  6
CONTINUOUS
 62
     7
 10
 106.29998779296875
 20
-112.4499633789062
 11
 111.29998779296875
 21
-112.4499633789062
 40
 2.5
 41
 0.8
  1
品名
 50
 0
 72
  5
  0
TEXT
  8
256
  6
CONTINUOUS
 62
     7
 10
 106.29998779296875
 20
-124.45003051757811
 11
 111.29998779296875
 21
-124.45003051757811
 40
 2.5
 41
 0.8
  1
品番
 50
 0
 72
  5
  0
LINE
  8
256
  6
CONTINUOUS
 62
     7
 10
 104.99998474121094
 20
-139.5
 11
 104.99998474121094
 21
-109.5
  0
LINE
  8
256
  6
CONTINUOUS
 62
     7
 10
 104.99998474121094
 20
-109.5
 11
 200
 21
-109.5
  0
LINE
  8
256
  6
CONTINUOUS
 62
     7
 10
-193.30000000000001
 20
 124.99999645625348
 11
-93.300000000000011
 21
 124.99999645625348
  0
TEXT
  8
256
  6
CONTINUOUS
 62
     7
 10
-188.30000000000001
 20
 127.99999604817611
 11
-140.30000000000001
 21
 127.99999604817611
 40
 6
 41
 1
  1
ＬＢ－Ｄ５１７０
 50
 0
 72
  5
  0
LINE
  8
256
  6
CONTINUOUS
 62
     7
 10
-93.300000000000011
 20
 124.9999964562535
 11
-93.300000000000011
 21
 136.99999721136808
  0
LINE
  8
256
  6
CONTINUOUS
 62
     7
 10
 200
 20
-139.5
 11
-193.30000000000001
 21
-139.49999999999994
  0
LINE
  8
256
  6
CONTINUOUS
 62
     7
 10
 200
 20
 136.99999721136808
 11
 200
 21
-139.5
  0
LINE
  8
256
  6
CONTINUOUS
 62
     7
 10
-193.30000000000001
 20
 136.99999721136808
 11
-193.30000000000001
 21
-139.49999999999994
  0
LINE
  8
256
  6
CONTINUOUS
 62
     7
 10
-193.30000000000001
 20
 136.99999721136808
 11
 200
 21
 136.99999721136808
  0
ENDBLK
  8
0
  0
BLOCK
  8
0
  2
CADWIN-G1
 70
    0
 10
0.0
 20
0.0
  0
LINE
  8
0
  6
CONTINUOUS
 62
     7
 10
 24.75
 20
 70.000003814697266
 11
 40.75
 21
 70.000003814697266
  0
LINE
  8
0
  6
CONTINUOUS
 62
     7
 10
 39.75
 20
 70.000003814697266
 11
 39.75
 21
 60.000003814697266
  0
LINE
  8
0
  6
CONTINUOUS
 62
     7
 10
 39.75
 20
 70.000003814697266
 11
 38.97354286469244
 21
 67.102226335830068
  0
LINE
  8
0
  6
CONTINUOUS
 62
     7
 10
 39.75
 20
 70.000003814697266
 11
 40.52645713530756
 21
 67.102226335830068
  0
LINE
  8
0
  6
CONTINUOUS
 62
     7
 10
 39.75
 20
 60.000003814697266
 11
 40.52645713530756
 21
 62.897781293564471
  0
LINE
  8
0
  6
CONTINUOUS
 62
     7
 10
 39.75
 20
 60.000003814697266
 11
 38.97354286469244
 21
 62.897781293564471
  0
TEXT
  8
0
  6
CONTINUOUS
 62
     7
 10
 38.950000000000003
 20
 63.400003814697264
 11
 38.950000000000003
 21
 66.60000381469726
 40
 2
 41
 0.8
  1
10
 50
 90.000001535234517
 72
  5
  0
LINE
  8
0
  6
CONTINUOUS
 62
     7
 10
 39.75
 20
 60.000003814697266
 11
 39.75
 21
 10.000003814697251
  0
LINE
  8
0
  6
CONTINUOUS
 62
     7
 10
 39.75
 20
 60.000003814697266
 11
 38.97354286469244
 21
 57.102226335830061
  0
LINE
  8
0
  6
CONTINUOUS
 62
     7
 10
 39.75
 20
 60.000003814697266
 11
 40.52645713530756
 21
 57.102226335830061
  0
LINE
  8
0
  6
CONTINUOUS
 62
     7
 10
 39.75
 20
 10.000003814697251
 11
 40.52645713530756
 21
 12.897781293564456
  0
LINE
  8
0
  6
CONTINUOUS
 62
     7
 10
 39.75
 20
 10.000003814697251
 11
 38.97354286469244
 21
 12.897781293564456
  0
TEXT
  8
0
  6
CONTINUOUS
 62
     7
 10
 38.950000000000003
 20
 33.400003814697257
 11
 38.950000000000003
 21
 36.60000381469726
 40
 2
 41
 0.8
  1
50
 50
 90.000001535234517
 72
  5
  0
LINE
  8
0
  6
CONTINUOUS
 62
     7
 10
 24.749999999999936
 20
 0.0000038146972514
 11
 40.75
 21
 0.0000038146972514
  0
LINE
  8
0
  6
CONTINUOUS
 62
     7
 10
 39.75
 20
 10.000003814697251
 11
 39.75
 21
 0.0000038146972514
  0
LINE
  8
0
  6
CONTINUOUS
 62
     7
 10
 39.75
 20
 10.000003814697251
 11
 38.97354286469244
 21
 7.1022263358300464
  0
LINE
  8
0
  6
CONTINUOUS
 62
     7
 10
 39.75
 20
 10.000003814697251
 11
 40.52645713530756
 21
 7.1022263358300464
  0
LINE
  8
0
  6
CONTINUOUS
 62
     7
 10
 39.75
 20
 0.0000038146972514
 11
 40.52645713530756
 21
 2.8977812935644565
  0
LINE
  8
0
  6
CONTINUOUS
 62
     7
 10
 39.75
 20
 0.0000038146972514
 11
 38.97354286469244
 21
 2.8977812935644565
  0
TEXT
  8
0
  6
CONTINUOUS
 62
     7
 10
 38.950000000000003
 20
 3.40000381469725
 11
 38.950000000000003
 21
 6.6000038146972528
 40
 2
 41
 0.8
  1
10
 50
 90.000001535234517
 72
  5
  0
LINE
  8
0
  6
CONTINUOUS
 62
     7
 10
 22.249996662139878
 20
 60.000003814697266
 11
 29.75
 21
 60.000003814697266
  0
LINE
  8
0
  6
CONTINUOUS
 62
     7
 10
 35.75
 20
 60.000003814697266
 11
 40.75
 21
 60.000003814697266
  0
LINE
  8
0
  6
CONTINUOUS
 62
     7
 10
 22.249996662139871
 20
 10.000003814697251
 11
 29.75
 21
 10.000003814697251
  0
LINE
  8
0
  6
CONTINUOUS
 62
     7
 10
 35.75
 20
 10.000003814697251
 11
 40.75
 21
 10.000003814697251
  0
ENDBLK
  8
0
  0
BLOCK
  8
0
  2
CADWIN-G2
 70
    0
 10
0.0
 20
0.0
  0
LINE
  8
0
  6
CONTINUOUS
 62
     7
 10
 16.249999999999986
 20
 60.000003814697266
 11
 25.261440177047874
 21
 75.60827605071168
  0
LINE
  8
0
  6
CONTINUOUS
 62
     7
 10
 16.249999999999986
 20
 60.000003814697266
 11
 18.371320343559628
 21
 62.121324158256911
  0
LINE
  8
0
  6
CONTINUOUS
 62
     7
 10
 16.249999999999986
 20
 60.000003814697266
 11
 17.026457135307549
 21
 62.897781293564471
  0
LINE
  8
0
  6
CONTINUOUS
 62
     7
 10
 25.261440177047874
 20
 75.60827605071168
 11
 39.761440177047874
 21
 75.60827605071168
  0
TEXT
  8
0
  6
CONTINUOUS
 62
     7
 10
 25.261440177047874
 20
 76.10827605071168
 11
 39.761440177047874
 21
 76.10827605071168
 40
 2.5
 41
 0.8
  1
４－Φ４．２
 50
 0
 72
  5
  0
ENDBLK
  8
0
  0
BLOCK
  8
0
  2
CADWIN-G3
 70
    0
 10
0.0
 20
0.0
  0
LINE
  8
0
  6
CONTINUOUS
 62
     7
 10
-13.749998092651367
 20
 52.500003814697266
 11
-25.953575581325644
 21
 73.637220059184898
  0
LINE
  8
0
  6
CONTINUOUS
 62
     7
 10
-13.749998092651367
 20
 52.500003814697266
 11
-14.52645522795893
 21
 55.397781293564471
  0
LINE
  8
0
  6
CONTINUOUS
 62
     7
 10
-13.749998092651367
 20
 52.500003814697266
 11
-15.871318436211011
 21
 54.621324158256904
  0
LINE
  8
0
  6
CONTINUOUS
 62
     7
 10
-25.953575581325644
 20
 73.637220059184898
 11
-40.453575581325644
 21
 73.637220059184898
  0
TEXT
  8
0
  6
CONTINUOUS
 62
     7
 10
-40.453575581325644
 20
 74.137220059184898
 11
-25.953575581325644
 21
 74.137220059184898
 40
 2.5
 41
 0.8
  1
５－Φ３．２
 50
 0
 72
  5
  0
ENDBLK
  8
0
  0
BLOCK
  8
0
  2
CADWIN-G4
 70
    0
 10
0.0
 20
0.0
  0
LINE
  8
0
  6
CONTINUOUS
 62
     7
 10
 16.249999999999986
 20
 50.000003814697266
 11
 20.206297599124845
 21
 43.147495363150249
  0
LINE
  8
0
  6
CONTINUOUS
 62
     7
 10
 16.249999999999986
 20
 50.000003814697266
 11
 17.026457135307549
 21
 47.102226335830061
  0
LINE
  8
0
  6
CONTINUOUS
 62
     7
 10
 16.249999999999986
 20
 50.000003814697266
 11
 18.371320343559628
 21
 47.87868347113762
  0
LINE
  8
0
  6
CONTINUOUS
 62
     7
 10
 20.206297599124845
 20
 43.147495363150249
 11
 41.856719248581456
 21
 43.147495363150249
  0
LINE
  8
0
  6
CONTINUOUS
 62
     7
 10
 41.856719248581456
 20
 43.147495363150249
 11
 56.356719248581456
 21
 43.147495363150249
  0
TEXT
  8
0
  6
CONTINUOUS
 62
     7
 10
 41.856719248581456
 20
 43.647495363150249
 11
 56.356719248581456
 21
 43.647495363150249
 40
 2.5
 41
 0.8
  1
３－Φ３．２
 50
 0
 72
  5
  0
ENDBLK
  8
0
  0
ENDSEC
  0
SECTION
  2
ENTITIES
  0
INSERT
  8
0
  2
CADWIN-G0
 10
0.0
 20
0.0
  0
LINE
  8
3
  6
CONTINUOUS
 62
     3
 10
 3.5500015735625556
 20
-92.599995613098145
 11
 23.750001573562557
 21
-92.599995613098145
  0
LINE
  8
3
  6
CONTINUOUS
 62
     3
 10
 23.750001573562557
 20
-92.599995613098145
 11
 23.750001573562557
 21
-94.199995994567871
  0
LINE
  8
3
  6
CONTINUOUS
 62
     3
 10
 23.750001573562557
 20
-94.199995994567871
 11
 3.4500015735625542
 21
-94.199995994567871
  0
LINE
  8
3
  6
CONTINUOUS
 62
     3
 10
-21.249998426437447
 20
-19.199995994567878
 11
-0.9499984264374461
 21
-19.199995994567878
  0
LINE
  8
3
  6
CONTINUOUS
 62
     3
 10
-1.0499984264374476
 20
-20.799996376037605
 11
-21.249998426437447
 21
-20.799996376037605
  0
LINE
  8
3
  6
CONTINUOUS
 62
     3
 10
-21.249998426437447
 20
-20.799996376037605
 11
-21.249998426437447
 21
-19.199995994567878
  0
POINT
  8
3
  6
CONTINUOUS
 62
     3
 10
 16.249978685378963
 20
-94.199995994567871
  0
LINE
  8
3
  6
DOT
 62
     3
 10
 14.149964952468805
 20
-94.199995994567871
 11
 14.149964952468805
 21
-92.599995613098145
  0
LINE
  8
3
  6
DOT
 62
     3
 10
 18.349961900710994
 20
-94.199995994567871
 11
 18.349961900710994
 21
-92.599995613098145
  0
POINT
  8
3
  6
CONTINUOUS
 62
     3
 10
-13.749990797042916
 20
-19.199995994567878
  0
LINE
  8
3
  6
DOT
 62
     3
 10
-15.350004529953072
 20
-19.199995994567878
 11
-15.350004529953072
 21
-20.799996376037605
  0
LINE
  8
3
  6
DOT
 62
     3
 10
-12.149977064132759
 20
-19.199995994567878
 11
-12.149977064132759
 21
-20.799996376037605
  0
LINE
  8
3
  6
DASHDOT
 62
     2
 10
-13.749990797042916
 20
-15.742443084716802
 11
-13.749990797042916
 21
-24.632669448852546
  0
LINE
  8
3
  6
DASHDOT
 62
     2
 10
 16.249978685378963
 20
-88.731242179870605
 11
 16.249978685378963
 21
-98.827404975891113
  0
LINE
  8
0
  6
DASHDOT
 62
     2
 10
 16.249999999999986
 20
 65.000003814697266
 11
 16.249999999999979
 21
 4.9999999999999929
  0
LINE
  8
0
  6
DASHDOT
 62
     2
 10
-13.750000000000004
 20
 65.000003814697266
 11
-13.750000000000011
 21
 4.9999999999999929
  0
LINE
  8
0
  6
DASHDOT
 62
     2
 10
 28.749999999999972
 20
 35.000003814697259
 11
-26.250000000000032
 21
 35.000003814697259
  0
LINE
  8
0
  6
DASHDOT
 62
     2
 10
 21.249996662139878
 20
 60.000003814697266
 11
-18.749998092651371
 21
 60.000003814697266
  0
LINE
  8
0
  6
DASHDOT
 62
     2
 10
 21.249996662139871
 20
 10.000003814697251
 11
-18.749998092651378
 21
 10.000003814697259
  0
LINE
  8
0
  6
DASHDOT
 62
     2
 10
 20.249996662139878
 20
 50.000003814697266
 11
 12.24999666213988
 21
 50.000003814697266
  0
LINE
  8
0
  6
DASHDOT
 62
     2
 10
 20.249996662139871
 20
 20.000003814697259
 11
 12.249996662139873
 21
 20.000003814697259
  0
LINE
  8
0
  6
DASHDOT
 62
     2
 10
-9.7499980926513707
 20
 17.500003814697259
 11
-17.749998092651371
 21
 17.500003814697259
  0
LINE
  8
0
  6
DASHDOT
 62
     2
 10
-9.7500000000000036
 20
 22.500003814697259
 11
-17.750000000000004
 21
 22.500003814697259
  0
LINE
  8
0
  6
DASHDOT
 62
     2
 10
-9.7499999999999964
 20
 47.500003814697266
 11
-17.750000000000004
 21
 47.500003814697266
  0
LINE
  8
0
  6
DASHDOT
 62
     2
 10
-9.7499980926513636
 20
 52.500003814697266
 11
-17.749998092651371
 21
 52.500003814697266
  0
CIRCLE
  8
3
  6
CONTINUOUS
 62
     3
 10
-13.750000000000004
 20
 35.000003814697266
 40
 1.6000000238418579
  0
LINE
  8
0
  6
CONTINUOUS
 62
     3
 10
 2.0500015735625539
 20
-22.199995994567878
 11
 2.0500015735625539
 21
-91.099995613098145
  0
LINE
  8
0
  6
CONTINUOUS
 62
     3
 10
 0.4500015735625524
 20
-22.299996376037601
 11
 0.4500015735625524
 21
-91.199995994567871
  0
ARC
  8
0
  6
CONTINUOUS
 62
     3
 10
-1.0499984264374476
 20
-22.299996376037601
 40
 1.5
 50
 0
 51
 90.000001535234517
  0
ARC
  8
0
  6
CONTINUOUS
 62
     3
 10
 3.5500015735625556
 20
-91.099995613098145
 40
 1.5
 50
 180.00000307046903
 51
-90.000001535234517
  0
ARC
  8
0
  6
CONTINUOUS
 62
     3
 10
-0.9499984264374461
 20
-22.199995994567878
 40
 3
 50
 0
 51
 90.000001535234517
  0
ARC
  8
0
  6
CONTINUOUS
 62
     3
 10
 3.4500015735625542
 20
-91.199995994567871
 40
 3
 50
 180.00000307046903
 51
-90.000001535234517
  0
CIRCLE
  8
3
  6
CONTINUOUS
 62
     3
 10
 16.249999999999982
 20
 35.000001907348633
 40
 1.6000000238418579
  0
CIRCLE
  8
3
  6
CONTINUOUS
 62
     3
 10
-13.750000000000004
 20
 47.500003814697266
 40
 1.6000000238418579
  0
CIRCLE
  8
3
  6
CONTINUOUS
 62
     3
 10
-13.750000000000004
 20
 22.500003814697259
 40
 1.6000000238418579
  0
CIRCLE
  8
3
  6
CONTINUOUS
 62
     3
 10
 16.249996662139878
 20
 50.000003814697266
 40
 1.6000000238418579
  0
CIRCLE
  8
3
  6
CONTINUOUS
 62
     3
 10
 16.249996662139871
 20
 20.000003814697259
 40
 1.6000000238418579
  0
LINE
  8
3
  6
CONTINUOUS
 62
     3
 10
-21.250000000000004
 20
 70.000003814697266
 11
 23.75
 21
 70.000003814697266
  0
LINE
  8
3
  6
CONTINUOUS
 62
     3
 10
 23.75
 20
 70.000003814697266
 11
 23.749999999999936
 21
 0.0000038146972514
  0
LINE
  8
3
  6
CONTINUOUS
 62
     3
 10
 23.749999999999936
 20
 0.0000038146972514
 11
-21.250000000000068
 21
 0.0000038146972585
  0
LINE
  8
3
  6
CONTINUOUS
 62
     3
 10
-21.250000000000068
 20
 0.0000038146972585
 11
-21.250000000000004
 21
 70.000003814697266
  0
CIRCLE
  8
3
  6
CONTINUOUS
 62
     3
 10
-13.749998092651371
 20
 52.500003814697266
 40
 1.6000000238418579
  0
CIRCLE
  8
3
  6
CONTINUOUS
 62
     3
 10
-13.749998092651371
 20
 17.500003814697259
 40
 1.6000000238418579
  0
LINE
  8
3
  6
DOT
 62
     3
 10
 0.4499999999999318
 20
 0.0000038146972585
 11
 0.4500000000000028
 21
 70.000003814697266
  0
LINE
  8
3
  6
CONTINUOUS
 62
     3
 10
 2.0500003814696584
 20
 0.0000038146972585
 11
 2.0500003814697294
 21
 70.000003814697266
  0
LINE
  8
0
  6
CONTINUOUS
 62
     7
 10
-21.250000000000004
 20
 71.000003814697266
 11
-21.250000000000004
 21
 81.000003814697266
  0
LINE
  8
0
  6
CONTINUOUS
 62
     7
 10
 23.75
 20
 71.000003814697266
 11
 23.75
 21
 81.000003814697266
  0
LINE
  8
0
  6
CONTINUOUS
 62
     7
 10
-21.250000000000004
 20
 80.000003814697266
 11
 23.75
 21
 80.000003814697266
  0
LINE
  8
0
  6
CONTINUOUS
 62
     7
 10
-21.250000000000004
 20
 80.000003814697266
 11
-18.352222521132799
 21
 79.223546679389699
  0
LINE
  8
0
  6
CONTINUOUS
 62
     7
 10
-21.250000000000004
 20
 80.000003814697266
 11
-18.352222521132799
 21
 80.776460950004832
  0
LINE
  8
0
  6
CONTINUOUS
 62
     7
 10
 23.75
 20
 80.000003814697266
 11
 20.852222521132795
 21
 80.776460950004832
  0
LINE
  8
0
  6
CONTINUOUS
 62
     7
 10
 23.75
 20
 80.000003814697266
 11
 20.852222521132795
 21
 79.223546679389699
  0
TEXT
  8
0
  6
CONTINUOUS
 62
     7
 10
-0.3500000000000019
 20
 80.800003814697263
 11
 2.8499999999999983
 21
 80.800003814697263
 40
 2
 41
 0.8
  1
45
 50
 0
 72
  5
  0
LINE
  8
0
  6
CONTINUOUS
 62
     7
 10
 23.749999999999936
 20
-0.9999961853027486
 11
 23.749999999999936
 21
-10.999996185302749
  0
LINE
  8
0
  6
CONTINUOUS
 62
     7
 10
 16.249999999999979
 20
 3.9999999999999929
 11
 16.249999999999979
 21
-10.999996185302749
  0
LINE
  8
0
  6
CONTINUOUS
 62
     7
 10
 23.749999999999936
 20
-9.9999961853027486
 11
 16.249999999999979
 21
-9.9999961853027486
  0
LINE
  8
0
  6
CONTINUOUS
 62
     7
 10
 23.749999999999936
 20
-9.9999961853027486
 11
 20.852222521132731
 21
-9.2235390499951855
  0
LINE
  8
0
  6
CONTINUOUS
 62
     7
 10
 23.749999999999936
 20
-9.9999961853027486
 11
 20.852222521132731
 21
-10.776453320610312
  0
LINE
  8
0
  6
CONTINUOUS
 62
     7
 10
 16.249999999999979
 20
-9.9999961853027486
 11
 19.147777478867184
 21
-10.776453320610312
  0
LINE
  8
0
  6
CONTINUOUS
 62
     7
 10
 16.249999999999979
 20
-9.9999961853027486
 11
 19.147777478867184
 21
-9.2235390499951855
  0
TEXT
  8
0
  6
CONTINUOUS
 62
     7
 10
 17.599999999999959
 20
-9.1999961853027479
 11
 22.399999999999956
 21
-9.1999961853027479
 40
 2
 41
 0.8
  1
7.5
 50
 0
 72
  5
  0
LINE
  8
0
  6
CONTINUOUS
 62
     7
 10
-13.750000000000011
 20
 3.9999999999999929
 11
-13.750000000000011
 21
-10.999996185302749
  0
LINE
  8
0
  6
CONTINUOUS
 62
     7
 10
 16.249999999999979
 20
-9.9999961853027486
 11
-13.750000000000011
 21
-9.9999961853027486
  0
LINE
  8
0
  6
CONTINUOUS
 62
     7
 10
 16.249999999999979
 20
-9.9999961853027486
 11
 13.352222521132774
 21
-9.2235390499951855
  0
LINE
  8
0
  6
CONTINUOUS
 62
     7
 10
 16.249999999999979
 20
-9.9999961853027486
 11
 13.352222521132774
 21
-10.776453320610312
  0
LINE
  8
0
  6
CONTINUOUS
 62
     7
 10
-13.750000000000011
 20
-9.9999961853027486
 11
-10.852222521132806
 21
-10.776453320610312
  0
LINE
  8
0
  6
CONTINUOUS
 62
     7
 10
-13.750000000000011
 20
-9.9999961853027486
 11
-10.852222521132806
 21
-9.2235390499951855
  0
TEXT
  8
0
  6
CONTINUOUS
 62
     7
 10
-0.3500000000000161
 20
-9.1999961853027479
 11
 2.8499999999999841
 21
-9.1999961853027479
 40
 2
 41
 0.8
  1
30
 50
 0
 72
  5
  0
LINE
  8
0
  6
CONTINUOUS
 62
     7
 10
-21.250000000000068
 20
-0.9999961853027415
 11
-21.250000000000068
 21
-10.999996185302749
  0
LINE
  8
0
  6
CONTINUOUS
 62
     7
 10
-13.750000000000011
 20
-9.9999961853027486
 11
-21.250000000000068
 21
-9.9999961853027486
  0
LINE
  8
0
  6
CONTINUOUS
 62
     7
 10
-13.750000000000011
 20
-9.9999961853027486
 11
-16.647777478867216
 21
-9.2235390499951855
  0
LINE
  8
0
  6
CONTINUOUS
 62
     7
 10
-13.750000000000011
 20
-9.9999961853027486
 11
-16.647777478867216
 21
-10.776453320610312
  0
LINE
  8
0
  6
CONTINUOUS
 62
     7
 10
-21.250000000000068
 20
-9.9999961853027486
 11
-18.352222521132862
 21
-10.776453320610312
  0
LINE
  8
0
  6
CONTINUOUS
 62
     7
 10
-21.250000000000068
 20
-9.9999961853027486
 11
-18.352222521132862
 21
-9.2235390499951855
  0
TEXT
  8
0
  6
CONTINUOUS
 62
     7
 10
-19.900000000000041
 20
-9.1999961853027479
 11
-15.100000000000039
 21
-9.1999961853027479
 40
 2
 41
 0.8
  1
7.5
 50
 0
 72
  5
  0
LINE
  8
0
  6
CONTINUOUS
 62
     7
 10
 21.249996662139871
 20
 20.000003814697259
 11
 34.75
 21
 20.000003814697259
  0
LINE
  8
0
  6
CONTINUOUS
 62
     7
 10
 24.749999999999936
 20
 0.0000038146972514
 11
 34.75
 21
 0.0000038146972514
  0
LINE
  8
0
  6
CONTINUOUS
 62
     7
 10
 33.75
 20
 0.0000038146972514
 11
 33.75
 21
 20.000003814697259
  0
LINE
  8
0
  6
CONTINUOUS
 62
     7
 10
 33.75
 20
 0.0000038146972514
 11
 34.52645713530756
 21
 2.8977812935644565
  0
LINE
  8
0
  6
CONTINUOUS
 62
     7
 10
 33.75
 20
 0.0000038146972514
 11
 32.97354286469244
 21
 2.8977812935644565
  0
LINE
  8
0
  6
CONTINUOUS
 62
     7
 10
 33.75
 20
 20.000003814697259
 11
 32.97354286469244
 21
 17.102226335830053
  0
LINE
  8
0
  6
CONTINUOUS
 62
     7
 10
 33.75
 20
 20.000003814697259
 11
 34.52645713530756
 21
 17.102226335830053
  0
TEXT
  8
0
  6
CONTINUOUS
 62
     7
 10
 32.950000000000003
 20
 8.4000038146972535
 11
 32.950000000000003
 21
 11.600003814697256
 40
 2
 41
 0.8
  1
20
 50
 90.000001535234517
 72
  5
  0
LINE
  8
0
  6
CONTINUOUS
 62
     7
 10
 21.249996662139878
 20
 50.000003814697266
 11
 34.75
 21
 50.000003814697266
  0
LINE
  8
0
  6
CONTINUOUS
 62
     7
 10
 33.75
 20
 20.000003814697259
 11
 33.75
 21
 50.000003814697266
  0
LINE
  8
0
  6
CONTINUOUS
 62
     7
 10
 33.75
 20
 20.000003814697259
 11
 34.52645713530756
 21
 22.897781293564464
  0
LINE
  8
0
  6
CONTINUOUS
 62
     7
 10
 33.75
 20
 20.000003814697259
 11
 32.97354286469244
 21
 22.897781293564464
  0
LINE
  8
0
  6
CONTINUOUS
 62
     7
 10
 33.75
 20
 50.000003814697266
 11
 32.97354286469244
 21
 47.102226335830061
  0
LINE
  8
0
  6
CONTINUOUS
 62
     7
 10
 33.75
 20
 50.000003814697266
 11
 34.52645713530756
 21
 47.102226335830061
  0
TEXT
  8
0
  6
CONTINUOUS
 62
     7
 10
 32.950000000000003
 20
 33.400003814697264
 11
 32.950000000000003
 21
 36.600003814697267
 40
 2
 41
 0.8
  1
30
 50
 90.000001535234517
 72
  5
  0
LINE
  8
0
  6
CONTINUOUS
 62
     7
 10
 24.75
 20
 70.000003814697266
 11
 34.75
 21
 70.000003814697266
  0
LINE
  8
0
  6
CONTINUOUS
 62
     7
 10
 33.75
 20
 50.000003814697266
 11
 33.75
 21
 70.000003814697266
  0
LINE
  8
0
  6
CONTINUOUS
 62
     7
 10
 33.75
 20
 50.000003814697266
 11
 34.52645713530756
 21
 52.897781293564471
  0
LINE
  8
0
  6
CONTINUOUS
 62
     7
 10
 33.75
 20
 50.000003814697266
 11
 32.97354286469244
 21
 52.897781293564471
  0
LINE
  8
0
  6
CONTINUOUS
 62
     7
 10
 33.75
 20
 70.000003814697266
 11
 32.97354286469244
 21
 67.102226335830068
  0
LINE
  8
0
  6
CONTINUOUS
 62
     7
 10
 33.75
 20
 70.000003814697266
 11
 34.52645713530756
 21
 67.102226335830068
  0
TEXT
  8
0
  6
CONTINUOUS
 62
     7
 10
 32.950000000000003
 20
 58.400003814697264
 11
 32.950000000000003
 21
 61.600003814697267
 40
 2
 41
 0.8
  1
20
 50
 90.000001535234517
 72
  5
  0
LINE
  8
0
  6
CONTINUOUS
 62
     7
 10
-22.250000000000004
 20
 70.000003814697266
 11
-32.250000000000071
 21
 70.000003814697266
  0
LINE
  8
0
  6
CONTINUOUS
 62
     7
 10
-18.750000000000004
 20
 47.500003814697266
 11
-32.250000000000071
 21
 47.500003814697266
  0
LINE
  8
0
  6
CONTINUOUS
 62
     7
 10
-31.250000000000068
 20
 70.000003814697266
 11
-31.250000000000068
 21
 47.500003814697266
  0
LINE
  8
0
  6
CONTINUOUS
 62
     7
 10
-31.250000000000068
 20
 70.000003814697266
 11
-32.026457135307631
 21
 67.102226335830068
  0
LINE
  8
0
  6
CONTINUOUS
 62
     7
 10
-31.250000000000068
 20
 70.000003814697266
 11
-30.473542864692504
 21
 67.102226335830068
  0
LINE
  8
0
  6
CONTINUOUS
 62
     7
 10
-31.250000000000068
 20
 47.500003814697266
 11
-30.473542864692504
 21
 50.397781293564471
  0
LINE
  8
0
  6
CONTINUOUS
 62
     7
 10
-31.250000000000068
 20
 47.500003814697266
 11
-32.026457135307631
 21
 50.397781293564471
  0
TEXT
  8
0
  6
CONTINUOUS
 62
     7
 10
-32.050000000000068
 20
 55.550003814697263
 11
-32.050000000000068
 21
 61.950003814697268
 40
 2
 41
 0.8
  1
22.5
 50
 90.000001535234517
 72
  5
  0
LINE
  8
0
  6
CONTINUOUS
 62
     7
 10
-27.250000000000032
 20
 35.000003814697259
 11
-32.250000000000071
 21
 35.000003814697259
  0
LINE
  8
0
  6
CONTINUOUS
 62
     7
 10
-31.250000000000068
 20
 47.500003814697266
 11
-31.250000000000068
 21
 35.000003814697259
  0
LINE
  8
0
  6
CONTINUOUS
 62
     7
 10
-31.250000000000068
 20
 47.500003814697266
 11
-32.026457135307631
 21
 44.602226335830061
  0
LINE
  8
0
  6
CONTINUOUS
 62
     7
 10
-31.250000000000068
 20
 47.500003814697266
 11
-30.473542864692504
 21
 44.602226335830061
  0
LINE
  8
0
  6
CONTINUOUS
 62
     7
 10
-31.250000000000068
 20
 35.000003814697259
 11
-30.473542864692504
 21
 37.897781293564464
  0
LINE
  8
0
  6
CONTINUOUS
 62
     7
 10
-31.250000000000068
 20
 35.000003814697259
 11
-32.026457135307631
 21
 37.897781293564464
  0
TEXT
  8
0
  6
CONTINUOUS
 62
     7
 10
-32.050000000000068
 20
 38.050003814697263
 11
-32.050000000000068
 21
 44.450003814697268
 40
 2
 41
 0.8
  1
12.5
 50
 90.000001535234517
 72
  5
  0
LINE
  8
0
  6
CONTINUOUS
 62
     7
 10
-18.750000000000004
 20
 22.500003814697259
 11
-32.250000000000071
 21
 22.500003814697259
  0
LINE
  8
0
  6
CONTINUOUS
 62
     7
 10
-31.250000000000068
 20
 35.000003814697259
 11
-31.250000000000068
 21
 22.500003814697259
  0
LINE
  8
0
  6
CONTINUOUS
 62
     7
 10
-31.250000000000068
 20
 35.000003814697259
 11
-32.026457135307631
 21
 32.102226335830053
  0
LINE
  8
0
  6
CONTINUOUS
 62
     7
 10
-31.250000000000068
 20
 35.000003814697259
 11
-30.473542864692504
 21
 32.102226335830053
  0
LINE
  8
0
  6
CONTINUOUS
 62
     7
 10
-31.250000000000068
 20
 22.500003814697259
 11
-30.473542864692504
 21
 25.397781293564464
  0
LINE
  8
0
  6
CONTINUOUS
 62
     7
 10
-31.250000000000068
 20
 22.500003814697259
 11
-32.026457135307631
 21
 25.397781293564464
  0
TEXT
  8
0
  6
CONTINUOUS
 62
     7
 10
-32.050000000000068
 20
 25.550003814697256
 11
-32.050000000000068
 21
 31.950003814697258
 40
 2
 41
 0.8
  1
12.5
 50
 90.000001535234517
 72
  5
  0
LINE
  8
0
  6
CONTINUOUS
 62
     7
 10
-22.250000000000068
 20
 0.0000038146972585
 11
-32.250000000000071
 21
 0.0000038146972585
  0
LINE
  8
0
  6
CONTINUOUS
 62
     7
 10
-31.250000000000068
 20
 22.500003814697259
 11
-31.250000000000068
 21
 0.0000038146972585
  0
LINE
  8
0
  6
CONTINUOUS
 62
     7
 10
-31.250000000000068
 20
 22.500003814697259
 11
-32.026457135307631
 21
 19.602226335830053
  0
LINE
  8
0
  6
CONTINUOUS
 62
     7
 10
-31.250000000000068
 20
 22.500003814697259
 11
-30.473542864692504
 21
 19.602226335830053
  0
LINE
  8
0
  6
CONTINUOUS
 62
     7
 10
-31.250000000000068
 20
 0.0000038146972585
 11
-30.473542864692504
 21
 2.8977812935644636
  0
LINE
  8
0
  6
CONTINUOUS
 62
     7
 10
-31.250000000000068
 20
 0.0000038146972585
 11
-32.026457135307631
 21
 2.8977812935644636
  0
TEXT
  8
0
  6
CONTINUOUS
 62
     7
 10
-32.050000000000068
 20
 8.0500038146972557
 11
-32.050000000000068
 21
 14.450003814697258
 40
 2
 41
 0.8
  1
22.5
 50
 90.000001535234517
 72
  5
  0
LINE
  8
0
  6
CONTINUOUS
 62
     7
 10
-22.250000000000004
 20
 70.000003814697266
 11
-38.250000000000071
 21
 70.000003814697266
  0
LINE
  8
0
  6
CONTINUOUS
 62
     7
 10
-18.749998092651371
 20
 52.500003814697266
 11
-38.250000000000071
 21
 52.500003814697266
  0
LINE
  8
0
  6
CONTINUOUS
 62
     7
 10
-37.250000000000071
 20
 70.000003814697266
 11
-37.250000000000071
 21
 52.500003814697266
  0
LINE
  8
0
  6
CONTINUOUS
 62
     7
 10
-37.250000000000071
 20
 70.000003814697266
 11
-38.026457135307631
 21
 67.102226335830068
  0
LINE
  8
0
  6
CONTINUOUS
 62
     7
 10
-37.250000000000071
 20
 70.000003814697266
 11
-36.473542864692512
 21
 67.102226335830068
  0
LINE
  8
0
  6
CONTINUOUS
 62
     7
 10
-37.250000000000071
 20
 52.500003814697266
 11
-36.473542864692512
 21
 55.397781293564471
  0
LINE
  8
0
  6
CONTINUOUS
 62
     7
 10
-37.250000000000071
 20
 52.500003814697266
 11
-38.026457135307631
 21
 55.397781293564471
  0
TEXT
  8
0
  6
CONTINUOUS
 62
     7
 10
-38.050000000000068
 20
 58.050003814697263
 11
-38.050000000000068
 21
 64.450003814697268
 40
 2
 41
 0.8
  1
17.5
 50
 90.000001535234517
 72
  5
  0
LINE
  8
0
  6
CONTINUOUS
 62
     7
 10
-18.749998092651371
 20
 17.500003814697259
 11
-38.250000000000071
 21
 17.500003814697259
  0
LINE
  8
0
  6
CONTINUOUS
 62
     7
 10
-37.250000000000071
 20
 52.500003814697266
 11
-37.250000000000071
 21
 17.500003814697259
  0
LINE
  8
0
  6
CONTINUOUS
 62
     7
 10
-37.250000000000071
 20
 52.500003814697266
 11
-38.026457135307631
 21
 49.602226335830061
  0
LINE
  8
0
  6
CONTINUOUS
 62
     7
 10
-37.250000000000071
 20
 52.500003814697266
 11
-36.473542864692512
 21
 49.602226335830061
  0
LINE
  8
0
  6
CONTINUOUS
 62
     7
 10
-37.250000000000071
 20
 17.500003814697259
 11
-36.473542864692512
 21
 20.397781293564464
  0
LINE
  8
0
  6
CONTINUOUS
 62
     7
 10
-37.250000000000071
 20
 17.500003814697259
 11
-38.026457135307631
 21
 20.397781293564464
  0
TEXT
  8
0
  6
CONTINUOUS
 62
     7
 10
-38.050000000000068
 20
 33.400003814697264
 11
-38.050000000000068
 21
 36.600003814697267
 40
 2
 41
 0.8
  1
35
 50
 90.000001535234517
 72
  5
  0
LINE
  8
0
  6
CONTINUOUS
 62
     7
 10
-22.250000000000068
 20
 0.0000038146972585
 11
-38.250000000000071
 21
 0.0000038146972585
  0
LINE
  8
0
  6
CONTINUOUS
 62
     7
 10
-37.250000000000071
 20
 17.500003814697259
 11
-37.250000000000071
 21
 0.0000038146972585
  0
LINE
  8
0
  6
CONTINUOUS
 62
     7
 10
-37.250000000000071
 20
 17.500003814697259
 11
-38.026457135307631
 21
 14.602226335830053
  0
LINE
  8
0
  6
CONTINUOUS
 62
     7
 10
-37.250000000000071
 20
 17.500003814697259
 11
-36.473542864692512
 21
 14.602226335830053
  0
LINE
  8
0
  6
CONTINUOUS
 62
     7
 10
-37.250000000000071
 20
 0.0000038146972585
 11
-36.473542864692512
 21
 2.8977812935644636
  0
LINE
  8
0
  6
CONTINUOUS
 62
     7
 10
-37.250000000000071
 20
 0.0000038146972585
 11
-38.026457135307631
 21
 2.8977812935644636
  0
TEXT
  8
0
  6
CONTINUOUS
 62
     7
 10
-38.050000000000068
 20
 5.5500038146972557
 11
-38.050000000000068
 21
 11.950003814697261
 40
 2
 41
 0.8
  1
17.5
 50
 90.000001535234517
 72
  5
  0
LINE
  8
0
  6
CONTINUOUS
 62
     7
 10
-22.250000000000068
 20
 0.0000038146972585
 11
-44.250000000000071
 21
 0.0000038146972585
  0
LINE
  8
0
  6
CONTINUOUS
 62
     7
 10
-22.250000000000004
 20
 70.000003814697266
 11
-44.250000000000071
 21
 70.000003814697266
  0
LINE
  8
0
  6
CONTINUOUS
 62
     7
 10
-43.250000000000071
 20
 0.0000038146972585
 11
-43.250000000000071
 21
 70.000003814697266
  0
LINE
  8
0
  6
CONTINUOUS
 62
     7
 10
-43.250000000000071
 20
 0.0000038146972585
 11
-42.473542864692512
 21
 2.8977812935644636
  0
LINE
  8
0
  6
CONTINUOUS
 62
     7
 10
-43.250000000000071
 20
 0.0000038146972585
 11
-44.026457135307631
 21
 2.8977812935644636
  0
LINE
  8
0
  6
CONTINUOUS
 62
     7
 10
-43.250000000000071
 20
 70.000003814697266
 11
-44.026457135307631
 21
 67.102226335830068
  0
LINE
  8
0
  6
CONTINUOUS
 62
     7
 10
-43.250000000000071
 20
 70.000003814697266
 11
-42.473542864692512
 21
 67.102226335830068
  0
TEXT
  8
0
  6
CONTINUOUS
 62
     7
 10
-44.050000000000068
 20
 33.400003814697264
 11
-44.050000000000068
 21
 36.600003814697267
 40
 2
 41
 0.8
  1
70
 50
 90.000001535234517
 72
  5
  0
INSERT
  8
0
  2
CADWIN-G1
 10
0.0
 20
0.0
  0
LINE
  8
0
  6
CONTINUOUS
 62
     7
 10
 3.250001573562554
 20
-19.199995994567878
 11
 40.75
 21
-19.199995994567878
  0
LINE
  8
0
  6
CONTINUOUS
 62
     7
 10
 24.750001573562557
 20
-94.199995994567871
 11
 40.75
 21
-94.199995994567871
  0
LINE
  8
0
  6
CONTINUOUS
 62
     7
 10
 39.75
 20
-19.199995994567878
 11
 39.75
 21
-94.199995994567871
  0
LINE
  8
0
  6
CONTINUOUS
 62
     7
 10
 39.75
 20
-19.199995994567878
 11
 38.97354286469244
 21
-22.097773473435083
  0
LINE
  8
0
  6
CONTINUOUS
 62
     7
 10
 39.75
 20
-19.199995994567878
 11
 40.52645713530756
 21
-22.097773473435083
  0
LINE
  8
0
  6
CONTINUOUS
 62
     7
 10
 39.75
 20
-94.199995994567871
 11
 40.52645713530756
 21
-91.302218515700673
  0
LINE
  8
0
  6
CONTINUOUS
 62
     7
 10
 39.75
 20
-94.199995994567871
 11
 38.97354286469244
 21
-91.302218515700673
  0
TEXT
  8
0
  6
CONTINUOUS
 62
     7
 10
 38.950000000000003
 20
-58.299995994567873
 11
 38.950000000000003
 21
-55.09999599456787
 40
 2
 41
 0.8
  1
75
 50
 90.000001535234517
 72
  5
  0
LINE
  8
0
  6
CONTINUOUS
 62
     7
 10
 0.4500015735625533
 20
-95.399995994567888
 11
 0.4500015735625533
 21
-105.19999599456787
  0
LINE
  8
0
  6
CONTINUOUS
 62
     7
 10
-21.249998426437447
 20
-21.799996376037605
 11
-21.249998426437447
 21
-105.19999599456787
  0
LINE
  8
0
  6
CONTINUOUS
 62
     7
 10
-21.249998426437447
 20
-104.19999599456787
 11
 0.4500015735625533
 21
-104.19999599456787
  0
LINE
  8
0
  6
CONTINUOUS
 62
     7
 10
-21.249998426437447
 20
-104.19999599456787
 11
-18.352220947570242
 21
-104.97645312987544
  0
LINE
  8
0
  6
CONTINUOUS
 62
     7
 10
-21.249998426437447
 20
-104.19999599456787
 11
-18.352220947570242
 21
-103.4235388592603
  0
LINE
  8
0
  6
CONTINUOUS
 62
     7
 10
 0.4500015735625533
 20
-104.19999599456787
 11
-2.4477759053046517
 21
-103.4235388592603
  0
LINE
  8
0
  6
CONTINUOUS
 62
     7
 10
 0.4500015735625533
 20
-104.19999599456787
 11
-2.4477759053046517
 21
-104.97645312987544
  0
TEXT
  8
0
  6
CONTINUOUS
 62
     7
 10
-13.599998426437448
 20
-103.39999599456787
 11
-7.199998426437447
 21
-103.39999599456787
 40
 2
 41
 0.8
  1
21.7
 50
 0
 72
  5
  0
LINE
  8
0
  6
CONTINUOUS
 62
     7
 10
 23.750001573562557
 20
-95.199995994567871
 11
 23.750001573562557
 21
-105.19999599456787
  0
LINE
  8
0
  6
CONTINUOUS
 62
     7
 10
 0.4500015735625533
 20
-104.19999599456787
 11
 23.750001573562557
 21
-104.19999599456787
  0
LINE
  8
0
  6
CONTINUOUS
 62
     7
 10
 0.4500015735625533
 20
-104.19999599456787
 11
 3.3477790524297579
 21
-104.97645312987544
  0
LINE
  8
0
  6
CONTINUOUS
 62
     7
 10
 0.4500015735625533
 20
-104.19999599456787
 11
 3.3477790524297579
 21
-103.4235388592603
  0
LINE
  8
0
  6
CONTINUOUS
 62
     7
 10
 23.750001573562557
 20
-104.19999599456787
 11
 20.852224094695352
 21
-103.4235388592603
  0
LINE
  8
0
  6
CONTINUOUS
 62
     7
 10
 23.750001573562557
 20
-104.19999599456787
 11
 20.852224094695352
 21
-104.97645312987544
  0
TEXT
  8
0
  6
CONTINUOUS
 62
     7
 10
 8.9000015735625553
 20
-103.39999599456787
 11
 15.300001573562554
 21
-103.39999599456787
 40
 2
 41
 0.8
  1
23.3
 50
 0
 72
  5
  0
LINE
  8
0
  6
CONTINUOUS
 62
     7
 10
 24.750001573562557
 20
-94.199995994567871
 11
 34.750001573562557
 21
-94.199995994567871
  0
LINE
  8
0
  6
CONTINUOUS
 62
     7
 10
 24.750001573562557
 20
-92.599995613098145
 11
 34.750001573562557
 21
-92.599995613098145
  0
LINE
  8
0
  6
CONTINUOUS
 62
     7
 10
 33.750001573562557
 20
-94.199995994567871
 11
 33.750001573562557
 21
-92.599995613098145
  0
TEXT
  8
0
  6
CONTINUOUS
 62
     7
 10
 32.95000157356256
 20
-92.099995613098145
 11
 32.95000157356256
 21
-87.299995613098147
 40
 2
 41
 0.8
  1
1.6
 50
 90.000001535234517
 72
  5
  0
LINE
  8
0
  6
CONTINUOUS
 62
     7
 10
 33.750001573562557
 20
-87.299995613098147
 11
 33.750001573562557
 21
-92.599995613098145
  0
LINE
  8
0
  6
CONTINUOUS
 62
     7
 10
 33.750001573562557
 20
-92.599995613098145
 11
 34.526458708870116
 21
-89.702218134230947
  0
LINE
  8
0
  6
CONTINUOUS
 62
     7
 10
 33.750001573562557
 20
-92.599995613098145
 11
 32.973544438254997
 21
-89.702218134230947
  0
LINE
  8
0
  6
CONTINUOUS
 62
     7
 10
 33.750001573562557
 20
-96.199995994567871
 11
 33.750001573562557
 21
-94.199995994567871
  0
LINE
  8
0
  6
CONTINUOUS
 62
     7
 10
 33.750001573562557
 20
-94.199995994567871
 11
 32.973544438254997
 21
-97.097773473435069
  0
LINE
  8
0
  6
CONTINUOUS
 62
     7
 10
 33.750001573562557
 20
-94.199995994567871
 11
 34.526458708870116
 21
-97.097773473435069
  0
CIRCLE
  8
0
  6
CONTINUOUS
 62
     3
 10
 16.249999999999986
 20
 10.000003814697251
 40
 2.1000000000000001
  0
CIRCLE
  8
0
  6
CONTINUOUS
 62
     3
 10
-13.750000000000004
 20
 10.000003814697255
 40
 2.1000000000000001
  0
CIRCLE
  8
0
  6
CONTINUOUS
 62
     3
 10
-13.750000000000004
 20
 60.000003814697266
 40
 2.1000000000000001
  0
CIRCLE
  8
0
  6
CONTINUOUS
 62
     3
 10
 16.249999999999986
 20
 60.000003814697266
 40
 2.1000000000000001
  0
INSERT
  8
0
  2
CADWIN-G2
 10
0.0
 20
0.0
  0
INSERT
  8
0
  2
CADWIN-G3
 10
0.0
 20
0.0
  0
INSERT
  8
0
  2
CADWIN-G4
 10
0.0
 20
0.0
  0
ENDSEC
  0
EOF
