  0
SECTION
  2
HEADER
  9
$INSBASE
 10
0.0
20
0.0
  9
$REGENMODE
 70
     1
  9
$DRAGMODE
 70
     1
  9
$DIMTAD
 70
     1
  9
$EXTMIN
 10
-210.000000
 20
-148.500000
 30
 0.0
  9
$EXTMAX
 10
210.000000
 20
148.500000
 30
 0.0
  9
$LUPREC
 70
    3
  9
$AUPREC
 70
    3
  9
$LTSCALE
 40
26.250000
  0
ENDSEC
  0
SECTION
  2
TABLES
  0
TABLE
  2
LTYPE
 70
     6
  0
LTYPE
  2
CONTINUOUS
 70
    64
  3
SOLID
 72
    65
 73
     0
 40
0.0
  0
LTYPE
  2
DASHED2
 70
    64
  3
_ _ _ _ _ _ _ _ _ _ _ _ _ _ _ _ _ _ _ _ _ _ 
 72
    65
 73
     2
 40
0.5
 49
0.25
 49
-0.25
  0
LTYPE
  2
DASHED
 70
    64
  3
__ __ __ __ __ __ __ __ __ __ __ __ __ __ __
 72
    65
 73
     2
 40
0.75
 49
0.5
 49
-0.25
  0
LTYPE
  2
DASHEDX2
 70
    64
  3
____  ____  ____  ____  ____  ____  ____  __
 72
    65
 73
     2
 40
1.5
 49
1.0
 49
-0.5
  0
LTYPE
  2
DOT
 70
    64
  3
............................................
 72
    65
 73
     2
 40
0.25
 49
0
 49
-0.25
  0
LTYPE
  2
DASHDOT
 70
    64
  3
__ . __ . __ . __ . __ . __ . __ . __ . __ .
 72
    65
 73
     4
 40
1.0
 49
0.5
 49
-0.25
 49
0.0
 49
-0.25
  0
LTYPE
  2
CENTER
 70
    64
  3
____ _ ____ _ ____ _ ____ _ ____ _ ____ _ __
 72
    65
 73
     4
 40
2.0
 49
1.25
 49
-0.25
 49
0.25
 49
-0.25
  0
LTYPE
  2
DIVIDE
 70
    64
  3
__ . . __ . . __ . . __ . . __ . . __ . . __
 72
    65
 73
     6
 40
1.25
 49
0.5
 49
-0.25
 49
0.0
 49
-0.25
 49
0.0
 49
-0.25
  0
LTYPE
  2
PHANTOM2
 70
    64
  3
___ _ _ ___ _ _ ___ _ _ ___ _ _ ___ _ _ ___ 
 72
    65
 73
     6
 40
1.25
 49
0.625
 49
-0.125
 49
0.125
 49
-0.125
 49
0.125
 49
-0.125
  0
LTYPE
  2
DOTX2
 70
    64
  3
. . . . . . . . . . . . . . . . . . . . . . 
 72
    65
 73
     2
 40
0.5
 49
0
 49
-0.5
  0
ENDTAB
  0
TABLE
  2
LAYER
 70
   255
  0
LAYER
  2
0
 70
    64
 62
     7
  6
CONTINUOUS
  0
LAYER
  2
1
 70
    64
 62
     7
  6
CONTINUOUS
  0
LAYER
  2
2
 70
    64
 62
     7
  6
CONTINUOUS
  0
LAYER
  2
3
 70
    64
 62
     7
  6
CONTINUOUS
  0
LAYER
  2
4
 70
    64
 62
     7
  6
CONTINUOUS
  0
LAYER
  2
5
 70
    64
 62
     7
  6
CONTINUOUS
  0
LAYER
  2
6
 70
    64
 62
     7
  6
CONTINUOUS
  0
LAYER
  2
7
 70
    64
 62
     7
  6
CONTINUOUS
  0
LAYER
  2
8
 70
    64
 62
     7
  6
CONTINUOUS
  0
LAYER
  2
9
 70
    64
 62
     7
  6
CONTINUOUS
  0
LAYER
  2
10
 70
    64
 62
     7
  6
CONTINUOUS
  0
LAYER
  2
11
 70
    64
 62
     7
  6
CONTINUOUS
  0
LAYER
  2
12
 70
    64
 62
     7
  6
CONTINUOUS
  0
LAYER
  2
13
 70
    64
 62
     7
  6
CONTINUOUS
  0
LAYER
  2
14
 70
    64
 62
     7
  6
CONTINUOUS
  0
LAYER
  2
15
 70
    64
 62
     7
  6
CONTINUOUS
  0
LAYER
  2
16
 70
    64
 62
     7
  6
CONTINUOUS
  0
LAYER
  2
17
 70
    64
 62
     7
  6
CONTINUOUS
  0
LAYER
  2
18
 70
    64
 62
     7
  6
CONTINUOUS
  0
LAYER
  2
19
 70
    64
 62
     7
  6
CONTINUOUS
  0
LAYER
  2
20
 70
    64
 62
     7
  6
CONTINUOUS
  0
LAYER
  2
21
 70
    64
 62
     7
  6
CONTINUOUS
  0
LAYER
  2
22
 70
    64
 62
     7
  6
CONTINUOUS
  0
LAYER
  2
23
 70
    64
 62
     7
  6
CONTINUOUS
  0
LAYER
  2
24
 70
    64
 62
     7
  6
CONTINUOUS
  0
LAYER
  2
25
 70
    64
 62
     7
  6
CONTINUOUS
  0
LAYER
  2
26
 70
    64
 62
     7
  6
CONTINUOUS
  0
LAYER
  2
27
 70
    64
 62
     7
  6
CONTINUOUS
  0
LAYER
  2
28
 70
    64
 62
     7
  6
CONTINUOUS
  0
LAYER
  2
29
 70
    64
 62
     7
  6
CONTINUOUS
  0
LAYER
  2
30
 70
    64
 62
     7
  6
CONTINUOUS
  0
LAYER
  2
31
 70
    64
 62
     7
  6
CONTINUOUS
  0
LAYER
  2
32
 70
    64
 62
     7
  6
CONTINUOUS
  0
LAYER
  2
33
 70
    64
 62
     7
  6
CONTINUOUS
  0
LAYER
  2
34
 70
    64
 62
     7
  6
CONTINUOUS
  0
LAYER
  2
35
 70
    64
 62
     7
  6
CONTINUOUS
  0
LAYER
  2
36
 70
    64
 62
     7
  6
CONTINUOUS
  0
LAYER
  2
37
 70
    64
 62
     7
  6
CONTINUOUS
  0
LAYER
  2
38
 70
    64
 62
     7
  6
CONTINUOUS
  0
LAYER
  2
39
 70
    64
 62
     7
  6
CONTINUOUS
  0
LAYER
  2
40
 70
    64
 62
     7
  6
CONTINUOUS
  0
LAYER
  2
41
 70
    64
 62
     7
  6
CONTINUOUS
  0
LAYER
  2
42
 70
    64
 62
     7
  6
CONTINUOUS
  0
LAYER
  2
43
 70
    64
 62
     7
  6
CONTINUOUS
  0
LAYER
  2
44
 70
    64
 62
     7
  6
CONTINUOUS
  0
LAYER
  2
45
 70
    64
 62
     7
  6
CONTINUOUS
  0
LAYER
  2
46
 70
    64
 62
     7
  6
CONTINUOUS
  0
LAYER
  2
47
 70
    64
 62
     7
  6
CONTINUOUS
  0
LAYER
  2
48
 70
    64
 62
     7
  6
CONTINUOUS
  0
LAYER
  2
49
 70
    64
 62
     7
  6
CONTINUOUS
  0
LAYER
  2
50
 70
    64
 62
     7
  6
CONTINUOUS
  0
LAYER
  2
51
 70
    64
 62
     7
  6
CONTINUOUS
  0
LAYER
  2
52
 70
    64
 62
     7
  6
CONTINUOUS
  0
LAYER
  2
53
 70
    64
 62
     7
  6
CONTINUOUS
  0
LAYER
  2
54
 70
    64
 62
     7
  6
CONTINUOUS
  0
LAYER
  2
55
 70
    64
 62
     7
  6
CONTINUOUS
  0
LAYER
  2
56
 70
    64
 62
     7
  6
CONTINUOUS
  0
LAYER
  2
57
 70
    64
 62
     7
  6
CONTINUOUS
  0
LAYER
  2
58
 70
    64
 62
     7
  6
CONTINUOUS
  0
LAYER
  2
59
 70
    64
 62
     7
  6
CONTINUOUS
  0
LAYER
  2
60
 70
    64
 62
     7
  6
CONTINUOUS
  0
LAYER
  2
61
 70
    64
 62
     7
  6
CONTINUOUS
  0
LAYER
  2
62
 70
    64
 62
     7
  6
CONTINUOUS
  0
LAYER
  2
63
 70
    64
 62
     7
  6
CONTINUOUS
  0
LAYER
  2
64
 70
    64
 62
     7
  6
CONTINUOUS
  0
LAYER
  2
65
 70
    64
 62
     7
  6
CONTINUOUS
  0
LAYER
  2
66
 70
    64
 62
     7
  6
CONTINUOUS
  0
LAYER
  2
67
 70
    64
 62
     7
  6
CONTINUOUS
  0
LAYER
  2
68
 70
    64
 62
     7
  6
CONTINUOUS
  0
LAYER
  2
69
 70
    64
 62
     7
  6
CONTINUOUS
  0
LAYER
  2
70
 70
    64
 62
     7
  6
CONTINUOUS
  0
LAYER
  2
71
 70
    64
 62
     7
  6
CONTINUOUS
  0
LAYER
  2
72
 70
    64
 62
     7
  6
CONTINUOUS
  0
LAYER
  2
73
 70
    64
 62
     7
  6
CONTINUOUS
  0
LAYER
  2
74
 70
    64
 62
     7
  6
CONTINUOUS
  0
LAYER
  2
75
 70
    64
 62
     7
  6
CONTINUOUS
  0
LAYER
  2
76
 70
    64
 62
     7
  6
CONTINUOUS
  0
LAYER
  2
77
 70
    64
 62
     7
  6
CONTINUOUS
  0
LAYER
  2
78
 70
    64
 62
     7
  6
CONTINUOUS
  0
LAYER
  2
79
 70
    64
 62
     7
  6
CONTINUOUS
  0
LAYER
  2
80
 70
    64
 62
     7
  6
CONTINUOUS
  0
LAYER
  2
81
 70
    64
 62
     7
  6
CONTINUOUS
  0
LAYER
  2
82
 70
    64
 62
     7
  6
CONTINUOUS
  0
LAYER
  2
83
 70
    64
 62
     7
  6
CONTINUOUS
  0
LAYER
  2
84
 70
    64
 62
     7
  6
CONTINUOUS
  0
LAYER
  2
85
 70
    64
 62
     7
  6
CONTINUOUS
  0
LAYER
  2
86
 70
    64
 62
     7
  6
CONTINUOUS
  0
LAYER
  2
87
 70
    64
 62
     7
  6
CONTINUOUS
  0
LAYER
  2
88
 70
    64
 62
     7
  6
CONTINUOUS
  0
LAYER
  2
89
 70
    64
 62
     7
  6
CONTINUOUS
  0
LAYER
  2
90
 70
    64
 62
     7
  6
CONTINUOUS
  0
LAYER
  2
91
 70
    64
 62
     7
  6
CONTINUOUS
  0
LAYER
  2
92
 70
    64
 62
     7
  6
CONTINUOUS
  0
LAYER
  2
93
 70
    64
 62
     7
  6
CONTINUOUS
  0
LAYER
  2
94
 70
    64
 62
     7
  6
CONTINUOUS
  0
LAYER
  2
95
 70
    64
 62
     7
  6
CONTINUOUS
  0
LAYER
  2
96
 70
    64
 62
     7
  6
CONTINUOUS
  0
LAYER
  2
97
 70
    64
 62
     7
  6
CONTINUOUS
  0
LAYER
  2
98
 70
    64
 62
     7
  6
CONTINUOUS
  0
LAYER
  2
99
 70
    64
 62
     7
  6
CONTINUOUS
  0
LAYER
  2
100
 70
    64
 62
     7
  6
CONTINUOUS
  0
LAYER
  2
101
 70
    64
 62
     7
  6
CONTINUOUS
  0
LAYER
  2
102
 70
    64
 62
     7
  6
CONTINUOUS
  0
LAYER
  2
103
 70
    64
 62
     7
  6
CONTINUOUS
  0
LAYER
  2
104
 70
    64
 62
     7
  6
CONTINUOUS
  0
LAYER
  2
105
 70
    64
 62
     7
  6
CONTINUOUS
  0
LAYER
  2
106
 70
    64
 62
     7
  6
CONTINUOUS
  0
LAYER
  2
107
 70
    64
 62
     7
  6
CONTINUOUS
  0
LAYER
  2
108
 70
    64
 62
     7
  6
CONTINUOUS
  0
LAYER
  2
109
 70
    64
 62
     7
  6
CONTINUOUS
  0
LAYER
  2
110
 70
    64
 62
     7
  6
CONTINUOUS
  0
LAYER
  2
111
 70
    64
 62
     7
  6
CONTINUOUS
  0
LAYER
  2
112
 70
    64
 62
     7
  6
CONTINUOUS
  0
LAYER
  2
113
 70
    64
 62
     7
  6
CONTINUOUS
  0
LAYER
  2
114
 70
    64
 62
     7
  6
CONTINUOUS
  0
LAYER
  2
115
 70
    64
 62
     7
  6
CONTINUOUS
  0
LAYER
  2
116
 70
    64
 62
     7
  6
CONTINUOUS
  0
LAYER
  2
117
 70
    64
 62
     7
  6
CONTINUOUS
  0
LAYER
  2
118
 70
    64
 62
     7
  6
CONTINUOUS
  0
LAYER
  2
119
 70
    64
 62
     7
  6
CONTINUOUS
  0
LAYER
  2
120
 70
    64
 62
     7
  6
CONTINUOUS
  0
LAYER
  2
121
 70
    64
 62
     7
  6
CONTINUOUS
  0
LAYER
  2
122
 70
    64
 62
     7
  6
CONTINUOUS
  0
LAYER
  2
123
 70
    64
 62
     7
  6
CONTINUOUS
  0
LAYER
  2
124
 70
    64
 62
     7
  6
CONTINUOUS
  0
LAYER
  2
125
 70
    64
 62
     7
  6
CONTINUOUS
  0
LAYER
  2
126
 70
    64
 62
     7
  6
CONTINUOUS
  0
LAYER
  2
127
 70
    64
 62
     7
  6
CONTINUOUS
  0
LAYER
  2
128
 70
    64
 62
     7
  6
CONTINUOUS
  0
LAYER
  2
129
 70
    64
 62
     7
  6
CONTINUOUS
  0
LAYER
  2
130
 70
    64
 62
     7
  6
CONTINUOUS
  0
LAYER
  2
131
 70
    64
 62
     7
  6
CONTINUOUS
  0
LAYER
  2
132
 70
    64
 62
     7
  6
CONTINUOUS
  0
LAYER
  2
133
 70
    64
 62
     7
  6
CONTINUOUS
  0
LAYER
  2
134
 70
    64
 62
     7
  6
CONTINUOUS
  0
LAYER
  2
135
 70
    64
 62
     7
  6
CONTINUOUS
  0
LAYER
  2
136
 70
    64
 62
     7
  6
CONTINUOUS
  0
LAYER
  2
137
 70
    64
 62
     7
  6
CONTINUOUS
  0
LAYER
  2
138
 70
    64
 62
     7
  6
CONTINUOUS
  0
LAYER
  2
139
 70
    64
 62
     7
  6
CONTINUOUS
  0
LAYER
  2
140
 70
    64
 62
     7
  6
CONTINUOUS
  0
LAYER
  2
141
 70
    64
 62
     7
  6
CONTINUOUS
  0
LAYER
  2
142
 70
    64
 62
     7
  6
CONTINUOUS
  0
LAYER
  2
143
 70
    64
 62
     7
  6
CONTINUOUS
  0
LAYER
  2
144
 70
    64
 62
     7
  6
CONTINUOUS
  0
LAYER
  2
145
 70
    64
 62
     7
  6
CONTINUOUS
  0
LAYER
  2
146
 70
    64
 62
     7
  6
CONTINUOUS
  0
LAYER
  2
147
 70
    64
 62
     7
  6
CONTINUOUS
  0
LAYER
  2
148
 70
    64
 62
     7
  6
CONTINUOUS
  0
LAYER
  2
149
 70
    64
 62
     7
  6
CONTINUOUS
  0
LAYER
  2
150
 70
    64
 62
     7
  6
CONTINUOUS
  0
LAYER
  2
151
 70
    64
 62
     7
  6
CONTINUOUS
  0
LAYER
  2
152
 70
    64
 62
     7
  6
CONTINUOUS
  0
LAYER
  2
153
 70
    64
 62
     7
  6
CONTINUOUS
  0
LAYER
  2
154
 70
    64
 62
     7
  6
CONTINUOUS
  0
LAYER
  2
155
 70
    64
 62
     7
  6
CONTINUOUS
  0
LAYER
  2
156
 70
    64
 62
     7
  6
CONTINUOUS
  0
LAYER
  2
157
 70
    64
 62
     7
  6
CONTINUOUS
  0
LAYER
  2
158
 70
    64
 62
     7
  6
CONTINUOUS
  0
LAYER
  2
159
 70
    64
 62
     7
  6
CONTINUOUS
  0
LAYER
  2
160
 70
    64
 62
     7
  6
CONTINUOUS
  0
LAYER
  2
161
 70
    64
 62
     7
  6
CONTINUOUS
  0
LAYER
  2
162
 70
    64
 62
     7
  6
CONTINUOUS
  0
LAYER
  2
163
 70
    64
 62
     7
  6
CONTINUOUS
  0
LAYER
  2
164
 70
    64
 62
     7
  6
CONTINUOUS
  0
LAYER
  2
165
 70
    64
 62
     7
  6
CONTINUOUS
  0
LAYER
  2
166
 70
    64
 62
     7
  6
CONTINUOUS
  0
LAYER
  2
167
 70
    64
 62
     7
  6
CONTINUOUS
  0
LAYER
  2
168
 70
    64
 62
     7
  6
CONTINUOUS
  0
LAYER
  2
169
 70
    64
 62
     7
  6
CONTINUOUS
  0
LAYER
  2
170
 70
    64
 62
     7
  6
CONTINUOUS
  0
LAYER
  2
171
 70
    64
 62
     7
  6
CONTINUOUS
  0
LAYER
  2
172
 70
    64
 62
     7
  6
CONTINUOUS
  0
LAYER
  2
173
 70
    64
 62
     7
  6
CONTINUOUS
  0
LAYER
  2
174
 70
    64
 62
     7
  6
CONTINUOUS
  0
LAYER
  2
175
 70
    64
 62
     7
  6
CONTINUOUS
  0
LAYER
  2
176
 70
    64
 62
     7
  6
CONTINUOUS
  0
LAYER
  2
177
 70
    64
 62
     7
  6
CONTINUOUS
  0
LAYER
  2
178
 70
    64
 62
     7
  6
CONTINUOUS
  0
LAYER
  2
179
 70
    64
 62
     7
  6
CONTINUOUS
  0
LAYER
  2
180
 70
    64
 62
     7
  6
CONTINUOUS
  0
LAYER
  2
181
 70
    64
 62
     7
  6
CONTINUOUS
  0
LAYER
  2
182
 70
    64
 62
     7
  6
CONTINUOUS
  0
LAYER
  2
183
 70
    64
 62
     7
  6
CONTINUOUS
  0
LAYER
  2
184
 70
    64
 62
     7
  6
CONTINUOUS
  0
LAYER
  2
185
 70
    64
 62
     7
  6
CONTINUOUS
  0
LAYER
  2
186
 70
    64
 62
     7
  6
CONTINUOUS
  0
LAYER
  2
187
 70
    64
 62
     7
  6
CONTINUOUS
  0
LAYER
  2
188
 70
    64
 62
     7
  6
CONTINUOUS
  0
LAYER
  2
189
 70
    64
 62
     7
  6
CONTINUOUS
  0
LAYER
  2
190
 70
    64
 62
     7
  6
CONTINUOUS
  0
LAYER
  2
191
 70
    64
 62
     7
  6
CONTINUOUS
  0
LAYER
  2
192
 70
    64
 62
     7
  6
CONTINUOUS
  0
LAYER
  2
193
 70
    64
 62
     7
  6
CONTINUOUS
  0
LAYER
  2
194
 70
    64
 62
     7
  6
CONTINUOUS
  0
LAYER
  2
195
 70
    64
 62
     7
  6
CONTINUOUS
  0
LAYER
  2
196
 70
    64
 62
     7
  6
CONTINUOUS
  0
LAYER
  2
197
 70
    64
 62
     7
  6
CONTINUOUS
  0
LAYER
  2
198
 70
    64
 62
     7
  6
CONTINUOUS
  0
LAYER
  2
199
 70
    64
 62
     7
  6
CONTINUOUS
  0
LAYER
  2
200
 70
    64
 62
     7
  6
CONTINUOUS
  0
LAYER
  2
201
 70
    64
 62
     7
  6
CONTINUOUS
  0
LAYER
  2
202
 70
    64
 62
     7
  6
CONTINUOUS
  0
LAYER
  2
203
 70
    64
 62
     7
  6
CONTINUOUS
  0
LAYER
  2
204
 70
    64
 62
     7
  6
CONTINUOUS
  0
LAYER
  2
205
 70
    64
 62
     7
  6
CONTINUOUS
  0
LAYER
  2
206
 70
    64
 62
     7
  6
CONTINUOUS
  0
LAYER
  2
207
 70
    64
 62
     7
  6
CONTINUOUS
  0
LAYER
  2
208
 70
    64
 62
     7
  6
CONTINUOUS
  0
LAYER
  2
209
 70
    64
 62
     7
  6
CONTINUOUS
  0
LAYER
  2
210
 70
    64
 62
     7
  6
CONTINUOUS
  0
LAYER
  2
211
 70
    64
 62
     7
  6
CONTINUOUS
  0
LAYER
  2
212
 70
    64
 62
     7
  6
CONTINUOUS
  0
LAYER
  2
213
 70
    64
 62
     7
  6
CONTINUOUS
  0
LAYER
  2
214
 70
    64
 62
     7
  6
CONTINUOUS
  0
LAYER
  2
215
 70
    64
 62
     7
  6
CONTINUOUS
  0
LAYER
  2
216
 70
    64
 62
     7
  6
CONTINUOUS
  0
LAYER
  2
217
 70
    64
 62
     7
  6
CONTINUOUS
  0
LAYER
  2
218
 70
    64
 62
     7
  6
CONTINUOUS
  0
LAYER
  2
219
 70
    64
 62
     7
  6
CONTINUOUS
  0
LAYER
  2
220
 70
    64
 62
     7
  6
CONTINUOUS
  0
LAYER
  2
221
 70
    64
 62
     7
  6
CONTINUOUS
  0
LAYER
  2
222
 70
    64
 62
     7
  6
CONTINUOUS
  0
LAYER
  2
223
 70
    64
 62
     7
  6
CONTINUOUS
  0
LAYER
  2
224
 70
    64
 62
     7
  6
CONTINUOUS
  0
LAYER
  2
225
 70
    64
 62
     7
  6
CONTINUOUS
  0
LAYER
  2
226
 70
    64
 62
     7
  6
CONTINUOUS
  0
LAYER
  2
227
 70
    64
 62
     7
  6
CONTINUOUS
  0
LAYER
  2
228
 70
    64
 62
     7
  6
CONTINUOUS
  0
LAYER
  2
229
 70
    64
 62
     7
  6
CONTINUOUS
  0
LAYER
  2
230
 70
    64
 62
     7
  6
CONTINUOUS
  0
LAYER
  2
231
 70
    64
 62
     7
  6
CONTINUOUS
  0
LAYER
  2
232
 70
    64
 62
     7
  6
CONTINUOUS
  0
LAYER
  2
233
 70
    64
 62
     7
  6
CONTINUOUS
  0
LAYER
  2
234
 70
    64
 62
     7
  6
CONTINUOUS
  0
LAYER
  2
235
 70
    64
 62
     7
  6
CONTINUOUS
  0
LAYER
  2
236
 70
    64
 62
     7
  6
CONTINUOUS
  0
LAYER
  2
237
 70
    64
 62
     7
  6
CONTINUOUS
  0
LAYER
  2
238
 70
    64
 62
     7
  6
CONTINUOUS
  0
LAYER
  2
239
 70
    64
 62
     7
  6
CONTINUOUS
  0
LAYER
  2
240
 70
    64
 62
     7
  6
CONTINUOUS
  0
LAYER
  2
241
 70
    64
 62
     7
  6
CONTINUOUS
  0
LAYER
  2
242
 70
    64
 62
     7
  6
CONTINUOUS
  0
LAYER
  2
243
 70
    64
 62
     7
  6
CONTINUOUS
  0
LAYER
  2
244
 70
    64
 62
     7
  6
CONTINUOUS
  0
LAYER
  2
245
 70
    64
 62
     7
  6
CONTINUOUS
  0
LAYER
  2
246
 70
    64
 62
     7
  6
CONTINUOUS
  0
LAYER
  2
247
 70
    64
 62
     7
  6
CONTINUOUS
  0
LAYER
  2
248
 70
    64
 62
     7
  6
CONTINUOUS
  0
LAYER
  2
249
 70
    64
 62
     7
  6
CONTINUOUS
  0
LAYER
  2
250
 70
    64
 62
     7
  6
CONTINUOUS
  0
LAYER
  2
251
 70
    64
 62
     7
  6
CONTINUOUS
  0
LAYER
  2
252
 70
    64
 62
     7
  6
CONTINUOUS
  0
LAYER
  2
253
 70
    64
 62
     7
  6
CONTINUOUS
  0
LAYER
  2
254
 70
    64
 62
     7
  6
CONTINUOUS
  0
LAYER
  2
255
 70
    64
 62
     7
  6
CONTINUOUS
  0
ENDTAB
  0
TABLE
  2
STYLE
 70
     2
  0
STYLE
  2
STANDARD
 70
    64
 40
0.0
 41
1.0
 50
0.0
 71
     0
 42
3.000000
  3
TXT
  4
BIGFONT
  0
ENDTAB
  0
ENDSEC
  0
SECTION
  2
ENTITIES
  0
LINE
  8
99
  6
CONTINUOUS
 62
     3
 10
-3.0500144958496094
 20
-45.399999834597104
 11
 23.750003814697266
 21
-45.399999834597104
  0
ARC
  8
99
  6
CONTINUOUS
 62
     3
 10
-3.0500144958496094
 20
-43.799999453127377
 40
 1.6000000238418579
 50
-179.9999980615126
 51
-90.000000851989171
  0
LINE
  8
99
  6
CONTINUOUS
 62
     3
 10
 23.750003814697266
 20
-45.399999834597104
 11
 23.750003814697266
 21
-47.00000021606683
  0
LINE
  8
99
  6
CONTINUOUS
 62
     3
 10
 23.750003814697266
 20
-47.00000021606683
 11
-3.0500144958496094
 21
-47.00000021606683
  0
ARC
  8
99
  6
CONTINUOUS
 62
     3
 10
-3.0500144958496094
 20
-43.799999453127377
 40
 3.2000000476837158
 50
-179.9999980615126
 51
-90.000000851989171
  0
LINE
  8
99
  6
CONTINUOUS
 62
     3
 10
-4.6500053405761719
 20
-33.200000263750546
 11
-4.6500053405761719
 21
-43.799999453127377
  0
ARC
  8
99
  6
CONTINUOUS
 62
     3
 10
-7.8500022888183594
 20
-33.200000263750546
 40
 3.2000000476837158
 50
 0
 51
 90.000004039712721
  0
LINE
  8
99
  6
CONTINUOUS
 62
     3
 10
-6.2499961853027344
 20
-43.799999453127377
 11
-6.2499961853027344
 21
-33.200000263750546
  0
ARC
  8
99
  6
CONTINUOUS
 62
     3
 10
-7.8500022888183594
 20
-33.200000263750546
 40
 1.6000000238418579
 50
 0
 51
 90.000004039712721
  0
LINE
  8
99
  6
CONTINUOUS
 62
     3
 10
-23.750003814697266
 20
-29.999999523162842
 11
-7.8500022888183594
 21
-29.999999523162842
  0
LINE
  8
99
  6
CONTINUOUS
 62
     3
 10
-7.8500022888183594
 20
-31.599999904632565
 11
-23.750003814697266
 21
-31.599999904632565
  0
LINE
  8
99
  6
CONTINUOUS
 62
     3
 10
-23.750003814697266
 20
-31.599999904632565
 11
-23.750003814697266
 21
-29.999999523162842
  0
POINT
  8
99
  6
CONTINUOUS
 62
     3
 10
 13.749980926513672
 20
-47.00000021606683
  0
LINE
  8
99
  6
DOT
 62
     3
 10
 11.649967193603516
 20
-47.00000021606683
 11
 11.649967193603516
 21
-45.399999834597104
  0
LINE
  8
99
  6
DOT
 62
     3
 10
 15.849964141845703
 20
-47.00000021606683
 11
 15.849964141845703
 21
-45.399999834597104
  0
POINT
  8
99
  6
CONTINUOUS
 62
     3
 10
-16.249996185302734
 20
-29.999999523162842
  0
LINE
  8
99
  6
DOT
 62
     3
 10
-17.850009918212891
 20
-29.999999523162842
 11
-17.850009918212891
 21
-31.599999904632565
  0
LINE
  8
99
  6
DOT
 62
     3
 10
-14.649982452392578
 20
-29.999999523162842
 11
-14.649982452392578
 21
-31.599999904632565
  0
LINE
  8
99
  6
DASHDOT
 62
     7
 10
-28.225955963134766
 20
 34.999996185302734
 11
 26.661869049072266
 21
 34.999996185302734
  0
LINE
  8
99
  6
CONTINUOUS
 62
     3
 10
-23.750003814697266
 20
 70.000003814697266
 11
 23.750003814697266
 21
 70.000003814697266
  0
LINE
  8
99
  6
CONTINUOUS
 62
     3
 10
 23.750003814697266
 20
 70.000003814697266
 11
 23.750003814697266
 21
 0
  0
LINE
  8
99
  6
CONTINUOUS
 62
     3
 10
 23.750003814697266
 20
 0
 11
-23.750003814697266
 21
 0
  0
LINE
  8
99
  6
CONTINUOUS
 62
     3
 10
-23.750003814697266
 20
 0
 11
-23.750003814697266
 21
 70.000003814697266
  0
CIRCLE
  8
99
  6
CONTINUOUS
 62
     3
 10
-16.250003814697266
 20
 34.999996185302734
 40
 1.6000000238418579
  0
CIRCLE
  8
99
  6
CONTINUOUS
 62
     3
 10
-16.250003814697266
 20
 47.499996185302734
 40
 1.6000000238418579
  0
CIRCLE
  8
99
  6
CONTINUOUS
 62
     3
 10
-16.250003814697266
 20
 22.499996185302734
 40
 1.6000000238418579
  0
CIRCLE
  8
99
  6
CONTINUOUS
 62
     3
 10
 13.749996185302734
 20
 59.999996185302734
 40
 2
  0
CIRCLE
  8
99
  6
CONTINUOUS
 62
     3
 10
 13.749996185302734
 20
 9.9999961853027344
 40
 2
  0
LINE
  8
99
  6
DOT
 62
     3
 10
-6.2499885559082031
 20
 0
 11
-6.2499885559082031
 21
 70.000003814697266
  0
LINE
  8
99
  6
CONTINUOUS
 62
     3
 10
-4.6499900817871094
 20
 0
 11
-4.6499900817871094
 21
 70.000003814697266
  0
LINE
  8
99
  6
CONTINUOUS
 62
     7
 10
 25.376605987548828
 20
-45.399999834597104
 11
 34.710010528564453
 21
-45.399999834597104
  0
LINE
  8
99
  6
CONTINUOUS
 62
     7
 10
 33.750003814697266
 20
-52.802070833742611
 11
 33.750003814697266
 21
-47.00000021606683
  0
LINE
  8
99
  6
CONTINUOUS
 62
     7
 10
 33.750003814697266
 20
-47.00000021606683
 11
 32.973546679389706
 21
-49.897777694934035
  0
LINE
  8
99
  6
CONTINUOUS
 62
     7
 10
 33.750003814697266
 20
-47.00000021606683
 11
 34.526460950004825
 21
-49.897777694934035
  0
LINE
  8
99
  6
CONTINUOUS
 62
     7
 10
 33.750003814697266
 20
-45.399999834597104
 11
 33.750003814697266
 21
-47.00000021606683
  0
TEXT
  8
99
  6
CONTINUOUS
 62
     7
 10
 32.78999713579919
 20
-43.799996357658173
 11
 32.78999688227313
 21
-37.999996357658176
 40
 2
 41
 0.8
  1
１．６
 50
 90.000004039712707
 72
  5
  0
LINE
  8
99
  6
CONTINUOUS
 62
     7
 10
 33.750003814697266
 20
-37.994373537600033
 11
 33.750003814697266
 21
-45.399999834597104
  0
LINE
  8
99
  6
CONTINUOUS
 62
     7
 10
 33.750003814697266
 20
-45.399999834597104
 11
 34.526460950004825
 21
-42.502222355729899
  0
LINE
  8
99
  6
CONTINUOUS
 62
     7
 10
 33.750003814697266
 20
-45.399999834597104
 11
 32.973546679389706
 21
-42.502222355729899
  0
LINE
  8
99
  6
DASHDOT
 62
     2
 10
-16.249996185302734
 20
-26.542446613311768
 11
-16.249996185302734
 21
-35.432672977447503
  0
LINE
  8
99
  6
DASHDOT
 62
     2
 10
 13.749980926513672
 20
-41.531246401369565
 11
 13.749980926513672
 21
-51.627409197390072
  0
TEXT
  8
99
  6
CONTINUOUS
 62
     7
 10
 34.740375518798828
 20
 67.856731414794922
 11
 44.240375518798828
 21
 67.856731414794922
 40
 2.5
 41
 0.8
  1
２－φ４
 50
 0
 72
  5
  0
LINE
  8
99
  6
CONTINUOUS
 62
     7
 10
 17.583286285400391
 20
 67.106731414794922
 11
 48.304492950439453
 21
 67.106731414794922
  0
LINE
  8
99
  6
CONTINUOUS
 62
     7
 10
 17.583286285400391
 20
 67.106731414794922
 11
 14.699451446533203
 21
 61.760250091552734
  0
LINE
  8
99
  6
CONTINUOUS
 62
     7
 10
 14.699451446533203
 20
 61.760250091552734
 11
 16.758504454919812
 21
 63.94206142818431
  0
LINE
  8
99
  6
CONTINUOUS
 62
     7
 10
 14.699451446533203
 20
 61.760250091552734
 11
 15.391737991218992
 21
 64.679280639533857
  0
TEXT
  8
99
  6
CONTINUOUS
 62
     7
 10
-56.330142974853516
 20
 63.958339691162109
 11
-41.830142974853516
 21
 63.958339691162109
 40
 2.5
 41
 0.8
  1
３－φ３．２
 50
 0
 72
  5
  0
LINE
  8
99
  6
CONTINUOUS
 62
     7
 10
-57.208347320556641
 20
 63.208339691162109
 11
-18.714725494384766
 21
 63.208339691162109
  0
LINE
  8
99
  6
CONTINUOUS
 62
     7
 10
-18.714725494384766
 20
 63.208339691162109
 11
-16.495021820068359
 21
 49.061550140380859
  0
LINE
  8
99
  6
CONTINUOUS
 62
     7
 10
-16.495021820068359
 20
 49.061550140380859
 11
-16.177130129638233
 21
 52.04466007351364
  0
LINE
  8
99
  6
CONTINUOUS
 62
     7
 10
-16.495021820068359
 20
 49.061550140380859
 11
-17.711274507070282
 21
 51.803944969970608
  0
LINE
  8
99
  6
CONTINUOUS
 62
     7
 10
-28.225955963134766
 20
 34.999996185302734
 11
-34.709995269775391
 21
 34.999996185302734
  0
LINE
  8
99
  6
CONTINUOUS
 62
     7
 10
-16.250003814697266
 20
 51.678775787353516
 11
-16.250003814697266
 21
-10.959999084472656
  0
LINE
  8
99
  6
CONTINUOUS
 62
     7
 10
 13.749996185302734
 20
 65.701221466064453
 11
 13.749996185302734
 21
-10.959999084472656
  0
LINE
  8
99
  6
CONTINUOUS
 62
     7
 10
-16.250003814697266
 20
-9.9999980926513707
 11
 13.749996185302734
 21
-9.9999980926513707
  0
LINE
  8
99
  6
CONTINUOUS
 62
     7
 10
-16.250003814697266
 20
-9.9999980926513707
 11
-13.352226335830061
 21
-10.776455227958934
  0
LINE
  8
99
  6
CONTINUOUS
 62
     7
 10
-16.250003814697266
 20
-9.9999980926513707
 11
-13.352226335830061
 21
-9.2235409573438076
  0
LINE
  8
99
  6
CONTINUOUS
 62
     7
 10
 13.749996185302734
 20
-9.9999980926513707
 11
 10.852218706435529
 21
-9.2235409573438076
  0
LINE
  8
99
  6
CONTINUOUS
 62
     7
 10
 13.749996185302734
 20
-9.9999980926513707
 11
 10.852218706435529
 21
-10.776455227958934
  0
TEXT
  8
99
  6
CONTINUOUS
 62
     7
 10
-3.0999992370605467
 20
-9.0399990081787109
 11
 0.6000007629394535
 21
-9.0399990081787109
 40
 2
 41
 0.8
  1
30
 50
 0
 72
  5
  0
LINE
  8
99
  6
CONTINUOUS
 62
     7
 10
 23.750003814697266
 20
-2.0552425384521484
 11
 23.750003814697266
 21
-10.959999084472656
  0
LINE
  8
99
  6
CONTINUOUS
 62
     7
 10
 13.749996185302734
 20
-9.9999980926513707
 11
 23.750003814697266
 21
-9.9999980926513707
  0
LINE
  8
99
  6
CONTINUOUS
 62
     7
 10
 13.749996185302734
 20
-9.9999980926513707
 11
 16.647773664169939
 21
-10.776455227958934
  0
LINE
  8
99
  6
CONTINUOUS
 62
     7
 10
 13.749996185302734
 20
-9.9999980926513707
 11
 16.647773664169939
 21
-9.2235409573438076
  0
LINE
  8
99
  6
CONTINUOUS
 62
     7
 10
 23.750003814697266
 20
-9.9999980926513707
 11
 20.852226335830061
 21
-9.2235409573438076
  0
LINE
  8
99
  6
CONTINUOUS
 62
     7
 10
 23.750003814697266
 20
-9.9999980926513707
 11
 20.852226335830061
 21
-10.776455227958934
  0
TEXT
  8
99
  6
CONTINUOUS
 62
     7
 10
 16.900000762939452
 20
-9.0399990081787109
 11
 20.600000762939452
 21
-9.0399990081787109
 40
 2
 41
 0.8
  1
10
 50
 0
 72
  5
  0
LINE
  8
99
  6
CONTINUOUS
 62
     7
 10
-12.371822357177734
 20
 47.499996185302734
 11
-34.709995269775391
 21
 47.499996185302734
  0
LINE
  8
99
  6
CONTINUOUS
 62
     7
 10
-33.750003814697266
 20
 47.499996185302734
 11
-33.750003814697266
 21
 34.999996185302734
  0
LINE
  8
99
  6
CONTINUOUS
 62
     7
 10
-33.750003814697266
 20
 47.499996185302734
 11
-34.526460950004825
 21
 44.602218706435529
  0
LINE
  8
99
  6
CONTINUOUS
 62
     7
 10
-33.750003814697266
 20
 47.499996185302734
 11
-32.973546679389706
 21
 44.602218706435529
  0
LINE
  8
99
  6
CONTINUOUS
 62
     7
 10
-33.750003814697266
 20
 34.999996185302734
 11
-32.973546679389706
 21
 37.897773664169939
  0
LINE
  8
99
  6
CONTINUOUS
 62
     7
 10
-33.750003814697266
 20
 34.999996185302734
 11
-34.526460950004825
 21
 37.897773664169939
  0
TEXT
  8
99
  6
CONTINUOUS
 62
     7
 10
-34.709995234806279
 20
 37.299994703135219
 11
-34.709995580126261
 21
 45.199994703135211
 40
 2
 41
 0.8
  1
12.5
 50
 90.000004039712707
 72
  5
  0
LINE
  8
99
  6
CONTINUOUS
 62
     7
 10
-12.371822357177734
 20
 22.499996185302734
 11
-34.709995269775391
 21
 22.499996185302734
  0
LINE
  8
99
  6
CONTINUOUS
 62
     7
 10
-33.750003814697266
 20
 34.999996185302734
 11
-33.750003814697266
 21
 22.499996185302734
  0
LINE
  8
99
  6
CONTINUOUS
 62
     7
 10
-33.750003814697266
 20
 34.999996185302734
 11
-34.526460950004825
 21
 32.102218706435529
  0
LINE
  8
99
  6
CONTINUOUS
 62
     7
 10
-33.750003814697266
 20
 34.999996185302734
 11
-32.973546679389706
 21
 32.102218706435529
  0
LINE
  8
99
  6
CONTINUOUS
 62
     7
 10
-33.750003814697266
 20
 22.499996185302734
 11
-32.973546679389706
 21
 25.397773664169939
  0
LINE
  8
99
  6
CONTINUOUS
 62
     7
 10
-33.750003814697266
 20
 22.499996185302734
 11
-34.526460950004825
 21
 25.397773664169939
  0
TEXT
  8
99
  6
CONTINUOUS
 62
     7
 10
-34.709995234806279
 20
 24.799994703135223
 11
-34.709995580126261
 21
 32.699994703135211
 40
 2
 41
 0.8
  1
12.5
 50
 90.000004039712707
 72
  5
  0
LINE
  8
99
  6
CONTINUOUS
 62
     7
 10
-26.089786529541016
 20
 70.000003814697266
 11
-39.709995269775391
 21
 70.000003814697266
  0
LINE
  8
99
  6
CONTINUOUS
 62
     7
 10
-26.089786529541016
 20
 0
 11
-39.709995269775391
 21
 0
  0
LINE
  8
99
  6
CONTINUOUS
 62
     7
 10
-38.750003814697266
 20
 70.000003814697266
 11
-38.750003814697266
 21
 0
  0
LINE
  8
99
  6
CONTINUOUS
 62
     7
 10
-38.750003814697266
 20
 70.000003814697266
 11
-39.526460950004825
 21
 67.102226335830068
  0
LINE
  8
99
  6
CONTINUOUS
 62
     7
 10
-38.750003814697266
 20
 70.000003814697266
 11
-37.973546679389706
 21
 67.102226335830068
  0
LINE
  8
99
  6
CONTINUOUS
 62
     7
 10
-38.750003814697266
 20
 0
 11
-37.973546679389706
 21
 2.897777478867205
  0
LINE
  8
99
  6
CONTINUOUS
 62
     7
 10
-38.750003814697266
 20
 0
 11
-39.526460950004825
 21
 2.897777478867205
  0
TEXT
  8
99
  6
CONTINUOUS
 62
     7
 10
-39.709995234806279
 20
 33.150000806650844
 11
-39.709995396538424
 21
 36.850000806650847
 40
 2
 41
 0.8
  1
70
 50
 90.000004039712707
 72
  5
  0
LINE
  8
99
  6
CONTINUOUS
 62
     7
 10
 8.6057472229003906
 20
 59.999996185302734
 11
 34.710010528564453
 21
 59.999996185302734
  0
LINE
  8
99
  6
CONTINUOUS
 62
     7
 10
 8.0448570251464702
 20
 9.9999961853027344
 11
 34.710010528564453
 21
 9.9999961853027344
  0
LINE
  8
99
  6
CONTINUOUS
 62
     7
 10
 33.750003814697266
 20
 59.999996185302734
 11
 33.750003814697266
 21
 9.9999961853027344
  0
LINE
  8
99
  6
CONTINUOUS
 62
     7
 10
 33.750003814697266
 20
 59.999996185302734
 11
 32.973546679389706
 21
 57.102218706435529
  0
LINE
  8
99
  6
CONTINUOUS
 62
     7
 10
 33.750003814697266
 20
 59.999996185302734
 11
 34.526460950004825
 21
 57.102218706435529
  0
LINE
  8
99
  6
CONTINUOUS
 62
     7
 10
 33.750003814697266
 20
 9.9999961853027344
 11
 34.526460950004825
 21
 12.897773664169939
  0
LINE
  8
99
  6
CONTINUOUS
 62
     7
 10
 33.750003814697266
 20
 9.9999961853027344
 11
 32.973546679389706
 21
 12.897773664169939
  0
TEXT
  8
99
  6
CONTINUOUS
 62
     7
 10
 32.78999713579919
 20
 33.149993177256306
 11
 32.789996974067044
 21
 36.849993177256316
 40
 2
 41
 0.8
  1
50
 50
 90.000004039712707
 72
  5
  0
LINE
  8
99
  6
CONTINUOUS
 62
     7
 10
-6.2499961853027344
 20
-27.524020671844482
 11
-6.2499961853027344
 21
-19.039996147155758
  0
LINE
  8
99
  6
CONTINUOUS
 62
     7
 10
 23.750003814697266
 20
-42.568903185427189
 11
 23.750003814697266
 21
-19.039996147155758
  0
LINE
  8
99
  6
CONTINUOUS
 62
     7
 10
 23.750003814697266
 20
-19.999999046325684
 11
-6.2499961853027344
 21
-19.999999046325684
  0
LINE
  8
99
  6
CONTINUOUS
 62
     7
 10
 23.750003814697266
 20
-19.999999046325684
 11
 20.852226335830061
 21
-19.22354191101812
  0
LINE
  8
99
  6
CONTINUOUS
 62
     7
 10
 23.750003814697266
 20
-19.999999046325684
 11
 20.852226335830061
 21
-20.776456181633247
  0
LINE
  8
99
  6
CONTINUOUS
 62
     7
 10
-6.2499961853027344
 20
-19.999999046325684
 11
-3.3522187064355293
 21
-20.776456181633247
  0
LINE
  8
99
  6
CONTINUOUS
 62
     7
 10
-6.2499961853027344
 20
-19.999999046325684
 11
-3.3522187064355293
 21
-19.22354191101812
  0
TEXT
  8
99
  6
CONTINUOUS
 62
     7
 10
 6.9000007629394533
 20
-19.039997100830078
 11
 10.600000762939452
 21
-19.039997100830078
 40
 2
 41
 0.8
  1
30
 50
 0
 72
  5
  0
LINE
  8
0
  6
CONTINUOUS
 62
     7
 10
-23.750003814697266
 20
 72.000003814697266
 11
-23.750003814697266
 21
 80.960003814697259
  0
LINE
  8
0
  6
CONTINUOUS
 62
     7
 10
 23.750003814697266
 20
 72.000003814697266
 11
 23.750003814697266
 21
 80.960003814697259
  0
LINE
  8
0
  6
CONTINUOUS
 62
     7
 10
-23.750003814697266
 20
 80.000003814697266
 11
 23.750003814697266
 21
 80.000003814697266
  0
LINE
  8
0
  6
CONTINUOUS
 62
     7
 10
-23.750003814697266
 20
 80.000003814697266
 11
-20.852226335830061
 21
 79.223546679389699
  0
LINE
  8
0
  6
CONTINUOUS
 62
     7
 10
-23.750003814697266
 20
 80.000003814697266
 11
-20.852226335830061
 21
 80.776460950004832
  0
LINE
  8
0
  6
CONTINUOUS
 62
     7
 10
 23.750003814697266
 20
 80.000003814697266
 11
 20.852226335830061
 21
 80.776460950004832
  0
LINE
  8
0
  6
CONTINUOUS
 62
     7
 10
 23.750003814697266
 20
 80.000003814697266
 11
 20.852226335830061
 21
 79.223546679389699
  0
TEXT
  8
0
  6
CONTINUOUS
 62
     7
 10
-4.2700000000000147
 20
 80.960003814697259
 11
 4.2699999999999863
 21
 80.960003814697274
 40
 2.2000000000000002
 41
 0.8
  1
47.5
 50
 0
 72
  5
  0
LINE
  8
0
  6
CONTINUOUS
 62
     7
 10
-23.750003814697266
 20
-2
 11
-23.750003814697266
 21
-10.959998092651372
  0
LINE
  8
0
  6
CONTINUOUS
 62
     7
 10
-16.250003814697266
 20
-9.9999980926513707
 11
-23.750003814697266
 21
-9.9999980926513707
  0
LINE
  8
0
  6
CONTINUOUS
 62
     7
 10
-16.250003814697266
 20
-9.9999980926513707
 11
-19.147781293564471
 21
-9.2235409573438076
  0
LINE
  8
0
  6
CONTINUOUS
 62
     7
 10
-16.250003814697266
 20
-9.9999980926513707
 11
-19.147781293564471
 21
-10.776455227958934
  0
LINE
  8
0
  6
CONTINUOUS
 62
     7
 10
-23.750003814697266
 20
-9.9999980926513707
 11
-20.852226335830061
 21
-10.776455227958934
  0
LINE
  8
0
  6
CONTINUOUS
 62
     7
 10
-23.750003814697266
 20
-9.9999980926513707
 11
-20.852226335830061
 21
-9.2235409573438076
  0
TEXT
  8
0
  6
CONTINUOUS
 62
     7
 10
-23.140003814697256
 20
-9.0399980926513734
 11
-16.860003814697254
 21
-9.0399980926513717
 40
 2.2000000000000002
 41
 0.8
  1
7.5
 50
 0
 72
  5
  0
LINE
  8
0
  6
CONTINUOUS
 62
     7
 10
-23.750003814697266
 20
-27.999999523162845
 11
-23.750003814697266
 21
-19.039999046325683
  0
LINE
  8
0
  6
CONTINUOUS
 62
     7
 10
-23.750003814697266
 20
-19.999999046325684
 11
-6.2499961853027344
 21
-19.999999046325684
  0
LINE
  8
0
  6
CONTINUOUS
 62
     7
 10
-23.750003814697266
 20
-19.999999046325684
 11
-20.852226335830061
 21
-20.776456181633247
  0
LINE
  8
0
  6
CONTINUOUS
 62
     7
 10
-23.750003814697266
 20
-19.999999046325684
 11
-20.852226335830061
 21
-19.22354191101812
  0
LINE
  8
0
  6
CONTINUOUS
 62
     7
 10
-6.2499961853027344
 20
-19.999999046325684
 11
-9.1477736641699394
 21
-19.22354191101812
  0
LINE
  8
0
  6
CONTINUOUS
 62
     7
 10
-6.2499961853027344
 20
-19.999999046325684
 11
-9.1477736641699394
 21
-20.776456181633247
  0
TEXT
  8
0
  6
CONTINUOUS
 62
     7
 10
-19.270000000000014
 20
-19.039999046325679
 11
-10.730000000000015
 21
-19.039999046325683
 40
 2.2000000000000002
 41
 0.8
  1
17.5
 50
 0
 72
  5
  0
LINE
  8
0
  6
CONTINUOUS
 62
     7
 10
-5.2499961853027344
 20
-30.00000021606683
 11
 39.781394010465718
 21
-30.00000021606683
  0
LINE
  8
0
  6
CONTINUOUS
 62
     7
 10
 24.750003814697266
 20
-47.00000021606683
 11
 39.781394010465718
 21
-47.00000021606683
  0
LINE
  8
0
  6
CONTINUOUS
 62
     7
 10
 38.781394010465718
 20
-30.00000021606683
 11
 38.781394010465718
 21
-47.00000021606683
  0
LINE
  8
0
  6
CONTINUOUS
 62
     7
 10
 38.781394010465718
 20
-30.00000021606683
 11
 38.004936875158158
 21
-32.897777694934035
  0
LINE
  8
0
  6
CONTINUOUS
 62
     7
 10
 38.781394010465718
 20
-30.00000021606683
 11
 39.557851145773277
 21
-32.897777694934035
  0
LINE
  8
0
  6
CONTINUOUS
 62
     7
 10
 38.781394010465718
 20
-47.00000021606683
 11
 39.557851145773277
 21
-44.102222737199625
  0
LINE
  8
0
  6
CONTINUOUS
 62
     7
 10
 38.781394010465718
 20
-47.00000021606683
 11
 38.004936875158158
 21
-44.102222737199625
  0
TEXT
  8
0
  6
CONTINUOUS
 62
     7
 10
 37.981394010465721
 20
-40.50000021606683
 11
 37.981394010465721
 21
-36.50000021606683
 40
 2.5
 41
 0.8
  1
17
 50
 90.000001535234517
 72
  5
  0
LINE
  8
256
  6
CONTINUOUS
 62
     7
 10
 104.99998474121094
 20
-121.5
 11
 200
 21
-121.5
  0
LINE
  8
256
  6
CONTINUOUS
 62
     7
 10
 170.99998474121094
 20
-109.5
 11
 170.99998474121094
 21
-121.5
  0
TEXT
  8
256
  6
CONTINUOUS
 62
     7
 10
 112.5
 20
-134.25
 11
 154.5
 21
-134.25
 40
 6
 41
 1
  1
ＮＦ５Ｍ－１７
 50
 0
 72
  5
  0
TEXT
  8
256
  6
CONTINUOUS
 62
     7
 10
 117.99998474121094
 20
-119.75
 11
 157.99998474121094
 21
-119.75
 40
 5
 41
 0.8
  1
主幹ＭＣＣＢ取付金具
 50
 0
 72
  5
  0
TEXT
  8
256
  6
CONTINUOUS
 62
     7
 10
 106.29998779296875
 20
-112.4499633789062
 11
 111.29998779296875
 21
-112.4499633789062
 40
 2.5
 41
 0.8
  1
品名
 50
 0
 72
  5
  0
TEXT
  8
256
  6
CONTINUOUS
 62
     7
 10
 106.29998779296875
 20
-124.45003051757811
 11
 111.29998779296875
 21
-124.45003051757811
 40
 2.5
 41
 0.8
  1
品番
 50
 0
 72
  5
  0
LINE
  8
256
  6
CONTINUOUS
 62
     7
 10
 104.99998474121094
 20
-139.5
 11
 104.99998474121094
 21
-109.5
  0
LINE
  8
256
  6
CONTINUOUS
 62
     7
 10
 104.99998474121094
 20
-109.5
 11
 200
 21
-109.5
  0
LINE
  8
256
  6
CONTINUOUS
 62
     7
 10
-193.30000000000001
 20
 124.99999645625348
 11
-93.300000000000011
 21
 124.99999645625348
  0
TEXT
  8
256
  6
CONTINUOUS
 62
     7
 10
-188.30000000000001
 20
 127.99999604817611
 11
-134.30000000000001
 21
 127.99999604817611
 40
 6
 41
 1
  1
ＬＢ－Ｄ５１４０Ｂ
 50
 0
 72
  5
  0
LINE
  8
256
  6
CONTINUOUS
 62
     7
 10
-93.300000000000011
 20
 124.9999964562535
 11
-93.300000000000011
 21
 136.99999721136808
  0
LINE
  8
256
  6
CONTINUOUS
 62
     7
 10
 200
 20
-139.5
 11
-193.30000000000001
 21
-139.49999999999994
  0
LINE
  8
256
  6
CONTINUOUS
 62
     7
 10
 200
 20
 136.99999721136808
 11
 200
 21
-139.5
  0
LINE
  8
256
  6
CONTINUOUS
 62
     7
 10
-193.30000000000001
 20
 136.99999721136808
 11
-193.30000000000001
 21
-139.49999999999994
  0
LINE
  8
256
  6
CONTINUOUS
 62
     7
 10
-193.30000000000001
 20
 136.99999721136808
 11
 200
 21
 136.99999721136808
  0
ENDSEC
  0
EOF
