  0
SECTION
  2
HEADER
  9
$INSBASE
 10
0.0
20
0.0
  9
$REGENMODE
 70
     1
  9
$DRAGMODE
 70
     1
  9
$DIMTAD
 70
     1
  9
$EXTMIN
 10
-52.500000
 20
-37.125000
 30
 0.0
  9
$EXTMAX
 10
52.500000
 20
37.125000
 30
 0.0
  9
$LUPREC
 70
    3
  9
$AUPREC
 70
    3
  9
$LTSCALE
 40
26.250000
  0
ENDSEC
  0
SECTION
  2
TABLES
  0
TABLE
  2
LTYPE
 70
     6
  0
LTYPE
  2
CONTINUOUS
 70
    64
  3
SOLID
 72
    65
 73
     0
 40
0.0
  0
LTYPE
  2
DASHED2
 70
    64
  3
_ _ _ _ _ _ _ _ _ _ _ _ _ _ _ _ _ _ _ _ _ _ 
 72
    65
 73
     2
 40
0.5
 49
0.25
 49
-0.25
  0
LTYPE
  2
DASHED
 70
    64
  3
__ __ __ __ __ __ __ __ __ __ __ __ __ __ __
 72
    65
 73
     2
 40
0.75
 49
0.5
 49
-0.25
  0
LTYPE
  2
DASHEDX2
 70
    64
  3
____  ____  ____  ____  ____  ____  ____  __
 72
    65
 73
     2
 40
1.5
 49
1.0
 49
-0.5
  0
LTYPE
  2
DOT
 70
    64
  3
............................................
 72
    65
 73
     2
 40
0.25
 49
0
 49
-0.25
  0
LTYPE
  2
DASHDOT
 70
    64
  3
__ . __ . __ . __ . __ . __ . __ . __ . __ .
 72
    65
 73
     4
 40
1.0
 49
0.5
 49
-0.25
 49
0.0
 49
-0.25
  0
LTYPE
  2
CENTER
 70
    64
  3
____ _ ____ _ ____ _ ____ _ ____ _ ____ _ __
 72
    65
 73
     4
 40
2.0
 49
1.25
 49
-0.25
 49
0.25
 49
-0.25
  0
LTYPE
  2
DIVIDE
 70
    64
  3
__ . . __ . . __ . . __ . . __ . . __ . . __
 72
    65
 73
     6
 40
1.25
 49
0.5
 49
-0.25
 49
0.0
 49
-0.25
 49
0.0
 49
-0.25
  0
LTYPE
  2
PHANTOM2
 70
    64
  3
___ _ _ ___ _ _ ___ _ _ ___ _ _ ___ _ _ ___ 
 72
    65
 73
     6
 40
1.25
 49
0.625
 49
-0.125
 49
0.125
 49
-0.125
 49
0.125
 49
-0.125
  0
LTYPE
  2
DOTX2
 70
    64
  3
. . . . . . . . . . . . . . . . . . . . . . 
 72
    65
 73
     2
 40
0.5
 49
0
 49
-0.5
  0
ENDTAB
  0
TABLE
  2
LAYER
 70
   255
  0
LAYER
  2
0
 70
    64
 62
     7
  6
CONTINUOUS
  0
LAYER
  2
1
 70
    64
 62
     7
  6
CONTINUOUS
  0
LAYER
  2
2
 70
    64
 62
     7
  6
CONTINUOUS
  0
LAYER
  2
3
 70
    64
 62
     7
  6
CONTINUOUS
  0
LAYER
  2
4
 70
    64
 62
     7
  6
CONTINUOUS
  0
LAYER
  2
5
 70
    64
 62
     7
  6
CONTINUOUS
  0
LAYER
  2
6
 70
    64
 62
     7
  6
CONTINUOUS
  0
LAYER
  2
7
 70
    64
 62
     7
  6
CONTINUOUS
  0
LAYER
  2
8
 70
    64
 62
     7
  6
CONTINUOUS
  0
LAYER
  2
9
 70
    64
 62
     7
  6
CONTINUOUS
  0
LAYER
  2
10
 70
    64
 62
     7
  6
CONTINUOUS
  0
LAYER
  2
11
 70
    64
 62
     7
  6
CONTINUOUS
  0
LAYER
  2
12
 70
    64
 62
     7
  6
CONTINUOUS
  0
LAYER
  2
13
 70
    64
 62
     7
  6
CONTINUOUS
  0
LAYER
  2
14
 70
    64
 62
     7
  6
CONTINUOUS
  0
LAYER
  2
15
 70
    64
 62
     7
  6
CONTINUOUS
  0
LAYER
  2
16
 70
    64
 62
     7
  6
CONTINUOUS
  0
LAYER
  2
17
 70
    64
 62
     7
  6
CONTINUOUS
  0
LAYER
  2
18
 70
    64
 62
     7
  6
CONTINUOUS
  0
LAYER
  2
19
 70
    64
 62
     7
  6
CONTINUOUS
  0
LAYER
  2
20
 70
    64
 62
     7
  6
CONTINUOUS
  0
LAYER
  2
21
 70
    64
 62
     7
  6
CONTINUOUS
  0
LAYER
  2
22
 70
    64
 62
     7
  6
CONTINUOUS
  0
LAYER
  2
23
 70
    64
 62
     7
  6
CONTINUOUS
  0
LAYER
  2
24
 70
    64
 62
     7
  6
CONTINUOUS
  0
LAYER
  2
25
 70
    64
 62
     7
  6
CONTINUOUS
  0
LAYER
  2
26
 70
    64
 62
     7
  6
CONTINUOUS
  0
LAYER
  2
27
 70
    64
 62
     7
  6
CONTINUOUS
  0
LAYER
  2
28
 70
    64
 62
     7
  6
CONTINUOUS
  0
LAYER
  2
29
 70
    64
 62
     7
  6
CONTINUOUS
  0
LAYER
  2
30
 70
    64
 62
     7
  6
CONTINUOUS
  0
LAYER
  2
31
 70
    64
 62
     7
  6
CONTINUOUS
  0
LAYER
  2
32
 70
    64
 62
     7
  6
CONTINUOUS
  0
LAYER
  2
33
 70
    64
 62
     7
  6
CONTINUOUS
  0
LAYER
  2
34
 70
    64
 62
     7
  6
CONTINUOUS
  0
LAYER
  2
35
 70
    64
 62
     7
  6
CONTINUOUS
  0
LAYER
  2
36
 70
    64
 62
     7
  6
CONTINUOUS
  0
LAYER
  2
37
 70
    64
 62
     7
  6
CONTINUOUS
  0
LAYER
  2
38
 70
    64
 62
     7
  6
CONTINUOUS
  0
LAYER
  2
39
 70
    64
 62
     7
  6
CONTINUOUS
  0
LAYER
  2
40
 70
    64
 62
     7
  6
CONTINUOUS
  0
LAYER
  2
41
 70
    64
 62
     7
  6
CONTINUOUS
  0
LAYER
  2
42
 70
    64
 62
     7
  6
CONTINUOUS
  0
LAYER
  2
43
 70
    64
 62
     7
  6
CONTINUOUS
  0
LAYER
  2
44
 70
    64
 62
     7
  6
CONTINUOUS
  0
LAYER
  2
45
 70
    64
 62
     7
  6
CONTINUOUS
  0
LAYER
  2
46
 70
    64
 62
     7
  6
CONTINUOUS
  0
LAYER
  2
47
 70
    64
 62
     7
  6
CONTINUOUS
  0
LAYER
  2
48
 70
    64
 62
     7
  6
CONTINUOUS
  0
LAYER
  2
49
 70
    64
 62
     7
  6
CONTINUOUS
  0
LAYER
  2
50
 70
    64
 62
     7
  6
CONTINUOUS
  0
LAYER
  2
51
 70
    64
 62
     7
  6
CONTINUOUS
  0
LAYER
  2
52
 70
    64
 62
     7
  6
CONTINUOUS
  0
LAYER
  2
53
 70
    64
 62
     7
  6
CONTINUOUS
  0
LAYER
  2
54
 70
    64
 62
     7
  6
CONTINUOUS
  0
LAYER
  2
55
 70
    64
 62
     7
  6
CONTINUOUS
  0
LAYER
  2
56
 70
    64
 62
     7
  6
CONTINUOUS
  0
LAYER
  2
57
 70
    64
 62
     7
  6
CONTINUOUS
  0
LAYER
  2
58
 70
    64
 62
     7
  6
CONTINUOUS
  0
LAYER
  2
59
 70
    64
 62
     7
  6
CONTINUOUS
  0
LAYER
  2
60
 70
    64
 62
     7
  6
CONTINUOUS
  0
LAYER
  2
61
 70
    64
 62
     7
  6
CONTINUOUS
  0
LAYER
  2
62
 70
    64
 62
     7
  6
CONTINUOUS
  0
LAYER
  2
63
 70
    64
 62
     7
  6
CONTINUOUS
  0
LAYER
  2
64
 70
    64
 62
     7
  6
CONTINUOUS
  0
LAYER
  2
65
 70
    64
 62
     7
  6
CONTINUOUS
  0
LAYER
  2
66
 70
    64
 62
     7
  6
CONTINUOUS
  0
LAYER
  2
67
 70
    64
 62
     7
  6
CONTINUOUS
  0
LAYER
  2
68
 70
    64
 62
     7
  6
CONTINUOUS
  0
LAYER
  2
69
 70
    64
 62
     7
  6
CONTINUOUS
  0
LAYER
  2
70
 70
    64
 62
     7
  6
CONTINUOUS
  0
LAYER
  2
71
 70
    64
 62
     7
  6
CONTINUOUS
  0
LAYER
  2
72
 70
    64
 62
     7
  6
CONTINUOUS
  0
LAYER
  2
73
 70
    64
 62
     7
  6
CONTINUOUS
  0
LAYER
  2
74
 70
    64
 62
     7
  6
CONTINUOUS
  0
LAYER
  2
75
 70
    64
 62
     7
  6
CONTINUOUS
  0
LAYER
  2
76
 70
    64
 62
     7
  6
CONTINUOUS
  0
LAYER
  2
77
 70
    64
 62
     7
  6
CONTINUOUS
  0
LAYER
  2
78
 70
    64
 62
     7
  6
CONTINUOUS
  0
LAYER
  2
79
 70
    64
 62
     7
  6
CONTINUOUS
  0
LAYER
  2
80
 70
    64
 62
     7
  6
CONTINUOUS
  0
LAYER
  2
81
 70
    64
 62
     7
  6
CONTINUOUS
  0
LAYER
  2
82
 70
    64
 62
     7
  6
CONTINUOUS
  0
LAYER
  2
83
 70
    64
 62
     7
  6
CONTINUOUS
  0
LAYER
  2
84
 70
    64
 62
     7
  6
CONTINUOUS
  0
LAYER
  2
85
 70
    64
 62
     7
  6
CONTINUOUS
  0
LAYER
  2
86
 70
    64
 62
     7
  6
CONTINUOUS
  0
LAYER
  2
87
 70
    64
 62
     7
  6
CONTINUOUS
  0
LAYER
  2
88
 70
    64
 62
     7
  6
CONTINUOUS
  0
LAYER
  2
89
 70
    64
 62
     7
  6
CONTINUOUS
  0
LAYER
  2
90
 70
    64
 62
     7
  6
CONTINUOUS
  0
LAYER
  2
91
 70
    64
 62
     7
  6
CONTINUOUS
  0
LAYER
  2
92
 70
    64
 62
     7
  6
CONTINUOUS
  0
LAYER
  2
93
 70
    64
 62
     7
  6
CONTINUOUS
  0
LAYER
  2
94
 70
    64
 62
     7
  6
CONTINUOUS
  0
LAYER
  2
95
 70
    64
 62
     7
  6
CONTINUOUS
  0
LAYER
  2
96
 70
    64
 62
     7
  6
CONTINUOUS
  0
LAYER
  2
97
 70
    64
 62
     7
  6
CONTINUOUS
  0
LAYER
  2
98
 70
    64
 62
     7
  6
CONTINUOUS
  0
LAYER
  2
99
 70
    64
 62
     7
  6
CONTINUOUS
  0
LAYER
  2
100
 70
    64
 62
     7
  6
CONTINUOUS
  0
LAYER
  2
101
 70
    64
 62
     7
  6
CONTINUOUS
  0
LAYER
  2
102
 70
    64
 62
     7
  6
CONTINUOUS
  0
LAYER
  2
103
 70
    64
 62
     7
  6
CONTINUOUS
  0
LAYER
  2
104
 70
    64
 62
     7
  6
CONTINUOUS
  0
LAYER
  2
105
 70
    64
 62
     7
  6
CONTINUOUS
  0
LAYER
  2
106
 70
    64
 62
     7
  6
CONTINUOUS
  0
LAYER
  2
107
 70
    64
 62
     7
  6
CONTINUOUS
  0
LAYER
  2
108
 70
    64
 62
     7
  6
CONTINUOUS
  0
LAYER
  2
109
 70
    64
 62
     7
  6
CONTINUOUS
  0
LAYER
  2
110
 70
    64
 62
     7
  6
CONTINUOUS
  0
LAYER
  2
111
 70
    64
 62
     7
  6
CONTINUOUS
  0
LAYER
  2
112
 70
    64
 62
     7
  6
CONTINUOUS
  0
LAYER
  2
113
 70
    64
 62
     7
  6
CONTINUOUS
  0
LAYER
  2
114
 70
    64
 62
     7
  6
CONTINUOUS
  0
LAYER
  2
115
 70
    64
 62
     7
  6
CONTINUOUS
  0
LAYER
  2
116
 70
    64
 62
     7
  6
CONTINUOUS
  0
LAYER
  2
117
 70
    64
 62
     7
  6
CONTINUOUS
  0
LAYER
  2
118
 70
    64
 62
     7
  6
CONTINUOUS
  0
LAYER
  2
119
 70
    64
 62
     7
  6
CONTINUOUS
  0
LAYER
  2
120
 70
    64
 62
     7
  6
CONTINUOUS
  0
LAYER
  2
121
 70
    64
 62
     7
  6
CONTINUOUS
  0
LAYER
  2
122
 70
    64
 62
     7
  6
CONTINUOUS
  0
LAYER
  2
123
 70
    64
 62
     7
  6
CONTINUOUS
  0
LAYER
  2
124
 70
    64
 62
     7
  6
CONTINUOUS
  0
LAYER
  2
125
 70
    64
 62
     7
  6
CONTINUOUS
  0
LAYER
  2
126
 70
    64
 62
     7
  6
CONTINUOUS
  0
LAYER
  2
127
 70
    64
 62
     7
  6
CONTINUOUS
  0
LAYER
  2
128
 70
    64
 62
     7
  6
CONTINUOUS
  0
LAYER
  2
129
 70
    64
 62
     7
  6
CONTINUOUS
  0
LAYER
  2
130
 70
    64
 62
     7
  6
CONTINUOUS
  0
LAYER
  2
131
 70
    64
 62
     7
  6
CONTINUOUS
  0
LAYER
  2
132
 70
    64
 62
     7
  6
CONTINUOUS
  0
LAYER
  2
133
 70
    64
 62
     7
  6
CONTINUOUS
  0
LAYER
  2
134
 70
    64
 62
     7
  6
CONTINUOUS
  0
LAYER
  2
135
 70
    64
 62
     7
  6
CONTINUOUS
  0
LAYER
  2
136
 70
    64
 62
     7
  6
CONTINUOUS
  0
LAYER
  2
137
 70
    64
 62
     7
  6
CONTINUOUS
  0
LAYER
  2
138
 70
    64
 62
     7
  6
CONTINUOUS
  0
LAYER
  2
139
 70
    64
 62
     7
  6
CONTINUOUS
  0
LAYER
  2
140
 70
    64
 62
     7
  6
CONTINUOUS
  0
LAYER
  2
141
 70
    64
 62
     7
  6
CONTINUOUS
  0
LAYER
  2
142
 70
    64
 62
     7
  6
CONTINUOUS
  0
LAYER
  2
143
 70
    64
 62
     7
  6
CONTINUOUS
  0
LAYER
  2
144
 70
    64
 62
     7
  6
CONTINUOUS
  0
LAYER
  2
145
 70
    64
 62
     7
  6
CONTINUOUS
  0
LAYER
  2
146
 70
    64
 62
     7
  6
CONTINUOUS
  0
LAYER
  2
147
 70
    64
 62
     7
  6
CONTINUOUS
  0
LAYER
  2
148
 70
    64
 62
     7
  6
CONTINUOUS
  0
LAYER
  2
149
 70
    64
 62
     7
  6
CONTINUOUS
  0
LAYER
  2
150
 70
    64
 62
     7
  6
CONTINUOUS
  0
LAYER
  2
151
 70
    64
 62
     7
  6
CONTINUOUS
  0
LAYER
  2
152
 70
    64
 62
     7
  6
CONTINUOUS
  0
LAYER
  2
153
 70
    64
 62
     7
  6
CONTINUOUS
  0
LAYER
  2
154
 70
    64
 62
     7
  6
CONTINUOUS
  0
LAYER
  2
155
 70
    64
 62
     7
  6
CONTINUOUS
  0
LAYER
  2
156
 70
    64
 62
     7
  6
CONTINUOUS
  0
LAYER
  2
157
 70
    64
 62
     7
  6
CONTINUOUS
  0
LAYER
  2
158
 70
    64
 62
     7
  6
CONTINUOUS
  0
LAYER
  2
159
 70
    64
 62
     7
  6
CONTINUOUS
  0
LAYER
  2
160
 70
    64
 62
     7
  6
CONTINUOUS
  0
LAYER
  2
161
 70
    64
 62
     7
  6
CONTINUOUS
  0
LAYER
  2
162
 70
    64
 62
     7
  6
CONTINUOUS
  0
LAYER
  2
163
 70
    64
 62
     7
  6
CONTINUOUS
  0
LAYER
  2
164
 70
    64
 62
     7
  6
CONTINUOUS
  0
LAYER
  2
165
 70
    64
 62
     7
  6
CONTINUOUS
  0
LAYER
  2
166
 70
    64
 62
     7
  6
CONTINUOUS
  0
LAYER
  2
167
 70
    64
 62
     7
  6
CONTINUOUS
  0
LAYER
  2
168
 70
    64
 62
     7
  6
CONTINUOUS
  0
LAYER
  2
169
 70
    64
 62
     7
  6
CONTINUOUS
  0
LAYER
  2
170
 70
    64
 62
     7
  6
CONTINUOUS
  0
LAYER
  2
171
 70
    64
 62
     7
  6
CONTINUOUS
  0
LAYER
  2
172
 70
    64
 62
     7
  6
CONTINUOUS
  0
LAYER
  2
173
 70
    64
 62
     7
  6
CONTINUOUS
  0
LAYER
  2
174
 70
    64
 62
     7
  6
CONTINUOUS
  0
LAYER
  2
175
 70
    64
 62
     7
  6
CONTINUOUS
  0
LAYER
  2
176
 70
    64
 62
     7
  6
CONTINUOUS
  0
LAYER
  2
177
 70
    64
 62
     7
  6
CONTINUOUS
  0
LAYER
  2
178
 70
    64
 62
     7
  6
CONTINUOUS
  0
LAYER
  2
179
 70
    64
 62
     7
  6
CONTINUOUS
  0
LAYER
  2
180
 70
    64
 62
     7
  6
CONTINUOUS
  0
LAYER
  2
181
 70
    64
 62
     7
  6
CONTINUOUS
  0
LAYER
  2
182
 70
    64
 62
     7
  6
CONTINUOUS
  0
LAYER
  2
183
 70
    64
 62
     7
  6
CONTINUOUS
  0
LAYER
  2
184
 70
    64
 62
     7
  6
CONTINUOUS
  0
LAYER
  2
185
 70
    64
 62
     7
  6
CONTINUOUS
  0
LAYER
  2
186
 70
    64
 62
     7
  6
CONTINUOUS
  0
LAYER
  2
187
 70
    64
 62
     7
  6
CONTINUOUS
  0
LAYER
  2
188
 70
    64
 62
     7
  6
CONTINUOUS
  0
LAYER
  2
189
 70
    64
 62
     7
  6
CONTINUOUS
  0
LAYER
  2
190
 70
    64
 62
     7
  6
CONTINUOUS
  0
LAYER
  2
191
 70
    64
 62
     7
  6
CONTINUOUS
  0
LAYER
  2
192
 70
    64
 62
     7
  6
CONTINUOUS
  0
LAYER
  2
193
 70
    64
 62
     7
  6
CONTINUOUS
  0
LAYER
  2
194
 70
    64
 62
     7
  6
CONTINUOUS
  0
LAYER
  2
195
 70
    64
 62
     7
  6
CONTINUOUS
  0
LAYER
  2
196
 70
    64
 62
     7
  6
CONTINUOUS
  0
LAYER
  2
197
 70
    64
 62
     7
  6
CONTINUOUS
  0
LAYER
  2
198
 70
    64
 62
     7
  6
CONTINUOUS
  0
LAYER
  2
199
 70
    64
 62
     7
  6
CONTINUOUS
  0
LAYER
  2
200
 70
    64
 62
     7
  6
CONTINUOUS
  0
LAYER
  2
201
 70
    64
 62
     7
  6
CONTINUOUS
  0
LAYER
  2
202
 70
    64
 62
     7
  6
CONTINUOUS
  0
LAYER
  2
203
 70
    64
 62
     7
  6
CONTINUOUS
  0
LAYER
  2
204
 70
    64
 62
     7
  6
CONTINUOUS
  0
LAYER
  2
205
 70
    64
 62
     7
  6
CONTINUOUS
  0
LAYER
  2
206
 70
    64
 62
     7
  6
CONTINUOUS
  0
LAYER
  2
207
 70
    64
 62
     7
  6
CONTINUOUS
  0
LAYER
  2
208
 70
    64
 62
     7
  6
CONTINUOUS
  0
LAYER
  2
209
 70
    64
 62
     7
  6
CONTINUOUS
  0
LAYER
  2
210
 70
    64
 62
     7
  6
CONTINUOUS
  0
LAYER
  2
211
 70
    64
 62
     7
  6
CONTINUOUS
  0
LAYER
  2
212
 70
    64
 62
     7
  6
CONTINUOUS
  0
LAYER
  2
213
 70
    64
 62
     7
  6
CONTINUOUS
  0
LAYER
  2
214
 70
    64
 62
     7
  6
CONTINUOUS
  0
LAYER
  2
215
 70
    64
 62
     7
  6
CONTINUOUS
  0
LAYER
  2
216
 70
    64
 62
     7
  6
CONTINUOUS
  0
LAYER
  2
217
 70
    64
 62
     7
  6
CONTINUOUS
  0
LAYER
  2
218
 70
    64
 62
     7
  6
CONTINUOUS
  0
LAYER
  2
219
 70
    64
 62
     7
  6
CONTINUOUS
  0
LAYER
  2
220
 70
    64
 62
     7
  6
CONTINUOUS
  0
LAYER
  2
221
 70
    64
 62
     7
  6
CONTINUOUS
  0
LAYER
  2
222
 70
    64
 62
     7
  6
CONTINUOUS
  0
LAYER
  2
223
 70
    64
 62
     7
  6
CONTINUOUS
  0
LAYER
  2
224
 70
    64
 62
     7
  6
CONTINUOUS
  0
LAYER
  2
225
 70
    64
 62
     7
  6
CONTINUOUS
  0
LAYER
  2
226
 70
    64
 62
     7
  6
CONTINUOUS
  0
LAYER
  2
227
 70
    64
 62
     7
  6
CONTINUOUS
  0
LAYER
  2
228
 70
    64
 62
     7
  6
CONTINUOUS
  0
LAYER
  2
229
 70
    64
 62
     7
  6
CONTINUOUS
  0
LAYER
  2
230
 70
    64
 62
     7
  6
CONTINUOUS
  0
LAYER
  2
231
 70
    64
 62
     7
  6
CONTINUOUS
  0
LAYER
  2
232
 70
    64
 62
     7
  6
CONTINUOUS
  0
LAYER
  2
233
 70
    64
 62
     7
  6
CONTINUOUS
  0
LAYER
  2
234
 70
    64
 62
     7
  6
CONTINUOUS
  0
LAYER
  2
235
 70
    64
 62
     7
  6
CONTINUOUS
  0
LAYER
  2
236
 70
    64
 62
     7
  6
CONTINUOUS
  0
LAYER
  2
237
 70
    64
 62
     7
  6
CONTINUOUS
  0
LAYER
  2
238
 70
    64
 62
     7
  6
CONTINUOUS
  0
LAYER
  2
239
 70
    64
 62
     7
  6
CONTINUOUS
  0
LAYER
  2
240
 70
    64
 62
     7
  6
CONTINUOUS
  0
LAYER
  2
241
 70
    64
 62
     7
  6
CONTINUOUS
  0
LAYER
  2
242
 70
    64
 62
     7
  6
CONTINUOUS
  0
LAYER
  2
243
 70
    64
 62
     7
  6
CONTINUOUS
  0
LAYER
  2
244
 70
    64
 62
     7
  6
CONTINUOUS
  0
LAYER
  2
245
 70
    64
 62
     7
  6
CONTINUOUS
  0
LAYER
  2
246
 70
    64
 62
     7
  6
CONTINUOUS
  0
LAYER
  2
247
 70
    64
 62
     7
  6
CONTINUOUS
  0
LAYER
  2
248
 70
    64
 62
     7
  6
CONTINUOUS
  0
LAYER
  2
249
 70
    64
 62
     7
  6
CONTINUOUS
  0
LAYER
  2
250
 70
    64
 62
     7
  6
CONTINUOUS
  0
LAYER
  2
251
 70
    64
 62
     7
  6
CONTINUOUS
  0
LAYER
  2
252
 70
    64
 62
     7
  6
CONTINUOUS
  0
LAYER
  2
253
 70
    64
 62
     7
  6
CONTINUOUS
  0
LAYER
  2
254
 70
    64
 62
     7
  6
CONTINUOUS
  0
LAYER
  2
255
 70
    64
 62
     7
  6
CONTINUOUS
  0
ENDTAB
  0
TABLE
  2
STYLE
 70
     2
  0
STYLE
  2
STANDARD
 70
    64
 40
0.0
 41
1.0
 50
0.0
 71
     0
 42
3.000000
  3
TXT
  4
BIGFONT
  0
ENDTAB
  0
ENDSEC
  0
SECTION
  2
ENTITIES
  0
LINE
  8
0
  6
CONTINUOUS
 62
     3
 10
 5
 20
 0
 11
 5
 21
-0.5000000000000018
  0
LINE
  8
0
  6
CONTINUOUS
 62
     3
 10
 3.6999999999999957
 20
-5
 11
-4.5000000000000071
 21
-5
  0
ARC
  8
0
  6
CONTINUOUS
 62
     3
 10
-4.5000000000000071
 20
-4.5000000000000009
 40
 0.5
 50
 180.00000307046903
 51
-90.000001535234532
  0
ARC
  8
0
  6
CONTINUOUS
 62
     3
 10
 3.6999999999999957
 20
-4.5000000000000009
 40
 0.5
 50
-90.000001535234532
 51
 0
  0
LINE
  8
0
  6
CONTINUOUS
 62
     3
 10
-5
 20
-4.5000000000000009
 11
-5
 21
 0
  0
ARC
  8
0
  6
CONTINUOUS
 62
     3
 10
 0
 20
 0
 40
 5
 50
 0
 51
 180.00000307046903
  0
LINE
  8
0
  6
CONTINUOUS
 62
     3
 10
 4.2000000000000028
 20
-4.5000000000000009
 11
 4.2000000000000028
 21
-3.3000000000000003
  0
ARC
  8
0
  6
CONTINUOUS
 62
     3
 10
 3.6999999999999957
 20
-3.3000000000000003
 40
 0.5
 50
 0
 51
 90.000001535234517
  0
LINE
  8
0
  6
CONTINUOUS
 62
     3
 10
 3.6999999999999957
 20
-2.8000000000000007
 11
-2.5000000000000071
 21
-2.8000000000000007
  0
ARC
  8
0
  6
CONTINUOUS
 62
     3
 10
-2.5000000000000071
 20
-2.3000000000000007
 40
 0.5
 50
 180.00000307046903
 51
-90.000001535234532
  0
LINE
  8
0
  6
CONTINUOUS
 62
     3
 10
-3
 20
-1.5000000000000009
 11
-3
 21
-2.3000000000000007
  0
ARC
  8
0
  6
CONTINUOUS
 62
     3
 10
-2.5000000000000071
 20
-1.5000000000000009
 40
 0.5
 50
 90.000001535234517
 51
 180.00000307046903
  0
LINE
  8
0
  6
CONTINUOUS
 62
     3
 10
-2.5000000000000071
 20
-1.0000000000000009
 11
 1.7500000000000071
 21
-1.0000000000000009
  0
LINE
  8
0
  6
CONTINUOUS
 62
     3
 10
 2.25
 20
-1.0000000000000009
 11
 3.25
 21
-1.0000000000000009
  0
LINE
  8
0
  6
CONTINUOUS
 62
     3
 10
 3.7499999999999929
 20
-1.0000000000000009
 11
 4.5
 21
-1.0000000000000009
  0
ARC
  8
0
  6
CONTINUOUS
 62
     3
 10
 4.5
 20
-0.5000000000000018
 40
 0.5
 50
-90.000001535234532
 51
 0
  0
LINE
  8
0
  6
CONTINUOUS
 62
     3
 10
-2.0000000000000142
 20
 0.9999999999999991
 11
 2
 21
 0.9999999999999991
  0
ARC
  8
0
  6
CONTINUOUS
 62
     3
 10
 0
 20
 0
 40
 3
 50
 36.869898274776638
 51
 143.13010479569232
  0
LINE
  8
0
  6
CONTINUOUS
 62
     3
 10
 3.5
 20
-1.5000000000000009
 11
 3.25
 21
-1.0000000000000009
  0
LINE
  8
0
  6
CONTINUOUS
 62
     3
 10
 3.7499999999999929
 20
-1.0000000000000009
 11
 3.5
 21
-1.5000000000000009
  0
LINE
  8
0
  6
CONTINUOUS
 62
     3
 10
 2
 20
-1.5000000000000009
 11
 1.7500000000000071
 21
-1.0000000000000009
  0
LINE
  8
0
  6
CONTINUOUS
 62
     3
 10
 2.25
 20
-1.0000000000000009
 11
 2
 21
-1.5000000000000009
  0
ARC
  8
0
  6
CONTINUOUS
 62
     3
 10
-2.0000000000000142
 20
 1.4999999999999991
 40
 0.5
 50
 143.13010479569218
 51
-90.000001535234532
  0
ARC
  8
0
  6
CONTINUOUS
 62
     3
 10
 2
 20
 1.4999999999999991
 40
 0.5
 50
-90.000001535234532
 51
 36.869898274776354
  0
LINE
  8
0
  6
DASHDOT
 62
     7
 10
 2
 20
-2.0000000000000004
 11
 2
 21
-0.5000000000000018
  0
LINE
  8
0
  6
DASHDOT
 62
     7
 10
 3.5
 20
-2.0000000000000004
 11
 3.5
 21
-0.5000000000000018
  0
CIRCLE
  8
0
  6
CONTINUOUS
 62
     2
 10
-3.1859294886439571
 20
-3.9763675032838099
 40
 0.25
  0
CIRCLE
  8
0
  6
CONTINUOUS
 62
     2
 10
-0.6218945195883663
 20
 4.0362417750148891
 40
 0.25
  0
CIRCLE
  8
0
  6
CONTINUOUS
 62
     2
 10
-2.7051729319460307
 20
 2.7542242904870973
 40
 0.25
  0
CIRCLE
  8
0
  6
CONTINUOUS
 62
     2
 10
 2.2626448205991565
 20
 3.5554852183169663
 40
 0.25
  0
CIRCLE
  8
0
  6
CONTINUOUS
 62
     2
 10
 3.3844101195609753
 20
 2.1132155482232022
 40
 0.25
  0
CIRCLE
  8
0
  6
CONTINUOUS
 62
     2
 10
-3.8269382309078495
 20
 0.8311980636954095
 40
 0.25
  0
CIRCLE
  8
0
  6
CONTINUOUS
 62
     2
 10
-1.2629032618522658
 20
 0.1901893214315145
 40
 0.25
  0
CIRCLE
  8
0
  6
CONTINUOUS
 62
     2
 10
-3.9871904164738154
 20
-1.7328369053601738
 40
 0.25
  0
CIRCLE
  8
0
  6
CONTINUOUS
 62
     2
 10
-0.6218945195883663
 20
-3.4956109465858871
 40
 0.25
  0
CIRCLE
  8
0
  6
CONTINUOUS
 62
     2
 10
 2.4228970061651296
 20
-4.1366196888497839
 40
 0.25
  0
LINE
  8
0
  6
CONTINUOUS
 62
     7
 10
-5
 20
 0.9999999999999991
 11
-5
 21
 8.25
  0
LINE
  8
0
  6
CONTINUOUS
 62
     7
 10
 4.9999999999999929
 20
 0.5
 11
 4.9999999999999929
 21
 8.25
  0
LINE
  8
0
  6
CONTINUOUS
 62
     7
 10
-5
 20
 7.9999999999999991
 11
 4.9999999999999929
 21
 7.9999999999999991
  0
LINE
  8
0
  6
CONTINUOUS
 62
     7
 10
-5
 20
 7.9999999999999991
 11
-4.2755556302831987
 21
 7.8058857161731083
  0
LINE
  8
0
  6
CONTINUOUS
 62
     7
 10
-5
 20
 7.9999999999999991
 11
-4.2755556302831987
 21
 8.1941142838268899
  0
LINE
  8
0
  6
CONTINUOUS
 62
     7
 10
 4.9999999999999929
 20
 7.9999999999999991
 11
 4.2755556302831916
 21
 8.1941142838268899
  0
LINE
  8
0
  6
CONTINUOUS
 62
     7
 10
 4.9999999999999929
 20
 7.9999999999999991
 11
 4.2755556302831916
 21
 7.8058857161731083
  0
TEXT
  8
0
  6
CONTINUOUS
 62
     7
 10
-0.5025000000000059
 20
 8.2499999999999982
 11
 0.5024999999999942
 21
 8.2499999999999982
 40
 0.55
 41
 0.8
  1
10
 50
 0
 72
  5
  0
LINE
  8
0
  6
CONTINUOUS
 62
     7
 10
-3.0000000000000071
 20
-1.0000000000000009
 11
-3.0000000000000071
 21
 6.7499999999999991
  0
LINE
  8
0
  6
CONTINUOUS
 62
     7
 10
-3.0000000000000071
 20
 6.4999999999999991
 11
-5
 21
 6.4999999999999991
  0
LINE
  8
0
  6
CONTINUOUS
 62
     7
 10
-3.0000000000000071
 20
 6.4999999999999991
 11
-3.7244443697168084
 21
 6.6941142838268899
  0
LINE
  8
0
  6
CONTINUOUS
 62
     7
 10
-3.0000000000000071
 20
 6.4999999999999991
 11
-3.7244443697168084
 21
 6.3058857161731083
  0
LINE
  8
0
  6
CONTINUOUS
 62
     7
 10
-5
 20
 6.4999999999999991
 11
-4.2755556302831987
 21
 6.3058857161731083
  0
LINE
  8
0
  6
CONTINUOUS
 62
     7
 10
-5
 20
 6.4999999999999991
 11
-4.2755556302831987
 21
 6.6941142838268899
  0
TEXT
  8
0
  6
CONTINUOUS
 62
     7
 10
-4.2200000000000069
 20
 6.75
 11
-3.7800000000000074
 21
 6.7499999999999991
 40
 0.55
 41
 0.8
  1
2
 50
 0
 72
  5
  0
LINE
  8
0
  6
CONTINUOUS
 62
     7
 10
-5.0000000000000071
 20
-5
 11
-8.25
 21
-5
  0
LINE
  8
0
  6
CONTINUOUS
 62
     7
 10
-1
 20
 5.0000000000000009
 11
-8.25
 21
 5.0000000000000009
  0
LINE
  8
0
  6
CONTINUOUS
 62
     7
 10
-8
 20
-5
 11
-8
 21
 5.0000000000000009
  0
LINE
  8
0
  6
CONTINUOUS
 62
     7
 10
-8
 20
-5
 11
-7.8058857161731092
 21
-4.2755556302831987
  0
LINE
  8
0
  6
CONTINUOUS
 62
     7
 10
-8
 20
-5
 11
-8.1941142838268899
 21
-4.2755556302831987
  0
LINE
  8
0
  6
CONTINUOUS
 62
     7
 10
-8
 20
 5.0000000000000009
 11
-8.1941142838268899
 21
 4.2755556302831996
  0
LINE
  8
0
  6
CONTINUOUS
 62
     7
 10
-8
 20
 5.0000000000000009
 11
-7.8058857161731092
 21
 4.2755556302831996
  0
TEXT
  8
0
  6
CONTINUOUS
 62
     7
 10
-8.2499999999999982
 20
-1.0675000000000008
 11
-8.2499999999999982
 21
 1.0674999999999999
 40
 0.55
 41
 0.8
  1
(10)
 50
 90.000001535234517
 72
  5
  0
LINE
  8
0
  6
CONTINUOUS
 62
     7
 10
-5.0000000000000071
 20
-5
 11
-5.0000000000000071
 21
-8.2499999999999982
  0
LINE
  8
0
  6
CONTINUOUS
 62
     7
 10
 4.1999999999999957
 20
-5
 11
 4.1999999999999957
 21
-8.2499999999999982
  0
LINE
  8
0
  6
CONTINUOUS
 62
     7
 10
-5.0000000000000071
 20
-7.9999999999999982
 11
 4.1999999999999957
 21
-7.9999999999999982
  0
LINE
  8
0
  6
CONTINUOUS
 62
     7
 10
-5.0000000000000071
 20
-7.9999999999999982
 11
-4.2755556302832058
 21
-8.1941142838268881
  0
LINE
  8
0
  6
CONTINUOUS
 62
     7
 10
-5.0000000000000071
 20
-7.9999999999999982
 11
-4.2755556302832058
 21
-7.8058857161731074
  0
LINE
  8
0
  6
CONTINUOUS
 62
     7
 10
 4.1999999999999957
 20
-7.9999999999999982
 11
 3.4755556302831945
 21
-7.8058857161731074
  0
LINE
  8
0
  6
CONTINUOUS
 62
     7
 10
 4.1999999999999957
 20
-7.9999999999999982
 11
 3.4755556302831945
 21
-8.1941142838268881
  0
TEXT
  8
0
  6
CONTINUOUS
 62
     7
 10
-1.1850000000000034
 20
-7.7499999999999982
 11
 0.3849999999999969
 21
-7.7499999999999991
 40
 0.55
 41
 0.8
  1
9.2
 50
 0
 72
  5
  0
LINE
  8
0
  6
CONTINUOUS
 62
     7
 10
 1
 20
 5.0000000000000009
 11
 8.2499999999999929
 21
 5.0000000000000009
  0
LINE
  8
0
  6
CONTINUOUS
 62
     7
 10
 5
 20
-1.0000000000000009
 11
 8.2499999999999929
 21
-1.0000000000000009
  0
LINE
  8
0
  6
CONTINUOUS
 62
     7
 10
 7.9999999999999893
 20
 5.0000000000000009
 11
 7.9999999999999893
 21
-1.0000000000000009
  0
LINE
  8
0
  6
CONTINUOUS
 62
     7
 10
 7.9999999999999893
 20
 5.0000000000000009
 11
 7.8058857161730986
 21
 4.2755556302831996
  0
LINE
  8
0
  6
CONTINUOUS
 62
     7
 10
 7.9999999999999893
 20
 5.0000000000000009
 11
 8.1941142838268792
 21
 4.2755556302831996
  0
LINE
  8
0
  6
CONTINUOUS
 62
     7
 10
 7.9999999999999893
 20
-1.0000000000000009
 11
 8.1941142838268792
 21
-0.2755556302831995
  0
LINE
  8
0
  6
CONTINUOUS
 62
     7
 10
 7.9999999999999893
 20
-1.0000000000000009
 11
 7.8058857161730986
 21
-0.2755556302831995
  0
TEXT
  8
0
  6
CONTINUOUS
 62
     7
 10
 7.7499999999999867
 20
 1.7800000000000002
 11
 7.7499999999999876
 21
 2.2200000000000006
 40
 0.55
 41
 0.8
  1
6
 50
 90.000001535234517
 72
  5
  0
LINE
  8
0
  6
CONTINUOUS
 62
     7
 10
 4.1999999999999957
 20
-2.8000000000000007
 11
 8.2499999999999929
 21
-2.8000000000000007
  0
LINE
  8
0
  6
CONTINUOUS
 62
     7
 10
 4.1999999999999957
 20
-5
 11
 8.2499999999999929
 21
-5
  0
LINE
  8
0
  6
CONTINUOUS
 62
     7
 10
 7.9999999999999893
 20
-2.8000000000000007
 11
 7.9999999999999893
 21
-5
  0
LINE
  8
0
  6
CONTINUOUS
 62
     7
 10
 7.9999999999999893
 20
-2.8000000000000007
 11
 7.8058857161730986
 21
-3.524444369716802
  0
LINE
  8
0
  6
CONTINUOUS
 62
     7
 10
 7.9999999999999893
 20
-2.8000000000000007
 11
 8.1941142838268792
 21
-3.524444369716802
  0
LINE
  8
0
  6
CONTINUOUS
 62
     7
 10
 7.9999999999999893
 20
-5
 11
 8.1941142838268792
 21
-4.2755556302831987
  0
LINE
  8
0
  6
CONTINUOUS
 62
     7
 10
 7.9999999999999893
 20
-5
 11
 7.8058857161730986
 21
-4.2755556302831987
  0
TEXT
  8
0
  6
CONTINUOUS
 62
     7
 10
 7.7499999999999867
 20
-4.6849999999999996
 11
 7.7499999999999876
 21
-3.1150000000000002
 40
 0.55
 41
 0.8
  1
2.2
 50
 90.000001535234517
 72
  5
  0
LINE
  8
0
  6
CONTINUOUS
 62
     7
 10
 7.9999999999999893
 20
-1.0000000000000009
 11
 7.9999999999999893
 21
-2.8000000000000007
  0
LINE
  8
0
  6
CONTINUOUS
 62
     7
 10
 7.9999999999999893
 20
-1.0000000000000009
 11
 7.8058857161730986
 21
-1.7244443697168022
  0
LINE
  8
0
  6
CONTINUOUS
 62
     7
 10
 7.9999999999999893
 20
-1.0000000000000009
 11
 8.1941142838268792
 21
-1.7244443697168022
  0
LINE
  8
0
  6
CONTINUOUS
 62
     7
 10
 7.9999999999999893
 20
-2.8000000000000007
 11
 8.1941142838268792
 21
-2.0755556302831994
  0
LINE
  8
0
  6
CONTINUOUS
 62
     7
 10
 7.9999999999999893
 20
-2.8000000000000007
 11
 7.8058857161730986
 21
-2.0755556302831994
  0
TEXT
  8
0
  6
CONTINUOUS
 62
     7
 10
 9.0499999999999918
 20
-2.6850000000000014
 11
 9.0499999999999918
 21
-1.1150000000000011
 40
 0.55
 41
 0.8
  1
1.8
 50
 90.000001535234517
 72
  5
  0
LINE
  8
0
  6
CONTINUOUS
 62
     7
 10
 3.5
 20
-2.0000000000000004
 11
 3.5
 21
-2.8000000000000007
  0
LINE
  8
0
  6
CONTINUOUS
 62
     7
 10
 5
 20
-1.0000000000000009
 11
 5
 21
-2.8000000000000007
  0
LINE
  8
0
  6
CONTINUOUS
 62
     7
 10
 3.5
 20
-2.5500000000000007
 11
 5
 21
-2.5500000000000007
  0
LINE
  8
0
  6
CONTINUOUS
 62
     7
 10
 3.5
 20
-2.5500000000000007
 11
 4.2244443697168013
 21
-2.7441142838268915
  0
LINE
  8
0
  6
CONTINUOUS
 62
     7
 10
 3.5
 20
-2.5500000000000007
 11
 4.2244443697168013
 21
-2.3558857161731099
  0
LINE
  8
0
  6
CONTINUOUS
 62
     7
 10
 5
 20
-2.5500000000000007
 11
 4.2755556302831987
 21
-2.3558857161731099
  0
LINE
  8
0
  6
CONTINUOUS
 62
     7
 10
 5
 20
-2.5500000000000007
 11
 4.2755556302831987
 21
-2.7441142838268915
  0
TEXT
  8
0
  6
CONTINUOUS
 62
     7
 10
 3.4650000000000021
 20
-2.3000000000000007
 11
 5.0350000000000028
 21
-2.3000000000000007
 40
 0.55
 41
 0.8
  1
1.5
 50
 0
 72
  5
  0
LINE
  8
0
  6
CONTINUOUS
 62
     7
 10
 2
 20
-2.0000000000000004
 11
 2
 21
-2.8000000000000007
  0
LINE
  8
0
  6
CONTINUOUS
 62
     7
 10
 3.5
 20
-2.5500000000000007
 11
 2
 21
-2.5500000000000007
  0
LINE
  8
0
  6
CONTINUOUS
 62
     7
 10
 3.5
 20
-2.5500000000000007
 11
 2.7755556302831987
 21
-2.3558857161731099
  0
LINE
  8
0
  6
CONTINUOUS
 62
     7
 10
 3.5
 20
-2.5500000000000007
 11
 2.7755556302831987
 21
-2.7441142838268915
  0
LINE
  8
0
  6
CONTINUOUS
 62
     7
 10
 2
 20
-2.5500000000000007
 11
 2.7244443697168013
 21
-2.7441142838268915
  0
LINE
  8
0
  6
CONTINUOUS
 62
     7
 10
 2
 20
-2.5500000000000007
 11
 2.7244443697168013
 21
-2.3558857161731099
  0
TEXT
  8
0
  6
CONTINUOUS
 62
     7
 10
 1.9650000000000023
 20
-2.3000000000000007
 11
 3.5350000000000024
 21
-2.3000000000000007
 40
 0.55
 41
 0.8
  1
1.5
 50
 0
 72
  5
  0
LINE
  8
0
  6
CONTINUOUS
 62
     7
 10
 1.7500000000000071
 20
-0.5000000000000018
 11
 1.7500000000000071
 21
 0.2499999999999982
  0
LINE
  8
0
  6
CONTINUOUS
 62
     7
 10
 2.25
 20
-0.5000000000000018
 11
 2.25
 21
 0.2499999999999982
  0
LINE
  8
0
  6
CONTINUOUS
 62
     7
 10
 1.7500000000000071
 20
 0
 11
 2.25
 21
 0
  0
TEXT
  8
0
  6
CONTINUOUS
 62
     7
 10
-0.2599999999999921
 20
 0.2499999999999986
 11
 1.3100000000000083
 21
 0.2499999999999986
 40
 0.55
 41
 0.8
  1
0.5
 50
 0
 72
  5
  0
LINE
  8
0
  6
CONTINUOUS
 62
     7
 10
-0.6999999999999957
 20
 0
 11
 1.7500000000000071
 21
 0
  0
LINE
  8
0
  6
CONTINUOUS
 62
     7
 10
 1.7500000000000071
 20
 0
 11
 1.0255556302832058
 21
 0.1941142838268888
  0
LINE
  8
0
  6
CONTINUOUS
 62
     7
 10
 1.7500000000000071
 20
 0
 11
 1.0255556302832058
 21
-0.1941142838268923
  0
LINE
  8
0
  6
CONTINUOUS
 62
     7
 10
 3.5
 20
 0
 11
 2.25
 21
 0
  0
LINE
  8
0
  6
CONTINUOUS
 62
     7
 10
 2.25
 20
 0
 11
 2.9744443697168013
 21
-0.1941142838268923
  0
LINE
  8
0
  6
CONTINUOUS
 62
     7
 10
 2.25
 20
 0
 11
 2.9744443697168013
 21
 0.1941142838268888
  0
LINE
  8
256
  6
CONTINUOUS
 62
     7
 10
-48.325000000000003
 20
 31.249999114063371
 11
-23.325000000000003
 21
 31.249999114063371
  0
LINE
  8
256
  6
CONTINUOUS
 62
     7
 10
-23.325000000000003
 20
 31.249999114063375
 11
-23.325000000000003
 21
 34.249999302842021
  0
TEXT
  8
256
  6
CONTINUOUS
 62
     7
 10
-47.075000000000003
 20
 31.999999012044029
 11
-35.075000000000003
 21
 31.999999012044029
 40
 1.5
 41
 1
  1
Ｉ－４４０３１Ｄ
 50
 0
 72
  5
  0
LINE
  8
256
  6
CONTINUOUS
 62
     7
 10
 26.249996185302734
 20
-30.375
 11
 50
 21
-30.375
  0
LINE
  8
256
  6
CONTINUOUS
 62
     7
 10
 42.749996185302734
 20
-27.375
 11
 42.749996185302734
 21
-30.375
  0
TEXT
  8
256
  6
CONTINUOUS
 62
     7
 10
 30.499996185302734
 20
-29.9375
 11
 38.499996185302734
 21
-29.9375
 40
 1.25
 41
 0.8
  1
レストンＮｏ．１
 50
 0
 72
  5
  0
TEXT
  8
256
  6
CONTINUOUS
 62
     7
 10
 26.574996948242187
 20
-28.112490844726551
 11
 27.824996948242188
 21
-28.112490844726551
 40
 0.625
 41
 0.8
  1
品名
 50
 0
 72
  5
  0
TEXT
  8
256
  6
CONTINUOUS
 62
     7
 10
 26.574996948242187
 20
-31.112507629394528
 11
 27.824996948242188
 21
-31.112507629394528
 40
 0.625
 41
 0.8
  1
品番
 50
 0
 72
  5
  0
LINE
  8
256
  6
CONTINUOUS
 62
     7
 10
 26.249996185302734
 20
-34.875
 11
 26.249996185302734
 21
-27.375
  0
LINE
  8
256
  6
CONTINUOUS
 62
     7
 10
 26.249996185302734
 20
-27.375
 11
 50
 21
-27.375
  0
LINE
  8
256
  6
CONTINUOUS
 62
     7
 10
-48.325000000000003
 20
 34.249999302842021
 11
-48.325000000000003
 21
-34.874999999999986
  0
LINE
  8
256
  6
CONTINUOUS
 62
     7
 10
-48.325000000000003
 20
 34.249999302842021
 11
 50
 21
 34.249999302842021
  0
LINE
  8
256
  6
CONTINUOUS
 62
     7
 10
 50
 20
-34.875
 11
-48.325000000000003
 21
-34.874999999999986
  0
LINE
  8
256
  6
CONTINUOUS
 62
     7
 10
 50
 20
 34.249999302842021
 11
 50
 21
-34.875
  0
ENDSEC
  0
EOF
