  0
SECTION
  2
HEADER
  9
$INSBASE
 10
0.0
20
0.0
  9
$REGENMODE
 70
     1
  9
$DRAGMODE
 70
     1
  9
$DIMTAD
 70
     1
  9
$EXTMIN
 10
-210.000000
 20
-148.500000
 30
 0.0
  9
$EXTMAX
 10
210.000000
 20
148.500000
 30
 0.0
  9
$LUPREC
 70
    3
  9
$AUPREC
 70
    3
  9
$LTSCALE
 40
26.250000
  0
ENDSEC
  0
SECTION
  2
TABLES
  0
TABLE
  2
LTYPE
 70
     6
  0
LTYPE
  2
CONTINUOUS
 70
    64
  3
SOLID
 72
    65
 73
     0
 40
0.0
  0
LTYPE
  2
DASHED2
 70
    64
  3
_ _ _ _ _ _ _ _ _ _ _ _ _ _ _ _ _ _ _ _ _ _ 
 72
    65
 73
     2
 40
0.5
 49
0.25
 49
-0.25
  0
LTYPE
  2
DASHED
 70
    64
  3
__ __ __ __ __ __ __ __ __ __ __ __ __ __ __
 72
    65
 73
     2
 40
0.75
 49
0.5
 49
-0.25
  0
LTYPE
  2
DASHEDX2
 70
    64
  3
____  ____  ____  ____  ____  ____  ____  __
 72
    65
 73
     2
 40
1.5
 49
1.0
 49
-0.5
  0
LTYPE
  2
DOT
 70
    64
  3
............................................
 72
    65
 73
     2
 40
0.25
 49
0
 49
-0.25
  0
LTYPE
  2
DASHDOT
 70
    64
  3
__ . __ . __ . __ . __ . __ . __ . __ . __ .
 72
    65
 73
     4
 40
1.0
 49
0.5
 49
-0.25
 49
0.0
 49
-0.25
  0
LTYPE
  2
CENTER
 70
    64
  3
____ _ ____ _ ____ _ ____ _ ____ _ ____ _ __
 72
    65
 73
     4
 40
2.0
 49
1.25
 49
-0.25
 49
0.25
 49
-0.25
  0
LTYPE
  2
DIVIDE
 70
    64
  3
__ . . __ . . __ . . __ . . __ . . __ . . __
 72
    65
 73
     6
 40
1.25
 49
0.5
 49
-0.25
 49
0.0
 49
-0.25
 49
0.0
 49
-0.25
  0
LTYPE
  2
PHANTOM2
 70
    64
  3
___ _ _ ___ _ _ ___ _ _ ___ _ _ ___ _ _ ___ 
 72
    65
 73
     6
 40
1.25
 49
0.625
 49
-0.125
 49
0.125
 49
-0.125
 49
0.125
 49
-0.125
  0
LTYPE
  2
DOTX2
 70
    64
  3
. . . . . . . . . . . . . . . . . . . . . . 
 72
    65
 73
     2
 40
0.5
 49
0
 49
-0.5
  0
ENDTAB
  0
TABLE
  2
LAYER
 70
   255
  0
LAYER
  2
0
 70
    64
 62
     7
  6
CONTINUOUS
  0
LAYER
  2
1
 70
    64
 62
     7
  6
CONTINUOUS
  0
LAYER
  2
2
 70
    64
 62
     7
  6
CONTINUOUS
  0
LAYER
  2
3
 70
    64
 62
     7
  6
CONTINUOUS
  0
LAYER
  2
4
 70
    64
 62
     7
  6
CONTINUOUS
  0
LAYER
  2
5
 70
    64
 62
     7
  6
CONTINUOUS
  0
LAYER
  2
6
 70
    64
 62
     7
  6
CONTINUOUS
  0
LAYER
  2
7
 70
    64
 62
     7
  6
CONTINUOUS
  0
LAYER
  2
8
 70
    64
 62
     7
  6
CONTINUOUS
  0
LAYER
  2
9
 70
    64
 62
     7
  6
CONTINUOUS
  0
LAYER
  2
10
 70
    64
 62
     7
  6
CONTINUOUS
  0
LAYER
  2
11
 70
    64
 62
     7
  6
CONTINUOUS
  0
LAYER
  2
12
 70
    64
 62
     7
  6
CONTINUOUS
  0
LAYER
  2
13
 70
    64
 62
     7
  6
CONTINUOUS
  0
LAYER
  2
14
 70
    64
 62
     7
  6
CONTINUOUS
  0
LAYER
  2
15
 70
    64
 62
     7
  6
CONTINUOUS
  0
LAYER
  2
16
 70
    64
 62
     7
  6
CONTINUOUS
  0
LAYER
  2
17
 70
    64
 62
     7
  6
CONTINUOUS
  0
LAYER
  2
18
 70
    64
 62
     7
  6
CONTINUOUS
  0
LAYER
  2
19
 70
    64
 62
     7
  6
CONTINUOUS
  0
LAYER
  2
20
 70
    64
 62
     7
  6
CONTINUOUS
  0
LAYER
  2
21
 70
    64
 62
     7
  6
CONTINUOUS
  0
LAYER
  2
22
 70
    64
 62
     7
  6
CONTINUOUS
  0
LAYER
  2
23
 70
    64
 62
     7
  6
CONTINUOUS
  0
LAYER
  2
24
 70
    64
 62
     7
  6
CONTINUOUS
  0
LAYER
  2
25
 70
    64
 62
     7
  6
CONTINUOUS
  0
LAYER
  2
26
 70
    64
 62
     7
  6
CONTINUOUS
  0
LAYER
  2
27
 70
    64
 62
     7
  6
CONTINUOUS
  0
LAYER
  2
28
 70
    64
 62
     7
  6
CONTINUOUS
  0
LAYER
  2
29
 70
    64
 62
     7
  6
CONTINUOUS
  0
LAYER
  2
30
 70
    64
 62
     7
  6
CONTINUOUS
  0
LAYER
  2
31
 70
    64
 62
     7
  6
CONTINUOUS
  0
LAYER
  2
32
 70
    64
 62
     7
  6
CONTINUOUS
  0
LAYER
  2
33
 70
    64
 62
     7
  6
CONTINUOUS
  0
LAYER
  2
34
 70
    64
 62
     7
  6
CONTINUOUS
  0
LAYER
  2
35
 70
    64
 62
     7
  6
CONTINUOUS
  0
LAYER
  2
36
 70
    64
 62
     7
  6
CONTINUOUS
  0
LAYER
  2
37
 70
    64
 62
     7
  6
CONTINUOUS
  0
LAYER
  2
38
 70
    64
 62
     7
  6
CONTINUOUS
  0
LAYER
  2
39
 70
    64
 62
     7
  6
CONTINUOUS
  0
LAYER
  2
40
 70
    64
 62
     7
  6
CONTINUOUS
  0
LAYER
  2
41
 70
    64
 62
     7
  6
CONTINUOUS
  0
LAYER
  2
42
 70
    64
 62
     7
  6
CONTINUOUS
  0
LAYER
  2
43
 70
    64
 62
     7
  6
CONTINUOUS
  0
LAYER
  2
44
 70
    64
 62
     7
  6
CONTINUOUS
  0
LAYER
  2
45
 70
    64
 62
     7
  6
CONTINUOUS
  0
LAYER
  2
46
 70
    64
 62
     7
  6
CONTINUOUS
  0
LAYER
  2
47
 70
    64
 62
     7
  6
CONTINUOUS
  0
LAYER
  2
48
 70
    64
 62
     7
  6
CONTINUOUS
  0
LAYER
  2
49
 70
    64
 62
     7
  6
CONTINUOUS
  0
LAYER
  2
50
 70
    64
 62
     7
  6
CONTINUOUS
  0
LAYER
  2
51
 70
    64
 62
     7
  6
CONTINUOUS
  0
LAYER
  2
52
 70
    64
 62
     7
  6
CONTINUOUS
  0
LAYER
  2
53
 70
    64
 62
     7
  6
CONTINUOUS
  0
LAYER
  2
54
 70
    64
 62
     7
  6
CONTINUOUS
  0
LAYER
  2
55
 70
    64
 62
     7
  6
CONTINUOUS
  0
LAYER
  2
56
 70
    64
 62
     7
  6
CONTINUOUS
  0
LAYER
  2
57
 70
    64
 62
     7
  6
CONTINUOUS
  0
LAYER
  2
58
 70
    64
 62
     7
  6
CONTINUOUS
  0
LAYER
  2
59
 70
    64
 62
     7
  6
CONTINUOUS
  0
LAYER
  2
60
 70
    64
 62
     7
  6
CONTINUOUS
  0
LAYER
  2
61
 70
    64
 62
     7
  6
CONTINUOUS
  0
LAYER
  2
62
 70
    64
 62
     7
  6
CONTINUOUS
  0
LAYER
  2
63
 70
    64
 62
     7
  6
CONTINUOUS
  0
LAYER
  2
64
 70
    64
 62
     7
  6
CONTINUOUS
  0
LAYER
  2
65
 70
    64
 62
     7
  6
CONTINUOUS
  0
LAYER
  2
66
 70
    64
 62
     7
  6
CONTINUOUS
  0
LAYER
  2
67
 70
    64
 62
     7
  6
CONTINUOUS
  0
LAYER
  2
68
 70
    64
 62
     7
  6
CONTINUOUS
  0
LAYER
  2
69
 70
    64
 62
     7
  6
CONTINUOUS
  0
LAYER
  2
70
 70
    64
 62
     7
  6
CONTINUOUS
  0
LAYER
  2
71
 70
    64
 62
     7
  6
CONTINUOUS
  0
LAYER
  2
72
 70
    64
 62
     7
  6
CONTINUOUS
  0
LAYER
  2
73
 70
    64
 62
     7
  6
CONTINUOUS
  0
LAYER
  2
74
 70
    64
 62
     7
  6
CONTINUOUS
  0
LAYER
  2
75
 70
    64
 62
     7
  6
CONTINUOUS
  0
LAYER
  2
76
 70
    64
 62
     7
  6
CONTINUOUS
  0
LAYER
  2
77
 70
    64
 62
     7
  6
CONTINUOUS
  0
LAYER
  2
78
 70
    64
 62
     7
  6
CONTINUOUS
  0
LAYER
  2
79
 70
    64
 62
     7
  6
CONTINUOUS
  0
LAYER
  2
80
 70
    64
 62
     7
  6
CONTINUOUS
  0
LAYER
  2
81
 70
    64
 62
     7
  6
CONTINUOUS
  0
LAYER
  2
82
 70
    64
 62
     7
  6
CONTINUOUS
  0
LAYER
  2
83
 70
    64
 62
     7
  6
CONTINUOUS
  0
LAYER
  2
84
 70
    64
 62
     7
  6
CONTINUOUS
  0
LAYER
  2
85
 70
    64
 62
     7
  6
CONTINUOUS
  0
LAYER
  2
86
 70
    64
 62
     7
  6
CONTINUOUS
  0
LAYER
  2
87
 70
    64
 62
     7
  6
CONTINUOUS
  0
LAYER
  2
88
 70
    64
 62
     7
  6
CONTINUOUS
  0
LAYER
  2
89
 70
    64
 62
     7
  6
CONTINUOUS
  0
LAYER
  2
90
 70
    64
 62
     7
  6
CONTINUOUS
  0
LAYER
  2
91
 70
    64
 62
     7
  6
CONTINUOUS
  0
LAYER
  2
92
 70
    64
 62
     7
  6
CONTINUOUS
  0
LAYER
  2
93
 70
    64
 62
     7
  6
CONTINUOUS
  0
LAYER
  2
94
 70
    64
 62
     7
  6
CONTINUOUS
  0
LAYER
  2
95
 70
    64
 62
     7
  6
CONTINUOUS
  0
LAYER
  2
96
 70
    64
 62
     7
  6
CONTINUOUS
  0
LAYER
  2
97
 70
    64
 62
     7
  6
CONTINUOUS
  0
LAYER
  2
98
 70
    64
 62
     7
  6
CONTINUOUS
  0
LAYER
  2
99
 70
    64
 62
     7
  6
CONTINUOUS
  0
LAYER
  2
100
 70
    64
 62
     7
  6
CONTINUOUS
  0
LAYER
  2
101
 70
    64
 62
     7
  6
CONTINUOUS
  0
LAYER
  2
102
 70
    64
 62
     7
  6
CONTINUOUS
  0
LAYER
  2
103
 70
    64
 62
     7
  6
CONTINUOUS
  0
LAYER
  2
104
 70
    64
 62
     7
  6
CONTINUOUS
  0
LAYER
  2
105
 70
    64
 62
     7
  6
CONTINUOUS
  0
LAYER
  2
106
 70
    64
 62
     7
  6
CONTINUOUS
  0
LAYER
  2
107
 70
    64
 62
     7
  6
CONTINUOUS
  0
LAYER
  2
108
 70
    64
 62
     7
  6
CONTINUOUS
  0
LAYER
  2
109
 70
    64
 62
     7
  6
CONTINUOUS
  0
LAYER
  2
110
 70
    64
 62
     7
  6
CONTINUOUS
  0
LAYER
  2
111
 70
    64
 62
     7
  6
CONTINUOUS
  0
LAYER
  2
112
 70
    64
 62
     7
  6
CONTINUOUS
  0
LAYER
  2
113
 70
    64
 62
     7
  6
CONTINUOUS
  0
LAYER
  2
114
 70
    64
 62
     7
  6
CONTINUOUS
  0
LAYER
  2
115
 70
    64
 62
     7
  6
CONTINUOUS
  0
LAYER
  2
116
 70
    64
 62
     7
  6
CONTINUOUS
  0
LAYER
  2
117
 70
    64
 62
     7
  6
CONTINUOUS
  0
LAYER
  2
118
 70
    64
 62
     7
  6
CONTINUOUS
  0
LAYER
  2
119
 70
    64
 62
     7
  6
CONTINUOUS
  0
LAYER
  2
120
 70
    64
 62
     7
  6
CONTINUOUS
  0
LAYER
  2
121
 70
    64
 62
     7
  6
CONTINUOUS
  0
LAYER
  2
122
 70
    64
 62
     7
  6
CONTINUOUS
  0
LAYER
  2
123
 70
    64
 62
     7
  6
CONTINUOUS
  0
LAYER
  2
124
 70
    64
 62
     7
  6
CONTINUOUS
  0
LAYER
  2
125
 70
    64
 62
     7
  6
CONTINUOUS
  0
LAYER
  2
126
 70
    64
 62
     7
  6
CONTINUOUS
  0
LAYER
  2
127
 70
    64
 62
     7
  6
CONTINUOUS
  0
LAYER
  2
128
 70
    64
 62
     7
  6
CONTINUOUS
  0
LAYER
  2
129
 70
    64
 62
     7
  6
CONTINUOUS
  0
LAYER
  2
130
 70
    64
 62
     7
  6
CONTINUOUS
  0
LAYER
  2
131
 70
    64
 62
     7
  6
CONTINUOUS
  0
LAYER
  2
132
 70
    64
 62
     7
  6
CONTINUOUS
  0
LAYER
  2
133
 70
    64
 62
     7
  6
CONTINUOUS
  0
LAYER
  2
134
 70
    64
 62
     7
  6
CONTINUOUS
  0
LAYER
  2
135
 70
    64
 62
     7
  6
CONTINUOUS
  0
LAYER
  2
136
 70
    64
 62
     7
  6
CONTINUOUS
  0
LAYER
  2
137
 70
    64
 62
     7
  6
CONTINUOUS
  0
LAYER
  2
138
 70
    64
 62
     7
  6
CONTINUOUS
  0
LAYER
  2
139
 70
    64
 62
     7
  6
CONTINUOUS
  0
LAYER
  2
140
 70
    64
 62
     7
  6
CONTINUOUS
  0
LAYER
  2
141
 70
    64
 62
     7
  6
CONTINUOUS
  0
LAYER
  2
142
 70
    64
 62
     7
  6
CONTINUOUS
  0
LAYER
  2
143
 70
    64
 62
     7
  6
CONTINUOUS
  0
LAYER
  2
144
 70
    64
 62
     7
  6
CONTINUOUS
  0
LAYER
  2
145
 70
    64
 62
     7
  6
CONTINUOUS
  0
LAYER
  2
146
 70
    64
 62
     7
  6
CONTINUOUS
  0
LAYER
  2
147
 70
    64
 62
     7
  6
CONTINUOUS
  0
LAYER
  2
148
 70
    64
 62
     7
  6
CONTINUOUS
  0
LAYER
  2
149
 70
    64
 62
     7
  6
CONTINUOUS
  0
LAYER
  2
150
 70
    64
 62
     7
  6
CONTINUOUS
  0
LAYER
  2
151
 70
    64
 62
     7
  6
CONTINUOUS
  0
LAYER
  2
152
 70
    64
 62
     7
  6
CONTINUOUS
  0
LAYER
  2
153
 70
    64
 62
     7
  6
CONTINUOUS
  0
LAYER
  2
154
 70
    64
 62
     7
  6
CONTINUOUS
  0
LAYER
  2
155
 70
    64
 62
     7
  6
CONTINUOUS
  0
LAYER
  2
156
 70
    64
 62
     7
  6
CONTINUOUS
  0
LAYER
  2
157
 70
    64
 62
     7
  6
CONTINUOUS
  0
LAYER
  2
158
 70
    64
 62
     7
  6
CONTINUOUS
  0
LAYER
  2
159
 70
    64
 62
     7
  6
CONTINUOUS
  0
LAYER
  2
160
 70
    64
 62
     7
  6
CONTINUOUS
  0
LAYER
  2
161
 70
    64
 62
     7
  6
CONTINUOUS
  0
LAYER
  2
162
 70
    64
 62
     7
  6
CONTINUOUS
  0
LAYER
  2
163
 70
    64
 62
     7
  6
CONTINUOUS
  0
LAYER
  2
164
 70
    64
 62
     7
  6
CONTINUOUS
  0
LAYER
  2
165
 70
    64
 62
     7
  6
CONTINUOUS
  0
LAYER
  2
166
 70
    64
 62
     7
  6
CONTINUOUS
  0
LAYER
  2
167
 70
    64
 62
     7
  6
CONTINUOUS
  0
LAYER
  2
168
 70
    64
 62
     7
  6
CONTINUOUS
  0
LAYER
  2
169
 70
    64
 62
     7
  6
CONTINUOUS
  0
LAYER
  2
170
 70
    64
 62
     7
  6
CONTINUOUS
  0
LAYER
  2
171
 70
    64
 62
     7
  6
CONTINUOUS
  0
LAYER
  2
172
 70
    64
 62
     7
  6
CONTINUOUS
  0
LAYER
  2
173
 70
    64
 62
     7
  6
CONTINUOUS
  0
LAYER
  2
174
 70
    64
 62
     7
  6
CONTINUOUS
  0
LAYER
  2
175
 70
    64
 62
     7
  6
CONTINUOUS
  0
LAYER
  2
176
 70
    64
 62
     7
  6
CONTINUOUS
  0
LAYER
  2
177
 70
    64
 62
     7
  6
CONTINUOUS
  0
LAYER
  2
178
 70
    64
 62
     7
  6
CONTINUOUS
  0
LAYER
  2
179
 70
    64
 62
     7
  6
CONTINUOUS
  0
LAYER
  2
180
 70
    64
 62
     7
  6
CONTINUOUS
  0
LAYER
  2
181
 70
    64
 62
     7
  6
CONTINUOUS
  0
LAYER
  2
182
 70
    64
 62
     7
  6
CONTINUOUS
  0
LAYER
  2
183
 70
    64
 62
     7
  6
CONTINUOUS
  0
LAYER
  2
184
 70
    64
 62
     7
  6
CONTINUOUS
  0
LAYER
  2
185
 70
    64
 62
     7
  6
CONTINUOUS
  0
LAYER
  2
186
 70
    64
 62
     7
  6
CONTINUOUS
  0
LAYER
  2
187
 70
    64
 62
     7
  6
CONTINUOUS
  0
LAYER
  2
188
 70
    64
 62
     7
  6
CONTINUOUS
  0
LAYER
  2
189
 70
    64
 62
     7
  6
CONTINUOUS
  0
LAYER
  2
190
 70
    64
 62
     7
  6
CONTINUOUS
  0
LAYER
  2
191
 70
    64
 62
     7
  6
CONTINUOUS
  0
LAYER
  2
192
 70
    64
 62
     7
  6
CONTINUOUS
  0
LAYER
  2
193
 70
    64
 62
     7
  6
CONTINUOUS
  0
LAYER
  2
194
 70
    64
 62
     7
  6
CONTINUOUS
  0
LAYER
  2
195
 70
    64
 62
     7
  6
CONTINUOUS
  0
LAYER
  2
196
 70
    64
 62
     7
  6
CONTINUOUS
  0
LAYER
  2
197
 70
    64
 62
     7
  6
CONTINUOUS
  0
LAYER
  2
198
 70
    64
 62
     7
  6
CONTINUOUS
  0
LAYER
  2
199
 70
    64
 62
     7
  6
CONTINUOUS
  0
LAYER
  2
200
 70
    64
 62
     7
  6
CONTINUOUS
  0
LAYER
  2
201
 70
    64
 62
     7
  6
CONTINUOUS
  0
LAYER
  2
202
 70
    64
 62
     7
  6
CONTINUOUS
  0
LAYER
  2
203
 70
    64
 62
     7
  6
CONTINUOUS
  0
LAYER
  2
204
 70
    64
 62
     7
  6
CONTINUOUS
  0
LAYER
  2
205
 70
    64
 62
     7
  6
CONTINUOUS
  0
LAYER
  2
206
 70
    64
 62
     7
  6
CONTINUOUS
  0
LAYER
  2
207
 70
    64
 62
     7
  6
CONTINUOUS
  0
LAYER
  2
208
 70
    64
 62
     7
  6
CONTINUOUS
  0
LAYER
  2
209
 70
    64
 62
     7
  6
CONTINUOUS
  0
LAYER
  2
210
 70
    64
 62
     7
  6
CONTINUOUS
  0
LAYER
  2
211
 70
    64
 62
     7
  6
CONTINUOUS
  0
LAYER
  2
212
 70
    64
 62
     7
  6
CONTINUOUS
  0
LAYER
  2
213
 70
    64
 62
     7
  6
CONTINUOUS
  0
LAYER
  2
214
 70
    64
 62
     7
  6
CONTINUOUS
  0
LAYER
  2
215
 70
    64
 62
     7
  6
CONTINUOUS
  0
LAYER
  2
216
 70
    64
 62
     7
  6
CONTINUOUS
  0
LAYER
  2
217
 70
    64
 62
     7
  6
CONTINUOUS
  0
LAYER
  2
218
 70
    64
 62
     7
  6
CONTINUOUS
  0
LAYER
  2
219
 70
    64
 62
     7
  6
CONTINUOUS
  0
LAYER
  2
220
 70
    64
 62
     7
  6
CONTINUOUS
  0
LAYER
  2
221
 70
    64
 62
     7
  6
CONTINUOUS
  0
LAYER
  2
222
 70
    64
 62
     7
  6
CONTINUOUS
  0
LAYER
  2
223
 70
    64
 62
     7
  6
CONTINUOUS
  0
LAYER
  2
224
 70
    64
 62
     7
  6
CONTINUOUS
  0
LAYER
  2
225
 70
    64
 62
     7
  6
CONTINUOUS
  0
LAYER
  2
226
 70
    64
 62
     7
  6
CONTINUOUS
  0
LAYER
  2
227
 70
    64
 62
     7
  6
CONTINUOUS
  0
LAYER
  2
228
 70
    64
 62
     7
  6
CONTINUOUS
  0
LAYER
  2
229
 70
    64
 62
     7
  6
CONTINUOUS
  0
LAYER
  2
230
 70
    64
 62
     7
  6
CONTINUOUS
  0
LAYER
  2
231
 70
    64
 62
     7
  6
CONTINUOUS
  0
LAYER
  2
232
 70
    64
 62
     7
  6
CONTINUOUS
  0
LAYER
  2
233
 70
    64
 62
     7
  6
CONTINUOUS
  0
LAYER
  2
234
 70
    64
 62
     7
  6
CONTINUOUS
  0
LAYER
  2
235
 70
    64
 62
     7
  6
CONTINUOUS
  0
LAYER
  2
236
 70
    64
 62
     7
  6
CONTINUOUS
  0
LAYER
  2
237
 70
    64
 62
     7
  6
CONTINUOUS
  0
LAYER
  2
238
 70
    64
 62
     7
  6
CONTINUOUS
  0
LAYER
  2
239
 70
    64
 62
     7
  6
CONTINUOUS
  0
LAYER
  2
240
 70
    64
 62
     7
  6
CONTINUOUS
  0
LAYER
  2
241
 70
    64
 62
     7
  6
CONTINUOUS
  0
LAYER
  2
242
 70
    64
 62
     7
  6
CONTINUOUS
  0
LAYER
  2
243
 70
    64
 62
     7
  6
CONTINUOUS
  0
LAYER
  2
244
 70
    64
 62
     7
  6
CONTINUOUS
  0
LAYER
  2
245
 70
    64
 62
     7
  6
CONTINUOUS
  0
LAYER
  2
246
 70
    64
 62
     7
  6
CONTINUOUS
  0
LAYER
  2
247
 70
    64
 62
     7
  6
CONTINUOUS
  0
LAYER
  2
248
 70
    64
 62
     7
  6
CONTINUOUS
  0
LAYER
  2
249
 70
    64
 62
     7
  6
CONTINUOUS
  0
LAYER
  2
250
 70
    64
 62
     7
  6
CONTINUOUS
  0
LAYER
  2
251
 70
    64
 62
     7
  6
CONTINUOUS
  0
LAYER
  2
252
 70
    64
 62
     7
  6
CONTINUOUS
  0
LAYER
  2
253
 70
    64
 62
     7
  6
CONTINUOUS
  0
LAYER
  2
254
 70
    64
 62
     7
  6
CONTINUOUS
  0
LAYER
  2
255
 70
    64
 62
     7
  6
CONTINUOUS
  0
ENDTAB
  0
TABLE
  2
STYLE
 70
     2
  0
STYLE
  2
STANDARD
 70
    64
 40
0.0
 41
1.0
 50
0.0
 71
     0
 42
3.000000
  3
TXT
  4
BIGFONT
  0
ENDTAB
  0
ENDSEC
  0
SECTION
  2
ENTITIES
  0
TEXT
  8
256
  6
CONTINUOUS
 62
     7
 10
 106.86997319034845
 20
-127.7365951742627
 11
 136.86997319034845
 21
-127.7365951742627
 40
 6
 41
 1
  1
ＥＭ－６Ｂ
 50
 0
 72
  5
  0
TEXT
  8
256
  6
CONTINUOUS
 62
     7
 10
 100.6699609833172
 20
-105.93655855316891
 11
 105.6699609833172
 21
-105.93655855316891
 40
 2.5
 41
 0.8
  1
品名
 50
 0
 72
  5
  0
TEXT
  8
256
  6
CONTINUOUS
 62
     7
 10
 100.6699609833172
 20
-117.93662569184082
 11
 105.6699609833172
 21
-117.93662569184082
 40
 2.5
 41
 0.8
  1
品番
 50
 0
 72
  5
  0
LINE
  8
256
  6
CONTINUOUS
 62
     7
 10
 99.369957931559384
 20
-132.9865951742627
 11
 99.369957931559384
 21
-102.9865951742627
  0
LINE
  8
256
  6
CONTINUOUS
 62
     7
 10
 165.36995793155938
 20
-102.9865951742627
 11
 165.36995793155938
 21
-114.9865951742627
  0
LINE
  8
256
  6
CONTINUOUS
 62
     7
 10
-198.93002680965157
 20
 131.51340128199078
 11
-98.930026809651565
 21
 131.51340128199078
  0
LINE
  8
256
  6
CONTINUOUS
 62
     7
 10
-98.930026809651565
 20
 131.51340128199081
 11
-98.930026809651565
 21
 143.51340203710538
  0
TEXT
  8
256
  6
CONTINUOUS
 62
     7
 10
-193.93002680965157
 20
 134.51340087391341
 11
-163.93002680965157
 21
 134.51340087391341
 40
 6
 41
 1
  1
ＥＭ－６Ｂ
 50
 0
 72
  5
  0
LINE
  8
256
  6
CONTINUOUS
 62
     7
 10
 99.369957931559384
 20
-114.9865951742627
 11
 194.36997319034845
 21
-114.9865951742627
  0
TEXT
  8
256
  6
CONTINUOUS
 62
     7
 10
 108.36995793155938
 20
-113.2365951742627
 11
 156.36995793155938
 21
-113.2365951742627
 40
 5
 41
 0.8
  1
ポスト碍子（高圧がいし）
 50
 0
 72
  5
  0
LINE
  8
256
  6
CONTINUOUS
 62
     7
 10
 99.369957931559384
 20
-102.9865951742627
 11
 194.36997319034845
 21
-102.9865951742627
  0
LINE
  8
256
  6
CONTINUOUS
 62
     7
 10
 194.36997319034845
 20
-132.9865951742627
 11
-198.93002680965157
 21
-132.98659517426265
  0
LINE
  8
256
  6
CONTINUOUS
 62
     7
 10
 194.36997319034845
 20
 143.51340203710538
 11
 194.36997319034845
 21
-132.9865951742627
  0
LINE
  8
256
  6
CONTINUOUS
 62
     7
 10
-198.93002680965157
 20
 143.51340203710538
 11
-198.93002680965157
 21
-132.98659517426265
  0
LINE
  8
256
  6
CONTINUOUS
 62
     7
 10
-198.93002680965157
 20
 143.51340203710538
 11
 194.36997319034845
 21
 143.51340203710538
  0
LINE
  8
0
  6
CONTINUOUS
 62
     2
 10
-45
 20
 0
 11
-45
 21
 37.5
  0
LINE
  8
0
  6
DASHDOT
 62
     2
 10
-120
 20
 42.5
 11
-120
 21
-42.5
  0
LINE
  8
0
  6
DASHDOT
 62
     2
 10
-162.5
 20
 0
 11
 162.5
 21
 0
  0
LINE
  8
0
  6
DASHDOT
 62
     2
 10
-129
 20
 20
 11
-111
 21
 20
  0
LINE
  8
0
  6
DASHDOT
 62
     2
 10
-129
 20
-20
 11
-111
 21
-20
  0
LINE
  8
0
  6
DASHDOT
 62
     2
 10
-50
 20
 20.000000000000007
 11
-40
 21
 20.000000000000007
  0
TEXT
  8
0
  6
CONTINUOUS
 62
     7
 10
-107.84582558788505
 20
-49.064711139860727
 11
-86.045825587885048
 21
-49.064711139860727
 40
 2.5
 41
 0.8
  1
（有効深さ１８ｍｍ）
 50
 0
 72
  5
  0
LINE
  8
0
  6
CONTINUOUS
 62
     7
 10
-120
 20
-20
 11
-107.84582558788505
 21
-46.064711139860727
  0
LINE
  8
0
  6
CONTINUOUS
 62
     7
 10
-120
 20
-20
 11
-119.47905546699921
 21
-22.954423259036624
  0
LINE
  8
0
  6
CONTINUOUS
 62
     7
 10
-120
 20
-20
 11
-118.07163717094038
 21
-22.298133329356936
  0
LINE
  8
0
  6
CONTINUOUS
 62
     7
 10
-107.84582558788505
 20
-46.064711139860727
 11
-86.556128255013647
 21
-46.064711139860727
  0
TEXT
  8
0
  6
CONTINUOUS
 62
     7
 10
-107.84582558788505
 20
-45.564711139860727
 11
-97.045825587885048
 21
-45.564711139860727
 40
 2.5
 41
 0.8
  1
２－Ｍ１０
 50
 0
 72
  5
  0
POINT
  8
0
  6
CONTINUOUS
 62
     5
 10
-2100
 20
-1485
  0
CIRCLE
  8
0
  6
CONTINUOUS
 62
     2
 10
-120
 20
 0
 40
 37.5
  0
CIRCLE
  8
0
  6
CONTINUOUS
 62
     2
 10
-120
 20
 20
 40
 5
  0
CIRCLE
  8
0
  6
CONTINUOUS
 62
     2
 10
-120.00000000000001
 20
-20
 40
 5
  0
CIRCLE
  8
0
  6
CONTINUOUS
 62
     2
 10
-120
 20
 20
 40
 4.5
  0
CIRCLE
  8
0
  6
CONTINUOUS
 62
     2
 10
-120
 20
-20
 40
 4.5
  0
LINE
  8
0
  6
DASHDOT
 62
     2
 10
 120
 20
 42.5
 11
 120
 21
-42.5
  0
LINE
  8
0
  6
DASHDOT
 62
     2
 10
 111
 20
 20
 11
 129
 21
 20
  0
LINE
  8
0
  6
DASHDOT
 62
     2
 10
 111
 20
-20
 11
 129
 21
-20
  0
TEXT
  8
0
  6
CONTINUOUS
 62
     7
 10
 132.15417441211497
 20
-49.064711139860727
 11
 153.95417441211498
 21
-49.064711139860727
 40
 2.5
 41
 0.8
  1
（有効深さ１８ｍｍ）
 50
 0
 72
  5
  0
LINE
  8
0
  6
CONTINUOUS
 62
     7
 10
 120
 20
-20
 11
 132.15417441211497
 21
-46.064711139860727
  0
LINE
  8
0
  6
CONTINUOUS
 62
     7
 10
 120
 20
-20
 11
 120.52094453300079
 21
-22.954423259036624
  0
LINE
  8
0
  6
CONTINUOUS
 62
     7
 10
 120
 20
-20
 11
 121.92836282905962
 21
-22.298133329356933
  0
LINE
  8
0
  6
CONTINUOUS
 62
     7
 10
 132.15417441211497
 20
-46.064711139860727
 11
 153.44387174498635
 21
-46.064711139860727
  0
TEXT
  8
0
  6
CONTINUOUS
 62
     7
 10
 132.15417441211497
 20
-45.564711139860727
 11
 142.95417441211498
 21
-45.564711139860727
 40
 2.5
 41
 0.8
  1
２－Ｍ１０
 50
 0
 72
  5
  0
CIRCLE
  8
0
  6
CONTINUOUS
 62
     2
 10
 120
 20
 0
 40
 37.5
  0
CIRCLE
  8
0
  6
CONTINUOUS
 62
     2
 10
 120
 20
 20
 40
 5
  0
CIRCLE
  8
0
  6
CONTINUOUS
 62
     2
 10
 119.99999999999999
 20
-20
 40
 5
  0
CIRCLE
  8
0
  6
CONTINUOUS
 62
     2
 10
 120
 20
 20
 40
 4.5
  0
CIRCLE
  8
0
  6
CONTINUOUS
 62
     2
 10
 120
 20
-20
 40
 4.5
  0
LINE
  8
0
  6
DASHDOT
 62
     2
 10
 139.99999999999997
 20
-9.0000000000000142
 11
 139.99999999999997
 21
 8.9999999999999858
  0
CIRCLE
  8
0
  6
CONTINUOUS
 62
     2
 10
 139.99999999999997
 20
 0
 40
 5
  0
CIRCLE
  8
0
  6
CONTINUOUS
 62
     2
 10
 139.99999999999997
 20
 0
 40
 4.5
  0
LINE
  8
0
  6
DASHDOT
 62
     2
 10
 99.999999999999972
 20
-9.0000000000000142
 11
 99.999999999999986
 21
 8.9999999999999858
  0
CIRCLE
  8
0
  6
CONTINUOUS
 62
     2
 10
 99.999999999999986
 20
 0
 40
 5
  0
CIRCLE
  8
0
  6
CONTINUOUS
 62
     2
 10
 99.999999999999986
 20
 0
 40
 4.5
  0
LINE
  8
0
  6
CONTINUOUS
 62
     2
 10
-28
 20
 0
 11
-28
 21
 37.5
  0
LINE
  8
0
  6
CONTINUOUS
 62
     2
 10
-26.469666295470958
 20
 36.787664068296706
 11
-24.060667409058084
 21
 33.924671863406594
  0
LINE
  8
0
  6
CONTINUOUS
 62
     2
 10
-15.530333704529042
 20
 36.787664068296706
 11
-17.939332590941916
 21
 33.924671863406594
  0
LINE
  8
0
  6
CONTINUOUS
 62
     2
 10
-12.103916556557158
 20
 36.136292052049946
 11
-10.792166886885685
 21
 32.227415895900101
  0
LINE
  8
0
  6
CONTINUOUS
 62
     2
 10
-1.8960834434428424
 20
 36.136292052049946
 11
-3.2078331131143152
 21
 32.227415895900101
  0
ARC
  8
0
  6
CONTINUOUS
 62
     2
 10
-21
 20
 36.5
 40
 4
 50
-139.92184060132325
 51
-40.078162469145767
  0
ARC
  8
0
  6
CONTINUOUS
 62
     2
 10
-7
 20
 33.5
 40
 4
 50
-165.52249063757938
 51
-18.550841705611358
  0
ARC
  8
0
  6
CONTINUOUS
 62
     2
 10
-28
 20
 35.5
 40
 2
 50
 40.078162469145845
 51
 90.000001535234404
  0
LINE
  8
0
  6
CONTINUOUS
 62
     2
 10
-45
 20
 37.5
 11
-28
 21
 37.5
  0
LINE
  8
0
  6
CONTINUOUS
 62
     2
 10
-16
 20
 0
 11
-16
 21
 36.229485751811374
  0
LINE
  8
0
  6
CONTINUOUS
 62
     2
 10
-12
 20
 0
 11
-12
 21
 35.826631634710409
  0
LINE
  8
0
  6
CONTINUOUS
 62
     2
 10
-2
 20
 0
 11
-2
 21
 35.826631634710409
  0
ARC
  8
0
  6
CONTINUOUS
 62
     2
 10
 0
 20
 35.5
 40
 2
 50
 90.000001535234546
 51
 161.44916136485779
  0
ARC
  8
0
  6
CONTINUOUS
 62
     2
 10
-14
 20
 35.5
 40
 2
 50
 18.550841705611258
 51
 139.92184060132317
  0
LINE
  8
0
  6
CONTINUOUS
 62
     2
 10
-26.469666295470958
 20
-36.787664068296706
 11
-24.060667409058084
 21
-33.924671863406594
  0
LINE
  8
0
  6
CONTINUOUS
 62
     2
 10
-15.530333704529042
 20
-36.787664068296706
 11
-17.939332590941916
 21
-33.924671863406594
  0
LINE
  8
0
  6
CONTINUOUS
 62
     2
 10
-12.103916556557158
 20
-36.136292052049946
 11
-10.792166886885685
 21
-32.227415895900101
  0
LINE
  8
0
  6
CONTINUOUS
 62
     2
 10
-1.8960834434428424
 20
-36.136292052049946
 11
-3.2078331131143152
 21
-32.227415895900101
  0
ARC
  8
0
  6
CONTINUOUS
 62
     2
 10
-21
 20
-36.5
 40
 4
 50
 40.078162469145767
 51
 139.92184060132325
  0
ARC
  8
0
  6
CONTINUOUS
 62
     2
 10
-7
 20
-33.5
 40
 4
 50
 18.550841705611358
 51
 165.52249063757938
  0
ARC
  8
0
  6
CONTINUOUS
 62
     2
 10
-28
 20
-35.5
 40
 2
 50
-90.000001535234404
 51
-40.078162469145845
  0
LINE
  8
0
  6
CONTINUOUS
 62
     2
 10
-45
 20
-37.5
 11
-28
 21
-37.5
  0
ARC
  8
0
  6
CONTINUOUS
 62
     2
 10
-14
 20
-35.5
 40
 2
 50
-139.92184060132317
 51
-18.550841705611258
  0
LINE
  8
0
  6
CONTINUOUS
 62
     2
 10
-45
 20
 0
 11
-45
 21
-37.5
  0
LINE
  8
0
  6
DASHDOT
 62
     2
 10
-50
 20
-19.999999999999993
 11
-40
 21
-19.999999999999993
  0
LINE
  8
0
  6
CONTINUOUS
 62
     2
 10
-28
 20
 0
 11
-28
 21
-37.5
  0
LINE
  8
0
  6
CONTINUOUS
 62
     2
 10
-16
 20
 0
 11
-16
 21
-36.229485751811374
  0
LINE
  8
0
  6
CONTINUOUS
 62
     2
 10
-12
 20
 0
 11
-12
 21
-35.826631634710409
  0
LINE
  8
0
  6
CONTINUOUS
 62
     2
 10
-2
 20
 0
 11
-2
 21
-35.826631634710409
  0
ARC
  8
0
  6
CONTINUOUS
 62
     2
 10
 0
 20
-35.5
 40
 2
 50
-161.44916136485779
 51
-90.000001535234546
  0
LINE
  8
0
  6
CONTINUOUS
 62
     2
 10
 26.469666295470958
 20
 36.787664068296706
 11
 24.060667409058084
 21
 33.924671863406594
  0
LINE
  8
0
  6
CONTINUOUS
 62
     2
 10
 15.530333704529042
 20
 36.787664068296706
 11
 17.939332590941916
 21
 33.924671863406594
  0
LINE
  8
0
  6
CONTINUOUS
 62
     2
 10
 12.103916556557158
 20
 36.136292052049946
 11
 10.792166886885685
 21
 32.227415895900101
  0
LINE
  8
0
  6
CONTINUOUS
 62
     2
 10
 1.8960834434428426
 20
 36.136292052049946
 11
 3.2078331131143152
 21
 32.227415895900101
  0
ARC
  8
0
  6
CONTINUOUS
 62
     2
 10
 21
 20
 36.5
 40
 4
 50
-139.92184060132328
 51
-40.078162469145774
  0
ARC
  8
0
  6
CONTINUOUS
 62
     2
 10
 7
 20
 33.5
 40
 4
 50
-161.44916136485767
 51
-14.47751243288967
  0
ARC
  8
0
  6
CONTINUOUS
 62
     2
 10
 28
 20
 35.5
 40
 2
 50
 90.000001535234603
 51
 139.92184060132317
  0
LINE
  8
0
  6
CONTINUOUS
 62
     2
 10
 45
 20
 37.499999999999993
 11
 28
 21
 37.5
  0
ARC
  8
0
  6
CONTINUOUS
 62
     2
 10
 14
 20
 35.5
 40
 2
 50
 40.078162469145838
 51
 161.44916136485776
  0
LINE
  8
0
  6
CONTINUOUS
 62
     2
 10
 44.999999999999993
 20
 0
 11
 45
 21
 37.499999999999993
  0
LINE
  8
0
  6
DASHDOT
 62
     2
 10
 50
 20
 20
 11
 40
 21
 20.000000000000004
  0
LINE
  8
0
  6
CONTINUOUS
 62
     2
 10
 27.999999999999996
 20
 0
 11
 28
 21
 37.5
  0
LINE
  8
0
  6
CONTINUOUS
 62
     2
 10
 15.999999999999996
 20
 0
 11
 16
 21
 36.229485751811374
  0
LINE
  8
0
  6
CONTINUOUS
 62
     2
 10
 11.999999999999996
 20
 0
 11
 12
 21
 35.826631634710409
  0
LINE
  8
0
  6
CONTINUOUS
 62
     2
 10
 1.9999999999999958
 20
 0
 11
 2.0000000000000004
 21
 35.826631634710409
  0
ARC
  8
0
  6
CONTINUOUS
 62
     2
 10
 0
 20
 35.5
 40
 2
 50
 18.550841705611248
 51
 90.000001535234475
  0
LINE
  8
0
  6
CONTINUOUS
 62
     2
 10
 26.469666295470951
 20
-36.787664068296706
 11
 24.060667409058077
 21
-33.924671863406594
  0
LINE
  8
0
  6
CONTINUOUS
 62
     2
 10
 15.530333704529033
 20
-36.787664068296706
 11
 17.939332590941909
 21
-33.924671863406594
  0
LINE
  8
0
  6
CONTINUOUS
 62
     2
 10
 12.103916556557149
 20
-36.136292052049946
 11
 10.792166886885676
 21
-32.227415895900101
  0
LINE
  8
0
  6
CONTINUOUS
 62
     2
 10
 1.8960834434428337
 20
-36.136292052049946
 11
 3.2078331131143072
 21
-32.227415895900101
  0
ARC
  8
0
  6
CONTINUOUS
 62
     2
 10
 20.999999999999993
 20
-36.5
 40
 4
 50
 40.078162469145759
 51
 139.92184060132325
  0
ARC
  8
0
  6
CONTINUOUS
 62
     2
 10
 6.999999999999992
 20
-33.5
 40
 4
 50
 14.477512432889657
 51
 161.44916136485767
  0
ARC
  8
0
  6
CONTINUOUS
 62
     2
 10
 27.999999999999993
 20
-35.5
 40
 2
 50
-139.9218406013232
 51
-90.000001535234617
  0
LINE
  8
0
  6
CONTINUOUS
 62
     2
 10
 44.999999999999993
 20
-37.500000000000007
 11
 27.999999999999993
 21
-37.5
  0
ARC
  8
0
  6
CONTINUOUS
 62
     2
 10
 13.999999999999991
 20
-35.5
 40
 2
 50
-161.44916136485779
 51
-40.078162469145859
  0
LINE
  8
0
  6
DASHDOT
 62
     2
 10
 49.999999999999993
 20
-20
 11
 39.999999999999993
 21
-19.999999999999996
  0
ARC
  8
0
  6
CONTINUOUS
 62
     2
 10
 0
 20
-35.5
 40
 2
 50
-90.000001535234475
 51
-18.550841705611258
  0
LINE
  8
0
  6
CONTINUOUS
 62
     2
 10
 44.999999999999993
 20
 0
 11
 44.999999999999993
 21
-37.500000000000007
  0
LINE
  8
0
  6
CONTINUOUS
 62
     2
 10
 27.999999999999996
 20
 0
 11
 27.999999999999993
 21
-37.5
  0
LINE
  8
0
  6
CONTINUOUS
 62
     2
 10
 15.999999999999996
 20
 0
 11
 15.999999999999991
 21
-36.229485751811374
  0
LINE
  8
0
  6
CONTINUOUS
 62
     2
 10
 11.999999999999996
 20
 0
 11
 11.999999999999991
 21
-35.826631634710409
  0
LINE
  8
0
  6
CONTINUOUS
 62
     2
 10
 1.9999999999999958
 20
 0
 11
 1.9999999999999916
 21
-35.826631634710409
  0
LINE
  8
0
  6
CONTINUOUS
 62
     7
 10
-157.5
 20
 1
 11
-157.5
 21
 53.5
  0
LINE
  8
0
  6
CONTINUOUS
 62
     7
 10
-82.5
 20
 1
 11
-82.5
 21
 53.5
  0
LINE
  8
0
  6
CONTINUOUS
 62
     7
 10
-157.5
 20
 52.5
 11
-82.5
 21
 52.5
  0
LINE
  8
0
  6
CONTINUOUS
 62
     7
 10
-157.5
 20
 52.5
 11
-154.6022225211328
 21
 51.72354286469244
  0
LINE
  8
0
  6
CONTINUOUS
 62
     7
 10
-157.5
 20
 52.5
 11
-154.6022225211328
 21
 53.27645713530756
  0
LINE
  8
0
  6
CONTINUOUS
 62
     7
 10
-82.5
 20
 52.5
 11
-85.397777478867198
 21
 53.27645713530756
  0
LINE
  8
0
  6
CONTINUOUS
 62
     7
 10
-82.5
 20
 52.5
 11
-85.397777478867198
 21
 51.72354286469244
  0
TEXT
  8
0
  6
CONTINUOUS
 62
     7
 10
-122
 20
 53.299999999999997
 11
-118
 21
 53.299999999999997
 40
 2.5
 41
 0.8
  1
75
 50
 0
 72
  5
  0
LINE
  8
0
  6
CONTINUOUS
 62
     7
 10
-130
 20
 20
 11
-173.5
 21
 20
  0
LINE
  8
0
  6
CONTINUOUS
 62
     7
 10
-130
 20
-20
 11
-173.5
 21
-20
  0
LINE
  8
0
  6
CONTINUOUS
 62
     7
 10
-172.5
 20
 20
 11
-172.5
 21
-20
  0
LINE
  8
0
  6
CONTINUOUS
 62
     7
 10
-172.5
 20
 20
 11
-173.27645713530757
 21
 17.102222521132795
  0
LINE
  8
0
  6
CONTINUOUS
 62
     7
 10
-172.5
 20
 20
 11
-171.72354286469243
 21
 17.102222521132795
  0
LINE
  8
0
  6
CONTINUOUS
 62
     7
 10
-172.5
 20
-20
 11
-171.72354286469243
 21
-17.102222521132795
  0
LINE
  8
0
  6
CONTINUOUS
 62
     7
 10
-172.5
 20
-20
 11
-173.27645713530757
 21
-17.102222521132795
  0
TEXT
  8
0
  6
CONTINUOUS
 62
     7
 10
-173.30000000000001
 20
-2
 11
-173.30000000000001
 21
 2
 40
 2.5
 41
 0.8
  1
40
 50
 90.000001535234517
 72
  5
  0
LINE
  8
0
  6
CONTINUOUS
 62
     7
 10
 82.5
 20
 1
 11
 82.5
 21
 53.5
  0
LINE
  8
0
  6
CONTINUOUS
 62
     7
 10
 157.5
 20
 1
 11
 157.5
 21
 53.5
  0
LINE
  8
0
  6
CONTINUOUS
 62
     7
 10
 82.5
 20
 52.5
 11
 157.5
 21
 52.5
  0
LINE
  8
0
  6
CONTINUOUS
 62
     7
 10
 82.5
 20
 52.5
 11
 85.397777478867198
 21
 51.72354286469244
  0
LINE
  8
0
  6
CONTINUOUS
 62
     7
 10
 82.5
 20
 52.5
 11
 85.397777478867198
 21
 53.27645713530756
  0
LINE
  8
0
  6
CONTINUOUS
 62
     7
 10
 157.5
 20
 52.5
 11
 154.6022225211328
 21
 53.27645713530756
  0
LINE
  8
0
  6
CONTINUOUS
 62
     7
 10
 157.5
 20
 52.5
 11
 154.6022225211328
 21
 51.72354286469244
  0
TEXT
  8
0
  6
CONTINUOUS
 62
     7
 10
 118
 20
 53.299999999999997
 11
 122
 21
 53.299999999999997
 40
 2.5
 41
 0.8
  1
75
 50
 0
 72
  5
  0
LINE
  8
0
  6
CONTINUOUS
 62
     7
 10
 110
 20
 20
 11
 66.5
 21
 20
  0
LINE
  8
0
  6
CONTINUOUS
 62
     7
 10
 110
 20
-20
 11
 66.5
 21
-20
  0
LINE
  8
0
  6
CONTINUOUS
 62
     7
 10
 67.5
 20
 20
 11
 67.5
 21
-20
  0
LINE
  8
0
  6
CONTINUOUS
 62
     7
 10
 67.5
 20
 20
 11
 66.723542864692433
 21
 17.102222521132795
  0
LINE
  8
0
  6
CONTINUOUS
 62
     7
 10
 67.5
 20
 20
 11
 68.276457135307567
 21
 17.102222521132795
  0
LINE
  8
0
  6
CONTINUOUS
 62
     7
 10
 67.5
 20
-20
 11
 68.276457135307567
 21
-17.102222521132795
  0
LINE
  8
0
  6
CONTINUOUS
 62
     7
 10
 67.5
 20
-20
 11
 66.723542864692433
 21
-17.102222521132795
  0
TEXT
  8
0
  6
CONTINUOUS
 62
     7
 10
 66.699999999999989
 20
-2
 11
 66.699999999999989
 21
 2
 40
 2.5
 41
 0.8
  1
40
 50
 90.000001535234517
 72
  5
  0
LINE
  8
0
  6
CONTINUOUS
 62
     7
 10
 99.999999999999972
 20
-10.000000000000014
 11
 99.999999999999972
 21
-14.492340972045865
  0
LINE
  8
0
  6
CONTINUOUS
 62
     7
 10
 139.99999999999997
 20
-10.000000000000014
 11
 139.99999999999997
 21
-14.492340972045865
  0
LINE
  8
0
  6
CONTINUOUS
 62
     7
 10
 99.999999999999972
 20
-13.492340972045865
 11
 139.99999999999997
 21
-13.492340972045865
  0
LINE
  8
0
  6
CONTINUOUS
 62
     7
 10
 99.999999999999972
 20
-13.492340972045865
 11
 102.89777747886717
 21
-14.268798107353426
  0
LINE
  8
0
  6
CONTINUOUS
 62
     7
 10
 99.999999999999972
 20
-13.492340972045865
 11
 102.89777747886717
 21
-12.715883836738303
  0
LINE
  8
0
  6
CONTINUOUS
 62
     7
 10
 139.99999999999997
 20
-13.492340972045865
 11
 137.10222252113277
 21
-12.715883836738303
  0
LINE
  8
0
  6
CONTINUOUS
 62
     7
 10
 139.99999999999997
 20
-13.492340972045865
 11
 137.10222252113277
 21
-14.268798107353426
  0
TEXT
  8
0
  6
CONTINUOUS
 62
     7
 10
 117.99999999999997
 20
-12.692340972045864
 11
 121.99999999999997
 21
-12.692340972045864
 40
 2.5
 41
 0.8
  1
40
 50
 0
 72
  5
  0
LINE
  8
0
  6
CONTINUOUS
 62
     7
 10
 45
 20
 38.499999999999993
 11
 45
 21
 53.5
  0
LINE
  8
0
  6
CONTINUOUS
 62
     7
 10
-45
 20
 38.5
 11
-45
 21
 53.5
  0
LINE
  8
0
  6
CONTINUOUS
 62
     7
 10
-45
 20
 52.5
 11
 45
 21
 52.5
  0
LINE
  8
0
  6
CONTINUOUS
 62
     7
 10
-45
 20
 52.5
 11
-42.102222521132795
 21
 51.72354286469244
  0
LINE
  8
0
  6
CONTINUOUS
 62
     7
 10
-45
 20
 52.5
 11
-42.102222521132795
 21
 53.27645713530756
  0
LINE
  8
0
  6
CONTINUOUS
 62
     7
 10
 45
 20
 52.5
 11
 42.102222521132795
 21
 53.27645713530756
  0
LINE
  8
0
  6
CONTINUOUS
 62
     7
 10
 45
 20
 52.5
 11
 42.102222521132795
 21
 51.72354286469244
  0
TEXT
  8
0
  6
CONTINUOUS
 62
     7
 10
-2
 20
 53.299999999999997
 11
 2
 21
 53.299999999999997
 40
 2.5
 41
 0.8
  1
90
 50
 0
 72
  5
  0
ENDSEC
  0
EOF
