  0
SECTION
  2
HEADER
  9
$INSBASE
 10
0.0
20
0.0
  9
$REGENMODE
 70
     1
  9
$DRAGMODE
 70
     1
  9
$DIMTAD
 70
     1
  9
$EXTMIN
 10
-210.000000
 20
-148.500000
 30
 0.0
  9
$EXTMAX
 10
210.000000
 20
148.500000
 30
 0.0
  9
$LUPREC
 70
    3
  9
$AUPREC
 70
    3
  9
$LTSCALE
 40
26.250000
  0
ENDSEC
  0
SECTION
  2
TABLES
  0
TABLE
  2
LTYPE
 70
     6
  0
LTYPE
  2
CONTINUOUS
 70
    64
  3
SOLID
 72
    65
 73
     0
 40
0.0
  0
LTYPE
  2
DASHED2
 70
    64
  3
_ _ _ _ _ _ _ _ _ _ _ _ _ _ _ _ _ _ _ _ _ _ 
 72
    65
 73
     2
 40
0.5
 49
0.25
 49
-0.25
  0
LTYPE
  2
DASHED
 70
    64
  3
__ __ __ __ __ __ __ __ __ __ __ __ __ __ __
 72
    65
 73
     2
 40
0.75
 49
0.5
 49
-0.25
  0
LTYPE
  2
DASHEDX2
 70
    64
  3
____  ____  ____  ____  ____  ____  ____  __
 72
    65
 73
     2
 40
1.5
 49
1.0
 49
-0.5
  0
LTYPE
  2
DOT
 70
    64
  3
............................................
 72
    65
 73
     2
 40
0.25
 49
0
 49
-0.25
  0
LTYPE
  2
DASHDOT
 70
    64
  3
__ . __ . __ . __ . __ . __ . __ . __ . __ .
 72
    65
 73
     4
 40
1.0
 49
0.5
 49
-0.25
 49
0.0
 49
-0.25
  0
LTYPE
  2
CENTER
 70
    64
  3
____ _ ____ _ ____ _ ____ _ ____ _ ____ _ __
 72
    65
 73
     4
 40
2.0
 49
1.25
 49
-0.25
 49
0.25
 49
-0.25
  0
LTYPE
  2
DIVIDE
 70
    64
  3
__ . . __ . . __ . . __ . . __ . . __ . . __
 72
    65
 73
     6
 40
1.25
 49
0.5
 49
-0.25
 49
0.0
 49
-0.25
 49
0.0
 49
-0.25
  0
LTYPE
  2
PHANTOM2
 70
    64
  3
___ _ _ ___ _ _ ___ _ _ ___ _ _ ___ _ _ ___ 
 72
    65
 73
     6
 40
1.25
 49
0.625
 49
-0.125
 49
0.125
 49
-0.125
 49
0.125
 49
-0.125
  0
LTYPE
  2
DOTX2
 70
    64
  3
. . . . . . . . . . . . . . . . . . . . . . 
 72
    65
 73
     2
 40
0.5
 49
0
 49
-0.5
  0
ENDTAB
  0
TABLE
  2
LAYER
 70
   255
  0
LAYER
  2
0
 70
    64
 62
     7
  6
CONTINUOUS
  0
LAYER
  2
1
 70
    64
 62
     7
  6
CONTINUOUS
  0
LAYER
  2
2
 70
    64
 62
     7
  6
CONTINUOUS
  0
LAYER
  2
3
 70
    64
 62
     7
  6
CONTINUOUS
  0
LAYER
  2
4
 70
    64
 62
     7
  6
CONTINUOUS
  0
LAYER
  2
5
 70
    64
 62
     7
  6
CONTINUOUS
  0
LAYER
  2
6
 70
    64
 62
     7
  6
CONTINUOUS
  0
LAYER
  2
7
 70
    64
 62
     7
  6
CONTINUOUS
  0
LAYER
  2
8
 70
    64
 62
     7
  6
CONTINUOUS
  0
LAYER
  2
9
 70
    64
 62
     7
  6
CONTINUOUS
  0
LAYER
  2
10
 70
    64
 62
     7
  6
CONTINUOUS
  0
LAYER
  2
11
 70
    64
 62
     7
  6
CONTINUOUS
  0
LAYER
  2
12
 70
    64
 62
     7
  6
CONTINUOUS
  0
LAYER
  2
13
 70
    64
 62
     7
  6
CONTINUOUS
  0
LAYER
  2
14
 70
    64
 62
     7
  6
CONTINUOUS
  0
LAYER
  2
15
 70
    64
 62
     7
  6
CONTINUOUS
  0
LAYER
  2
16
 70
    64
 62
     7
  6
CONTINUOUS
  0
LAYER
  2
17
 70
    64
 62
     7
  6
CONTINUOUS
  0
LAYER
  2
18
 70
    64
 62
     7
  6
CONTINUOUS
  0
LAYER
  2
19
 70
    64
 62
     7
  6
CONTINUOUS
  0
LAYER
  2
20
 70
    64
 62
     7
  6
CONTINUOUS
  0
LAYER
  2
21
 70
    64
 62
     7
  6
CONTINUOUS
  0
LAYER
  2
22
 70
    64
 62
     7
  6
CONTINUOUS
  0
LAYER
  2
23
 70
    64
 62
     7
  6
CONTINUOUS
  0
LAYER
  2
24
 70
    64
 62
     7
  6
CONTINUOUS
  0
LAYER
  2
25
 70
    64
 62
     7
  6
CONTINUOUS
  0
LAYER
  2
26
 70
    64
 62
     7
  6
CONTINUOUS
  0
LAYER
  2
27
 70
    64
 62
     7
  6
CONTINUOUS
  0
LAYER
  2
28
 70
    64
 62
     7
  6
CONTINUOUS
  0
LAYER
  2
29
 70
    64
 62
     7
  6
CONTINUOUS
  0
LAYER
  2
30
 70
    64
 62
     7
  6
CONTINUOUS
  0
LAYER
  2
31
 70
    64
 62
     7
  6
CONTINUOUS
  0
LAYER
  2
32
 70
    64
 62
     7
  6
CONTINUOUS
  0
LAYER
  2
33
 70
    64
 62
     7
  6
CONTINUOUS
  0
LAYER
  2
34
 70
    64
 62
     7
  6
CONTINUOUS
  0
LAYER
  2
35
 70
    64
 62
     7
  6
CONTINUOUS
  0
LAYER
  2
36
 70
    64
 62
     7
  6
CONTINUOUS
  0
LAYER
  2
37
 70
    64
 62
     7
  6
CONTINUOUS
  0
LAYER
  2
38
 70
    64
 62
     7
  6
CONTINUOUS
  0
LAYER
  2
39
 70
    64
 62
     7
  6
CONTINUOUS
  0
LAYER
  2
40
 70
    64
 62
     7
  6
CONTINUOUS
  0
LAYER
  2
41
 70
    64
 62
     7
  6
CONTINUOUS
  0
LAYER
  2
42
 70
    64
 62
     7
  6
CONTINUOUS
  0
LAYER
  2
43
 70
    64
 62
     7
  6
CONTINUOUS
  0
LAYER
  2
44
 70
    64
 62
     7
  6
CONTINUOUS
  0
LAYER
  2
45
 70
    64
 62
     7
  6
CONTINUOUS
  0
LAYER
  2
46
 70
    64
 62
     7
  6
CONTINUOUS
  0
LAYER
  2
47
 70
    64
 62
     7
  6
CONTINUOUS
  0
LAYER
  2
48
 70
    64
 62
     7
  6
CONTINUOUS
  0
LAYER
  2
49
 70
    64
 62
     7
  6
CONTINUOUS
  0
LAYER
  2
50
 70
    64
 62
     7
  6
CONTINUOUS
  0
LAYER
  2
51
 70
    64
 62
     7
  6
CONTINUOUS
  0
LAYER
  2
52
 70
    64
 62
     7
  6
CONTINUOUS
  0
LAYER
  2
53
 70
    64
 62
     7
  6
CONTINUOUS
  0
LAYER
  2
54
 70
    64
 62
     7
  6
CONTINUOUS
  0
LAYER
  2
55
 70
    64
 62
     7
  6
CONTINUOUS
  0
LAYER
  2
56
 70
    64
 62
     7
  6
CONTINUOUS
  0
LAYER
  2
57
 70
    64
 62
     7
  6
CONTINUOUS
  0
LAYER
  2
58
 70
    64
 62
     7
  6
CONTINUOUS
  0
LAYER
  2
59
 70
    64
 62
     7
  6
CONTINUOUS
  0
LAYER
  2
60
 70
    64
 62
     7
  6
CONTINUOUS
  0
LAYER
  2
61
 70
    64
 62
     7
  6
CONTINUOUS
  0
LAYER
  2
62
 70
    64
 62
     7
  6
CONTINUOUS
  0
LAYER
  2
63
 70
    64
 62
     7
  6
CONTINUOUS
  0
LAYER
  2
64
 70
    64
 62
     7
  6
CONTINUOUS
  0
LAYER
  2
65
 70
    64
 62
     7
  6
CONTINUOUS
  0
LAYER
  2
66
 70
    64
 62
     7
  6
CONTINUOUS
  0
LAYER
  2
67
 70
    64
 62
     7
  6
CONTINUOUS
  0
LAYER
  2
68
 70
    64
 62
     7
  6
CONTINUOUS
  0
LAYER
  2
69
 70
    64
 62
     7
  6
CONTINUOUS
  0
LAYER
  2
70
 70
    64
 62
     7
  6
CONTINUOUS
  0
LAYER
  2
71
 70
    64
 62
     7
  6
CONTINUOUS
  0
LAYER
  2
72
 70
    64
 62
     7
  6
CONTINUOUS
  0
LAYER
  2
73
 70
    64
 62
     7
  6
CONTINUOUS
  0
LAYER
  2
74
 70
    64
 62
     7
  6
CONTINUOUS
  0
LAYER
  2
75
 70
    64
 62
     7
  6
CONTINUOUS
  0
LAYER
  2
76
 70
    64
 62
     7
  6
CONTINUOUS
  0
LAYER
  2
77
 70
    64
 62
     7
  6
CONTINUOUS
  0
LAYER
  2
78
 70
    64
 62
     7
  6
CONTINUOUS
  0
LAYER
  2
79
 70
    64
 62
     7
  6
CONTINUOUS
  0
LAYER
  2
80
 70
    64
 62
     7
  6
CONTINUOUS
  0
LAYER
  2
81
 70
    64
 62
     7
  6
CONTINUOUS
  0
LAYER
  2
82
 70
    64
 62
     7
  6
CONTINUOUS
  0
LAYER
  2
83
 70
    64
 62
     7
  6
CONTINUOUS
  0
LAYER
  2
84
 70
    64
 62
     7
  6
CONTINUOUS
  0
LAYER
  2
85
 70
    64
 62
     7
  6
CONTINUOUS
  0
LAYER
  2
86
 70
    64
 62
     7
  6
CONTINUOUS
  0
LAYER
  2
87
 70
    64
 62
     7
  6
CONTINUOUS
  0
LAYER
  2
88
 70
    64
 62
     7
  6
CONTINUOUS
  0
LAYER
  2
89
 70
    64
 62
     7
  6
CONTINUOUS
  0
LAYER
  2
90
 70
    64
 62
     7
  6
CONTINUOUS
  0
LAYER
  2
91
 70
    64
 62
     7
  6
CONTINUOUS
  0
LAYER
  2
92
 70
    64
 62
     7
  6
CONTINUOUS
  0
LAYER
  2
93
 70
    64
 62
     7
  6
CONTINUOUS
  0
LAYER
  2
94
 70
    64
 62
     7
  6
CONTINUOUS
  0
LAYER
  2
95
 70
    64
 62
     7
  6
CONTINUOUS
  0
LAYER
  2
96
 70
    64
 62
     7
  6
CONTINUOUS
  0
LAYER
  2
97
 70
    64
 62
     7
  6
CONTINUOUS
  0
LAYER
  2
98
 70
    64
 62
     7
  6
CONTINUOUS
  0
LAYER
  2
99
 70
    64
 62
     7
  6
CONTINUOUS
  0
LAYER
  2
100
 70
    64
 62
     7
  6
CONTINUOUS
  0
LAYER
  2
101
 70
    64
 62
     7
  6
CONTINUOUS
  0
LAYER
  2
102
 70
    64
 62
     7
  6
CONTINUOUS
  0
LAYER
  2
103
 70
    64
 62
     7
  6
CONTINUOUS
  0
LAYER
  2
104
 70
    64
 62
     7
  6
CONTINUOUS
  0
LAYER
  2
105
 70
    64
 62
     7
  6
CONTINUOUS
  0
LAYER
  2
106
 70
    64
 62
     7
  6
CONTINUOUS
  0
LAYER
  2
107
 70
    64
 62
     7
  6
CONTINUOUS
  0
LAYER
  2
108
 70
    64
 62
     7
  6
CONTINUOUS
  0
LAYER
  2
109
 70
    64
 62
     7
  6
CONTINUOUS
  0
LAYER
  2
110
 70
    64
 62
     7
  6
CONTINUOUS
  0
LAYER
  2
111
 70
    64
 62
     7
  6
CONTINUOUS
  0
LAYER
  2
112
 70
    64
 62
     7
  6
CONTINUOUS
  0
LAYER
  2
113
 70
    64
 62
     7
  6
CONTINUOUS
  0
LAYER
  2
114
 70
    64
 62
     7
  6
CONTINUOUS
  0
LAYER
  2
115
 70
    64
 62
     7
  6
CONTINUOUS
  0
LAYER
  2
116
 70
    64
 62
     7
  6
CONTINUOUS
  0
LAYER
  2
117
 70
    64
 62
     7
  6
CONTINUOUS
  0
LAYER
  2
118
 70
    64
 62
     7
  6
CONTINUOUS
  0
LAYER
  2
119
 70
    64
 62
     7
  6
CONTINUOUS
  0
LAYER
  2
120
 70
    64
 62
     7
  6
CONTINUOUS
  0
LAYER
  2
121
 70
    64
 62
     7
  6
CONTINUOUS
  0
LAYER
  2
122
 70
    64
 62
     7
  6
CONTINUOUS
  0
LAYER
  2
123
 70
    64
 62
     7
  6
CONTINUOUS
  0
LAYER
  2
124
 70
    64
 62
     7
  6
CONTINUOUS
  0
LAYER
  2
125
 70
    64
 62
     7
  6
CONTINUOUS
  0
LAYER
  2
126
 70
    64
 62
     7
  6
CONTINUOUS
  0
LAYER
  2
127
 70
    64
 62
     7
  6
CONTINUOUS
  0
LAYER
  2
128
 70
    64
 62
     7
  6
CONTINUOUS
  0
LAYER
  2
129
 70
    64
 62
     7
  6
CONTINUOUS
  0
LAYER
  2
130
 70
    64
 62
     7
  6
CONTINUOUS
  0
LAYER
  2
131
 70
    64
 62
     7
  6
CONTINUOUS
  0
LAYER
  2
132
 70
    64
 62
     7
  6
CONTINUOUS
  0
LAYER
  2
133
 70
    64
 62
     7
  6
CONTINUOUS
  0
LAYER
  2
134
 70
    64
 62
     7
  6
CONTINUOUS
  0
LAYER
  2
135
 70
    64
 62
     7
  6
CONTINUOUS
  0
LAYER
  2
136
 70
    64
 62
     7
  6
CONTINUOUS
  0
LAYER
  2
137
 70
    64
 62
     7
  6
CONTINUOUS
  0
LAYER
  2
138
 70
    64
 62
     7
  6
CONTINUOUS
  0
LAYER
  2
139
 70
    64
 62
     7
  6
CONTINUOUS
  0
LAYER
  2
140
 70
    64
 62
     7
  6
CONTINUOUS
  0
LAYER
  2
141
 70
    64
 62
     7
  6
CONTINUOUS
  0
LAYER
  2
142
 70
    64
 62
     7
  6
CONTINUOUS
  0
LAYER
  2
143
 70
    64
 62
     7
  6
CONTINUOUS
  0
LAYER
  2
144
 70
    64
 62
     7
  6
CONTINUOUS
  0
LAYER
  2
145
 70
    64
 62
     7
  6
CONTINUOUS
  0
LAYER
  2
146
 70
    64
 62
     7
  6
CONTINUOUS
  0
LAYER
  2
147
 70
    64
 62
     7
  6
CONTINUOUS
  0
LAYER
  2
148
 70
    64
 62
     7
  6
CONTINUOUS
  0
LAYER
  2
149
 70
    64
 62
     7
  6
CONTINUOUS
  0
LAYER
  2
150
 70
    64
 62
     7
  6
CONTINUOUS
  0
LAYER
  2
151
 70
    64
 62
     7
  6
CONTINUOUS
  0
LAYER
  2
152
 70
    64
 62
     7
  6
CONTINUOUS
  0
LAYER
  2
153
 70
    64
 62
     7
  6
CONTINUOUS
  0
LAYER
  2
154
 70
    64
 62
     7
  6
CONTINUOUS
  0
LAYER
  2
155
 70
    64
 62
     7
  6
CONTINUOUS
  0
LAYER
  2
156
 70
    64
 62
     7
  6
CONTINUOUS
  0
LAYER
  2
157
 70
    64
 62
     7
  6
CONTINUOUS
  0
LAYER
  2
158
 70
    64
 62
     7
  6
CONTINUOUS
  0
LAYER
  2
159
 70
    64
 62
     7
  6
CONTINUOUS
  0
LAYER
  2
160
 70
    64
 62
     7
  6
CONTINUOUS
  0
LAYER
  2
161
 70
    64
 62
     7
  6
CONTINUOUS
  0
LAYER
  2
162
 70
    64
 62
     7
  6
CONTINUOUS
  0
LAYER
  2
163
 70
    64
 62
     7
  6
CONTINUOUS
  0
LAYER
  2
164
 70
    64
 62
     7
  6
CONTINUOUS
  0
LAYER
  2
165
 70
    64
 62
     7
  6
CONTINUOUS
  0
LAYER
  2
166
 70
    64
 62
     7
  6
CONTINUOUS
  0
LAYER
  2
167
 70
    64
 62
     7
  6
CONTINUOUS
  0
LAYER
  2
168
 70
    64
 62
     7
  6
CONTINUOUS
  0
LAYER
  2
169
 70
    64
 62
     7
  6
CONTINUOUS
  0
LAYER
  2
170
 70
    64
 62
     7
  6
CONTINUOUS
  0
LAYER
  2
171
 70
    64
 62
     7
  6
CONTINUOUS
  0
LAYER
  2
172
 70
    64
 62
     7
  6
CONTINUOUS
  0
LAYER
  2
173
 70
    64
 62
     7
  6
CONTINUOUS
  0
LAYER
  2
174
 70
    64
 62
     7
  6
CONTINUOUS
  0
LAYER
  2
175
 70
    64
 62
     7
  6
CONTINUOUS
  0
LAYER
  2
176
 70
    64
 62
     7
  6
CONTINUOUS
  0
LAYER
  2
177
 70
    64
 62
     7
  6
CONTINUOUS
  0
LAYER
  2
178
 70
    64
 62
     7
  6
CONTINUOUS
  0
LAYER
  2
179
 70
    64
 62
     7
  6
CONTINUOUS
  0
LAYER
  2
180
 70
    64
 62
     7
  6
CONTINUOUS
  0
LAYER
  2
181
 70
    64
 62
     7
  6
CONTINUOUS
  0
LAYER
  2
182
 70
    64
 62
     7
  6
CONTINUOUS
  0
LAYER
  2
183
 70
    64
 62
     7
  6
CONTINUOUS
  0
LAYER
  2
184
 70
    64
 62
     7
  6
CONTINUOUS
  0
LAYER
  2
185
 70
    64
 62
     7
  6
CONTINUOUS
  0
LAYER
  2
186
 70
    64
 62
     7
  6
CONTINUOUS
  0
LAYER
  2
187
 70
    64
 62
     7
  6
CONTINUOUS
  0
LAYER
  2
188
 70
    64
 62
     7
  6
CONTINUOUS
  0
LAYER
  2
189
 70
    64
 62
     7
  6
CONTINUOUS
  0
LAYER
  2
190
 70
    64
 62
     7
  6
CONTINUOUS
  0
LAYER
  2
191
 70
    64
 62
     7
  6
CONTINUOUS
  0
LAYER
  2
192
 70
    64
 62
     7
  6
CONTINUOUS
  0
LAYER
  2
193
 70
    64
 62
     7
  6
CONTINUOUS
  0
LAYER
  2
194
 70
    64
 62
     7
  6
CONTINUOUS
  0
LAYER
  2
195
 70
    64
 62
     7
  6
CONTINUOUS
  0
LAYER
  2
196
 70
    64
 62
     7
  6
CONTINUOUS
  0
LAYER
  2
197
 70
    64
 62
     7
  6
CONTINUOUS
  0
LAYER
  2
198
 70
    64
 62
     7
  6
CONTINUOUS
  0
LAYER
  2
199
 70
    64
 62
     7
  6
CONTINUOUS
  0
LAYER
  2
200
 70
    64
 62
     7
  6
CONTINUOUS
  0
LAYER
  2
201
 70
    64
 62
     7
  6
CONTINUOUS
  0
LAYER
  2
202
 70
    64
 62
     7
  6
CONTINUOUS
  0
LAYER
  2
203
 70
    64
 62
     7
  6
CONTINUOUS
  0
LAYER
  2
204
 70
    64
 62
     7
  6
CONTINUOUS
  0
LAYER
  2
205
 70
    64
 62
     7
  6
CONTINUOUS
  0
LAYER
  2
206
 70
    64
 62
     7
  6
CONTINUOUS
  0
LAYER
  2
207
 70
    64
 62
     7
  6
CONTINUOUS
  0
LAYER
  2
208
 70
    64
 62
     7
  6
CONTINUOUS
  0
LAYER
  2
209
 70
    64
 62
     7
  6
CONTINUOUS
  0
LAYER
  2
210
 70
    64
 62
     7
  6
CONTINUOUS
  0
LAYER
  2
211
 70
    64
 62
     7
  6
CONTINUOUS
  0
LAYER
  2
212
 70
    64
 62
     7
  6
CONTINUOUS
  0
LAYER
  2
213
 70
    64
 62
     7
  6
CONTINUOUS
  0
LAYER
  2
214
 70
    64
 62
     7
  6
CONTINUOUS
  0
LAYER
  2
215
 70
    64
 62
     7
  6
CONTINUOUS
  0
LAYER
  2
216
 70
    64
 62
     7
  6
CONTINUOUS
  0
LAYER
  2
217
 70
    64
 62
     7
  6
CONTINUOUS
  0
LAYER
  2
218
 70
    64
 62
     7
  6
CONTINUOUS
  0
LAYER
  2
219
 70
    64
 62
     7
  6
CONTINUOUS
  0
LAYER
  2
220
 70
    64
 62
     7
  6
CONTINUOUS
  0
LAYER
  2
221
 70
    64
 62
     7
  6
CONTINUOUS
  0
LAYER
  2
222
 70
    64
 62
     7
  6
CONTINUOUS
  0
LAYER
  2
223
 70
    64
 62
     7
  6
CONTINUOUS
  0
LAYER
  2
224
 70
    64
 62
     7
  6
CONTINUOUS
  0
LAYER
  2
225
 70
    64
 62
     7
  6
CONTINUOUS
  0
LAYER
  2
226
 70
    64
 62
     7
  6
CONTINUOUS
  0
LAYER
  2
227
 70
    64
 62
     7
  6
CONTINUOUS
  0
LAYER
  2
228
 70
    64
 62
     7
  6
CONTINUOUS
  0
LAYER
  2
229
 70
    64
 62
     7
  6
CONTINUOUS
  0
LAYER
  2
230
 70
    64
 62
     7
  6
CONTINUOUS
  0
LAYER
  2
231
 70
    64
 62
     7
  6
CONTINUOUS
  0
LAYER
  2
232
 70
    64
 62
     7
  6
CONTINUOUS
  0
LAYER
  2
233
 70
    64
 62
     7
  6
CONTINUOUS
  0
LAYER
  2
234
 70
    64
 62
     7
  6
CONTINUOUS
  0
LAYER
  2
235
 70
    64
 62
     7
  6
CONTINUOUS
  0
LAYER
  2
236
 70
    64
 62
     7
  6
CONTINUOUS
  0
LAYER
  2
237
 70
    64
 62
     7
  6
CONTINUOUS
  0
LAYER
  2
238
 70
    64
 62
     7
  6
CONTINUOUS
  0
LAYER
  2
239
 70
    64
 62
     7
  6
CONTINUOUS
  0
LAYER
  2
240
 70
    64
 62
     7
  6
CONTINUOUS
  0
LAYER
  2
241
 70
    64
 62
     7
  6
CONTINUOUS
  0
LAYER
  2
242
 70
    64
 62
     7
  6
CONTINUOUS
  0
LAYER
  2
243
 70
    64
 62
     7
  6
CONTINUOUS
  0
LAYER
  2
244
 70
    64
 62
     7
  6
CONTINUOUS
  0
LAYER
  2
245
 70
    64
 62
     7
  6
CONTINUOUS
  0
LAYER
  2
246
 70
    64
 62
     7
  6
CONTINUOUS
  0
LAYER
  2
247
 70
    64
 62
     7
  6
CONTINUOUS
  0
LAYER
  2
248
 70
    64
 62
     7
  6
CONTINUOUS
  0
LAYER
  2
249
 70
    64
 62
     7
  6
CONTINUOUS
  0
LAYER
  2
250
 70
    64
 62
     7
  6
CONTINUOUS
  0
LAYER
  2
251
 70
    64
 62
     7
  6
CONTINUOUS
  0
LAYER
  2
252
 70
    64
 62
     7
  6
CONTINUOUS
  0
LAYER
  2
253
 70
    64
 62
     7
  6
CONTINUOUS
  0
LAYER
  2
254
 70
    64
 62
     7
  6
CONTINUOUS
  0
LAYER
  2
255
 70
    64
 62
     7
  6
CONTINUOUS
  0
ENDTAB
  0
TABLE
  2
STYLE
 70
     2
  0
STYLE
  2
STANDARD
 70
    64
 40
0.0
 41
1.0
 50
0.0
 71
     0
 42
3.000000
  3
TXT
  4
BIGFONT
  0
ENDTAB
  0
ENDSEC
  0
SECTION
  2
ENTITIES
  0
LINE
  8
0
  6
CONTINUOUS
 62
     2
 10
 73.512832641601563
 20
 36.712852478027344
 11
 73.512832641601563
 21
 12.912853240966797
  0
LINE
  8
0
  6
CONTINUOUS
 62
     2
 10
 76.612831115722656
 20
 9.8128533363342285
 11
 93.712806701660156
 21
 9.8128595352172852
  0
ARC
  8
0
  6
CONTINUOUS
 62
     2
 10
 76.612831115722656
 20
 12.912853240966797
 40
 3.0999999046325684
 50
-179.9999980615126
 51
-89.99997353123203
  0
LINE
  8
0
  6
CONTINUOUS
 62
     2
 10
 93.712806701660156
 20
 9.8128595352172852
 11
 96.012825012207031
 21
 9.8128595352172852
  0
LINE
  8
0
  6
CONTINUOUS
 62
     2
 10
 96.012825012207031
 20
 9.8128595352172852
 11
 96.012825012207031
 21
 12.112858772277832
  0
LINE
  8
0
  6
CONTINUOUS
 62
     2
 10
 96.012825012207031
 20
 12.112858772277832
 11
 76.612831115722656
 21
 12.112858772277832
  0
ARC
  8
0
  6
CONTINUOUS
 62
     2
 10
 76.612831115722656
 20
 12.912856101989746
 40
 0.800000011920929
 50
-179.9999980615126
 51
-90.000000851989171
  0
LINE
  8
0
  6
CONTINUOUS
 62
     2
 10
 75.812828063964844
 20
 12.912856101989746
 11
 75.812828063964844
 21
 36.712863922119141
  0
ARC
  8
0
  6
CONTINUOUS
 62
     2
 10
 76.612831115722656
 20
 36.712863922119141
 40
 0.800000011920929
 50
 90.000004039712721
 51
-179.9999980615126
  0
LINE
  8
0
  6
CONTINUOUS
 62
     2
 10
 76.612831115722656
 20
 37.512863159179688
 11
 96.012825012207031
 21
 37.512863159179688
  0
LINE
  8
0
  6
CONTINUOUS
 62
     2
 10
 96.012825012207031
 20
 37.512863159179688
 11
 96.012825012207031
 21
 39.812850952148438
  0
LINE
  8
0
  6
CONTINUOUS
 62
     2
 10
 96.012825012207031
 20
 39.812850952148438
 11
 76.612831115722656
 21
 39.812850952148438
  0
ARC
  8
0
  6
CONTINUOUS
 62
     2
 10
 76.612831115722656
 20
 36.712852478027344
 40
 3.0999999046325684
 50
 90.000004039712721
 51
-179.9999980615126
  0
LINE
  8
0
  6
DASHDOT
 62
     7
 10
 59.705123901367188
 20
 24.812854766845703
 11
 139.35957336425781
 21
 24.812854766845703
  0
LINE
  8
0
  6
DOT
 62
     2
 10
 88.512840270996094
 20
 39.812850952148438
 11
 88.512840270996094
 21
 37.512847900390625
  0
LINE
  8
0
  6
DOT
 62
     2
 10
 93.512832641601562
 20
 37.512847900390625
 11
 93.512832641601562
 21
 39.812850952148438
  0
LINE
  8
0
  6
DOT
 62
     2
 10
 88.512840270996094
 20
 12.112858772277832
 11
 88.512840270996094
 21
 9.8128533363342285
  0
LINE
  8
0
  6
DOT
 62
     2
 10
 93.512832641601562
 20
 9.8128533363342285
 11
 93.512832641601562
 21
 12.112858772277832
  0
LINE
  8
0
  6
DOT
 62
     2
 10
 86.012840270996094
 20
 12.112858772277832
 11
 86.012840270996094
 21
 9.8128533363342285
  0
LINE
  8
0
  6
DOT
 62
     2
 10
 86.012840270996094
 20
 39.812850952148438
 11
 86.012840270996094
 21
 37.512847900390625
  0
LINE
  8
0
  6
DASHDOT
 62
     7
 10
 45.330211639404297
 20
 116.61003112792969
 11
 45.330211639404297
 21
-83.518470764160156
  0
LINE
  8
4
  6
CONTINUOUS
 62
     7
 10
 57.798053741455078
 20
-40.087165832519531
 11
 122.81285858154297
 21
-40.087165832519531
  0
ARC
  8
4
  6
CONTINUOUS
 62
     7
 10
 122.81285858154297
 20
-43.287155151367188
 40
 3.2000000476837158
 50
 0
 51
 90.000004039712721
  0
LINE
  8
4
  6
CONTINUOUS
 62
     7
 10
 126.01284790039062
 20
-43.287155151367188
 11
 126.01284790039062
 21
-50.087162017822266
  0
LINE
  8
4
  6
CONTINUOUS
 62
     7
 10
 126.01284790039062
 20
-50.087162017822266
 11
 124.412841796875
 21
-50.087162017822266
  0
LINE
  8
4
  6
CONTINUOUS
 62
     7
 10
 124.412841796875
 20
-50.087162017822266
 11
 124.412841796875
 21
-43.287166595458984
  0
ARC
  8
4
  6
CONTINUOUS
 62
     7
 10
 122.81285858154297
 20
-43.287166595458984
 40
 1.6000000238418579
 50
 0
 51
 90.000004039712721
  0
LINE
  8
4
  6
CONTINUOUS
 62
     7
 10
 122.81285858154297
 20
-41.687168121337891
 11
 57.798053741455078
 21
-41.687168121337891
  0
ARC
  8
0
  6
CONTINUOUS
 62
     6
 10
 111.01284790039062
 20
-50.187160491943359
 40
 16.793741226196289
 50
-94.467545702032581
 51
 47.420754291691274
  0
LINE
  8
0
  6
DASHDOT
 62
     7
 10
 161.01283264160156
 20
-40.744430541992188
 11
 161.01283264160156
 21
-104.01921081542969
  0
LINE
  8
0
  6
DASHDOT
 62
     7
 10
 143.08653259277344
 20
-50.187160491943359
 11
 178.98402404785156
 21
-50.187160491943359
  0
ARC
  8
0
  6
CONTINUOUS
 62
     7
 10
 111.01284027099609
 20
-50.187160491943359
 40
 2.5
 50
-179.9999980615126
 51
 120.7627189635311
  0
ARC
  8
0
  6
CONTINUOUS
 62
     7
 10
 111.01284027099609
 20
-50.187160491943359
 40
 4.8000001907348633
 50
-179.9999980615126
 51
 120.76273262390967
  0
LINE
  8
0
  6
CONTINUOUS
 62
     7
 10
 109.01285552978516
 20
-41.687168121337891
 11
 118.51285552978516
 21
-41.687168121337891
  0
LINE
  8
0
  6
CONTINUOUS
 62
     7
 10
 109.01285552978516
 20
-43.987163543701172
 11
 118.51285552978516
 21
-43.987163543701172
  0
LINE
  8
0
  6
CONTINUOUS
 62
     7
 10
 106.21284484863281
 20
-50.187160491943359
 11
 106.21284484863281
 21
-45.987148284912109
  0
ARC
  8
0
  6
CONTINUOUS
 62
     7
 10
 110.51284790039062
 20
-45.987148284912109
 40
 4.3000001907348633
 50
 90.000004039712721
 51
-179.9999980615126
  0
LINE
  8
0
  6
CONTINUOUS
 62
     7
 10
 108.51284790039062
 20
-50.187160491943359
 11
 108.51284790039062
 21
-45.987148284912109
  0
ARC
  8
0
  6
CONTINUOUS
 62
     7
 10
 110.51284790039062
 20
-45.987148284912109
 40
 2
 50
 90.000004039712721
 51
-179.9999980615126
  0
LINE
  8
0
  6
CONTINUOUS
 62
     7
 10
 118.51285552978516
 20
-41.687168121337891
 11
 118.51285552978516
 21
-43.987163543701172
  0
LINE
  8
0
  6
CONTINUOUS
 62
     7
 10
 109.73413848876953
 20
-48.038928985595703
 11
 108.51284790039062
 21
-45.987148284912109
  0
LINE
  8
0
  6
CONTINUOUS
 62
     7
 10
 113.01283264160156
 20
-41.687168121337891
 11
 113.01283264160156
 21
-41.887168884277344
  0
LINE
  8
0
  6
CONTINUOUS
 62
     7
 10
 113.01283264160156
 20
-41.887168884277344
 11
 115.01283264160156
 21
-41.887168884277344
  0
LINE
  8
0
  6
CONTINUOUS
 62
     7
 10
 115.01283264160156
 20
-41.887168884277344
 11
 115.01283264160156
 21
-41.687168121337891
  0
LINE
  8
0
  6
CONTINUOUS
 62
     7
 10
 109.01285552978516
 20
-41.687168121337891
 11
 109.01285552978516
 21
-43.987163543701172
  0
TEXT
  8
0
  6
CONTINUOUS
 62
     7
 10
 147.28829040527344
 20
 5.2948594093322754
 11
 165.28829040527344
 21
 5.2948594093322754
 40
 4
 41
 0.8
  1
（組付図）
 50
 0
 72
  5
  0
LINE
  8
0
  6
DASHDOT
 62
     7
 10
 111.01284790039062
 20
-38.283573150634766
 11
 111.01284790039062
 21
-59.092872619628906
  0
LINE
  8
0
  6
DASHDOT
 62
     7
 10
 91.012825012207031
 20
 46.461578369140625
 11
 91.012825012207031
 21
 2.8846477195620537
  0
LINE
  8
0
  6
DASHDOT
 62
     7
 10
 91.0128173828125
 20
-38.458232879638672
 11
 91.0128173828125
 21
-104.01921081542969
  0
LINE
  8
0
  6
DASHDOT
 62
     7
 10
 78.158683776855469
 20
-50.187175750732422
 11
 120.85100555419922
 21
-50.187175750732422
  0
LINE
  8
0
  6
DASHDOT
 62
     7
 10
 111.01280975341797
 20
 60.738994598388672
 11
 111.01280975341797
 21
-9.9437007904052734
  0
ARC
  8
0
  6
CONTINUOUS
 62
     6
 10
 111.01284790039062
 20
-50.187175750732422
 40
 15.027806282043457
 50
-116.62082752075629
 51
-2.3335651329635509
  0
LINE
  8
0
  6
CONTINUOUS
 62
     3
 10
 96.712806701660156
 20
 39.8128662109375
 11
 115.51280212402344
 21
 39.8128662109375
  0
ARC
  8
0
  6
CONTINUOUS
 62
     3
 10
 96.712806701660156
 20
 39.3128662109375
 40
 0.5
 50
 90.000004039712721
 51
-179.9999980615126
  0
ARC
  8
0
  6
CONTINUOUS
 62
     3
 10
 115.51280212402344
 20
 39.3128662109375
 40
 0.5
 50
 0
 51
 90.000004039712721
  0
LINE
  8
0
  6
CONTINUOUS
 62
     3
 10
 96.712806701660156
 20
 9.8128595352172852
 11
 115.51280212402344
 21
 9.8128595352172852
  0
ARC
  8
0
  6
CONTINUOUS
 62
     3
 10
 96.712806701660156
 20
 10.312859535217285
 40
 0.5
 50
-179.9999980615126
 51
-90.000000851989171
  0
ARC
  8
0
  6
CONTINUOUS
 62
     3
 10
 115.51280212402344
 20
 10.312859535217285
 40
 0.5
 50
-90.000000851989171
 51
 0
  0
LINE
  8
0
  6
CONTINUOUS
 62
     3
 10
 116.01280212402344
 20
 39.3128662109375
 11
 116.01280212402344
 21
 10.312859535217285
  0
LINE
  8
0
  6
DOT
 62
     3
 10
 113.51280212402344
 20
 39.8128662109375
 11
 113.51280212402344
 21
 9.8128595352172852
  0
LINE
  8
0
  6
DOT
 62
     3
 10
 108.51280212402344
 20
 39.8128662109375
 11
 108.51280212402344
 21
 9.8128595352172852
  0
LINE
  8
0
  6
CONTINUOUS
 62
     3
 10
 96.212806701660156
 20
 37.412864685058594
 11
 76.912834167480469
 21
 37.412864685058594
  0
LINE
  8
0
  6
CONTINUOUS
 62
     3
 10
 96.212806701660156
 20
 39.3128662109375
 11
 96.212806701660156
 21
 37.412864685058594
  0
LINE
  8
0
  6
CONTINUOUS
 62
     3
 10
 96.212806701660156
 20
 12.212857246398926
 11
 76.912857055664063
 21
 12.212857246398926
  0
ARC
  8
0
  6
CONTINUOUS
 62
     3
 10
 76.912857055664063
 20
 13.212860107421875
 40
 1
 50
-179.9999980615126
 51
-90.000000851989171
  0
LINE
  8
0
  6
CONTINUOUS
 62
     3
 10
 96.212806701660156
 20
 12.212857246398926
 11
 96.212806701660156
 21
 10.312859535217285
  0
LINE
  8
0
  6
CONTINUOUS
 62
     3
 10
 75.912834167480469
 20
 32.312858581542969
 11
 75.912834167480469
 21
 36.412864685058594
  0
ARC
  8
0
  6
CONTINUOUS
 62
     3
 10
 76.912834167480469
 20
 36.412864685058594
 40
 1
 50
 90.000004039712721
 51
-179.9999980615126
  0
LINE
  8
0
  6
CONTINUOUS
 62
     3
 10
 75.912857055664063
 20
 17.312851905822754
 11
 75.912857055664063
 21
 13.212860107421875
  0
LINE
  8
0
  6
DOT
 62
     3
 10
 88.512809753417969
 20
 37.412864685058594
 11
 88.512809753417969
 21
 12.212857246398926
  0
LINE
  8
0
  6
DOT
 62
     3
 10
 93.512794494628906
 20
 37.412864685058594
 11
 93.512794494628906
 21
 12.212857246398926
  0
LINE
  8
0
  6
CONTINUOUS
 62
     6
 10
 108.51280975341797
 20
 54.812847137451172
 11
 108.51280975341797
 21
-7.6871490478515625
  0
LINE
  8
0
  6
CONTINUOUS
 62
     6
 10
 113.5128173828125
 20
 54.812847137451172
 11
 113.5128173828125
 21
-7.6871490478515625
  0
ARC
  8
0
  6
CONTINUOUS
 62
     6
 10
 108.5128173828125
 20
 54.812847137451172
 40
 5
 50
 0
 51
 90.000004039712721
  0
LINE
  8
0
  6
CONTINUOUS
 62
     7
 10
 109.01280975341797
 20
 67.312843322753906
 11
 118.51280975341797
 21
 67.312843322753906
  0
LINE
  8
0
  6
CONTINUOUS
 62
     7
 10
 118.51280975341797
 20
 67.312843322753906
 11
 118.51280975341797
 21
-17.687143325805664
  0
LINE
  8
0
  6
CONTINUOUS
 62
     7
 10
 118.51280975341797
 20
-17.687143325805664
 11
 109.01280975341797
 21
-17.687143325805664
  0
LINE
  8
0
  6
CONTINUOUS
 62
     7
 10
 109.01280975341797
 20
-17.687143325805664
 11
 109.01280975341797
 21
-7.1871557235717773
  0
ARC
  8
0
  6
CONTINUOUS
 62
     7
 10
 107.01280975341797
 20
-7.1871557235717773
 40
 2
 50
 0
 51
 90.000004039712721
  0
LINE
  8
0
  6
CONTINUOUS
 62
     7
 10
 109.01280975341797
 20
 11.812851905822754
 11
 109.01280975341797
 21
 37.812850952148438
  0
ARC
  8
0
  6
CONTINUOUS
 62
     7
 10
 107.01280975341797
 20
 37.812850952148438
 40
 2
 50
 0
 51
 90.000004039712721
  0
LINE
  8
0
  6
CONTINUOUS
 62
     7
 10
 109.01280975341797
 20
 56.812847137451172
 11
 109.01280975341797
 21
 67.312843322753906
  0
POINT
  8
0
  6
CONTINUOUS
 62
     6
 10
 111.01280975341797
 20
 24.812854766845703
  0
LINE
  8
0
  6
CONTINUOUS
 62
     7
 10
 106.21280670166016
 20
 54.812847137451172
 11
 107.01280975341797
 21
 54.812847137451172
  0
LINE
  8
0
  6
DOT
 62
     7
 10
 107.01280975341797
 20
 54.812847137451172
 11
 115.81281280517578
 21
 54.812847137451172
  0
ARC
  8
0
  6
CONTINUOUS
 62
     7
 10
 107.01280975341797
 20
 56.812847137451172
 40
 2
 50
-90.000000851989171
 51
 0
  0
LINE
  8
0
  6
DOT
 62
     7
 10
 115.81281280517578
 20
 54.812847137451172
 11
 115.81281280517578
 21
 39.812850952148438
  0
LINE
  8
0
  6
CONTINUOUS
 62
     7
 10
 107.01280975341797
 20
 39.812850952148438
 11
 106.21280670166016
 21
 39.812850952148438
  0
LINE
  8
0
  6
DOT
 62
     7
 10
 115.81281280517578
 20
 39.812850952148438
 11
 107.01280975341797
 21
 39.812850952148438
  0
LINE
  8
0
  6
CONTINUOUS
 62
     7
 10
 106.21280670166016
 20
 39.812850952148438
 11
 106.21280670166016
 21
 54.812847137451172
  0
LINE
  8
0
  6
CONTINUOUS
 62
     7
 10
 106.21280670166016
 20
 9.8128471374511719
 11
 107.01280975341797
 21
 9.8128471374511719
  0
LINE
  8
0
  6
DOT
 62
     7
 10
 107.01280975341797
 20
 9.8128471374511719
 11
 115.81281280517578
 21
 9.8128471374511719
  0
ARC
  8
0
  6
CONTINUOUS
 62
     7
 10
 107.01280975341797
 20
 11.812851905822754
 40
 2
 50
-90.000000851989171
 51
 0
  0
LINE
  8
0
  6
DOT
 62
     7
 10
 115.81281280517578
 20
 9.8128471374511719
 11
 115.81281280517578
 21
-5.1871500015258789
  0
LINE
  8
0
  6
CONTINUOUS
 62
     7
 10
 107.01280975341797
 20
-5.1871500015258789
 11
 106.21280670166016
 21
-5.1871500015258789
  0
LINE
  8
0
  6
DOT
 62
     7
 10
 115.81281280517578
 20
-5.1871500015258789
 11
 107.01280975341797
 21
-5.1871500015258789
  0
LINE
  8
0
  6
CONTINUOUS
 62
     7
 10
 106.21280670166016
 20
-5.1871500015258789
 11
 106.21280670166016
 21
 9.8128471374511719
  0
LINE
  8
0
  6
DOT
 62
     7
 10
 113.51280975341797
 20
 54.812847137451172
 11
 113.51280975341797
 21
 39.812850952148438
  0
LINE
  8
0
  6
DOT
 62
     7
 10
 108.51280975341797
 20
 39.812850952148438
 11
 108.51280975341797
 21
 54.812847137451172
  0
LINE
  8
0
  6
DOT
 62
     7
 10
 108.51280975341797
 20
-5.1871500015258789
 11
 108.51280975341797
 21
 9.8128471374511719
  0
LINE
  8
0
  6
DOT
 62
     7
 10
 113.51280975341797
 20
-5.1871500015258789
 11
 113.51280975341797
 21
 9.8128471374511719
  0
CIRCLE
  8
0
  6
CONTINUOUS
 62
     7
 10
 114.01280975341797
 20
 24.812854766845703
 40
 1
  0
CIRCLE
  8
0
  6
CONTINUOUS
 62
     7
 10
 114.01280975341797
 20
 62.312847137451172
 40
 1
  0
CIRCLE
  8
0
  6
CONTINUOUS
 62
     7
 10
 114.01280975341797
 20
-12.687151908874512
 40
 1
  0
LINE
  8
0
  6
CONTINUOUS
 62
     6
 10
 108.51280975341797
 20
 54.812847137451172
 11
 93.512825012207031
 21
 54.812847137451172
  0
LINE
  8
0
  6
CONTINUOUS
 62
     6
 10
 108.5128173828125
 20
 59.812847137451172
 11
 93.512825012207031
 21
 59.812847137451172
  0
LINE
  8
0
  6
CONTINUOUS
 62
     6
 10
 88.512825012207031
 20
 54.812847137451172
 11
 88.512825012207031
 21
 8.3128542900085449
  0
LINE
  8
0
  6
CONTINUOUS
 62
     6
 10
 88.762825012207031
 20
 8.3128542900085449
 11
 88.762825012207031
 21
 7.3128547668457031
  0
LINE
  8
0
  6
CONTINUOUS
 62
     6
 10
 88.512825012207031
 20
 7.3128547668457031
 11
 88.512825012207031
 21
 6.3128554821014404
  0
ARC
  8
0
  6
CONTINUOUS
 62
     6
 10
 93.512825012207031
 20
 54.812847137451172
 40
 5
 50
 90.000004039712721
 51
-179.9999980615126
  0
LINE
  8
0
  6
CONTINUOUS
 62
     6
 10
 93.512825012207031
 20
 54.812847137451172
 11
 93.512825012207031
 21
 8.3128542900085449
  0
LINE
  8
0
  6
CONTINUOUS
 62
     6
 10
 93.2628173828125
 20
 8.3128542900085449
 11
 93.2628173828125
 21
 7.3128547668457031
  0
LINE
  8
0
  6
CONTINUOUS
 62
     6
 10
 93.512825012207031
 20
 7.3128547668457031
 11
 93.512825012207031
 21
 6.3128554821014404
  0
LINE
  8
0
  6
CONTINUOUS
 62
     6
 10
 113.0128173828125
 20
-8.1871490478515625
 11
 109.01280975341797
 21
-8.1871490478515625
  0
LINE
  8
0
  6
CONTINUOUS
 62
     6
 10
 113.5128173828125
 20
-7.6871490478515625
 11
 108.51280975341797
 21
-7.6871490478515625
  0
LINE
  8
0
  6
CONTINUOUS
 62
     6
 10
 108.51280975341797
 20
-7.6871490478515625
 11
 109.01280975341797
 21
-8.1871490478515625
  0
LINE
  8
0
  6
CONTINUOUS
 62
     6
 10
 113.5128173828125
 20
-7.6871490478515625
 11
 113.0128173828125
 21
-8.1871490478515625
  0
LINE
  8
0
  6
CONTINUOUS
 62
     6
 10
 89.0128173828125
 20
 5.8128557205200195
 11
 93.0128173828125
 21
 5.8128557205200195
  0
LINE
  8
0
  6
CONTINUOUS
 62
     6
 10
 88.512825012207031
 20
 6.3128554821014404
 11
 93.512825012207031
 21
 6.3128554821014404
  0
LINE
  8
0
  6
CONTINUOUS
 62
     6
 10
 88.512825012207031
 20
 6.3128554821014404
 11
 89.0128173828125
 21
 5.8128557205200195
  0
LINE
  8
0
  6
CONTINUOUS
 62
     6
 10
 93.512825012207031
 20
 6.3128554821014404
 11
 93.0128173828125
 21
 5.8128557205200195
  0
LINE
  8
0
  6
CONTINUOUS
 62
     3
 10
 75.912834167480469
 20
 32.312858581542969
 11
 71.512836456298828
 21
 32.312858581542969
  0
LINE
  8
0
  6
CONTINUOUS
 62
     3
 10
 75.912834167480469
 20
 17.312851905822754
 11
 71.512836456298828
 21
 17.312851905822754
  0
ARC
  8
0
  6
CONTINUOUS
 62
     3
 10
 71.512836456298828
 20
 17.812851905822754
 40
 0.5
 50
-179.9999980615126
 51
-90.000000851989171
  0
LINE
  8
0
  6
CONTINUOUS
 62
     3
 10
 71.012836456298828
 20
 17.812851905822754
 11
 71.012836456298828
 21
 31.812858581542969
  0
ARC
  8
0
  6
CONTINUOUS
 62
     3
 10
 71.512836456298828
 20
 31.812858581542969
 40
 0.5
 50
 90.000004039712721
 51
-179.9999980615126
  0
LINE
  8
0
  6
CONTINUOUS
 62
     3
 10
 75.912834167480469
 20
 32.312858581542969
 11
 75.912811279296875
 21
 35.412864685058594
  0
LINE
  8
0
  6
DOT
 62
     3
 10
 73.512832641601563
 20
 17.312851905822754
 11
 73.512832641601563
 21
 32.312858581542969
  0
LINE
  8
0
  6
DOT
 62
     3
 10
 75.912834167480469
 20
 17.312851905822754
 11
 75.912834167480469
 21
 32.312858581542969
  0
TEXT
  8
3
  6
CONTINUOUS
 62
     7
 10
 67.623842906951907
 20
 64.268625617027283
 11
 85.483843135833737
 21
 64.268625617027283
 40
 3.2000000476837158
 41
 0.8
  1
Ｕ形蝶番ピン
 50
 0
 72
  5
  0
LINE
  8
0
  6
CONTINUOUS
 62
     2
 10
 92.0128173828125
 20
-45.187152862548828
 11
 73.5128173828125
 21
-45.187152862548828
  0
ARC
  8
0
  6
CONTINUOUS
 62
     2
 10
 92.0128173828125
 20
-49.187149047851563
 40
 4
 50
 0
 51
 90.000004039712721
  0
LINE
  8
0
  6
CONTINUOUS
 62
     2
 10
 96.012802124023437
 20
-48.687156677246094
 11
 96.012802124023437
 21
-53.187160491943359
  0
ARC
  8
0
  6
CONTINUOUS
 62
     2
 10
 92.0128173828125
 20
-53.187160491943359
 40
 4
 50
-90.000000851989171
 51
 0
  0
LINE
  8
0
  6
CONTINUOUS
 62
     2
 10
 92.0128173828125
 20
-57.187156677246094
 11
 89.0128173828125
 21
-57.187156677246094
  0
ARC
  8
0
  6
CONTINUOUS
 62
     2
 10
 89.0128173828125
 20
-60.187156677246094
 40
 3
 50
 90.000004039712721
 51
-179.9999980615126
  0
CIRCLE
  8
0
  6
CONTINUOUS
 62
     2
 10
 91.0128173828125
 20
-50.187175750732422
 40
 2.5000002384185791
  0
LINE
  8
0
  6
CONTINUOUS
 62
     2
 10
 86.012832641601563
 20
-60.187156677246094
 11
 86.012832641601563
 21
-69.187149047851563
  0
ARC
  8
0
  6
CONTINUOUS
 62
     2
 10
 89.0128173828125
 20
-69.187149047851563
 40
 3
 50
-179.9999980615126
 51
-90.000000851989171
  0
LINE
  8
0
  6
CONTINUOUS
 62
     2
 10
 89.0128173828125
 20
-72.187164306640625
 11
 94.512771606445313
 21
-72.187164306640625
  0
ARC
  8
0
  6
CONTINUOUS
 62
     2
 10
 94.512771606445313
 20
-75.187156677246094
 40
 3
 50
 0
 51
 90.000004039712721
  0
LINE
  8
0
  6
DOT
 62
     2
 10
 96.2127685546875
 20
-77.187156677246094
 11
 98.512771606445313
 21
-77.187156677246094
  0
ARC
  8
0
  6
CONTINUOUS
 62
     2
 10
 98.512771606445313
 20
-76.187156677246094
 40
 1
 50
-179.99994341999832
 51
-90.000000851989171
  0
LINE
  8
0
  6
CONTINUOUS
 62
     2
 10
 97.51275634765625
 20
-76.187156677246094
 11
 97.51275634765625
 21
-75.187156677246094
  0
LINE
  8
0
  6
CONTINUOUS
 62
     2
 10
 73.5128173828125
 20
-45.187152862548828
 11
 73.5128173828125
 21
-100.18714141845703
  0
LINE
  8
0
  6
CONTINUOUS
 62
     2
 10
 98.512771606445313
 20
-77.187156677246094
 11
 98.512771606445313
 21
-100.18714141845703
  0
LINE
  8
0
  6
DOT
 62
     2
 10
 75.812820434570312
 20
-45.187152862548828
 11
 75.812820434570312
 21
-100.18714141845703
  0
LINE
  8
0
  6
DOT
 62
     2
 10
 96.2127685546875
 20
-77.187156677246094
 11
 96.2127685546875
 21
-100.18714141845703
  0
LINE
  8
0
  6
CONTINUOUS
 62
     2
 10
 148.31283569335937
 20
-76.669486999511719
 11
 148.31283569335937
 21
-45.187152862548828
  0
LINE
  8
0
  6
CONTINUOUS
 62
     2
 10
 173.71282958984375
 20
-76.669486999511719
 11
 173.71282958984375
 21
-45.187152862548828
  0
LINE
  8
0
  6
CONTINUOUS
 62
     2
 10
 147.01283264160156
 20
-77.16949462890625
 11
 152.01283264160156
 21
-77.16949462890625
  0
ARC
  8
0
  6
CONTINUOUS
 62
     2
 10
 148.81283569335937
 20
-76.669486999511719
 40
 0.5
 50
-179.9999980615126
 51
-90.000000851989171
  0
ARC
  8
0
  6
CONTINUOUS
 62
     2
 10
 147.01283264160156
 20
-76.16949462890625
 40
 1
 50
-179.9999980615126
 51
-90.000000851989171
  0
LINE
  8
0
  6
CONTINUOUS
 62
     2
 10
 170.01283264160156
 20
-77.16949462890625
 11
 175.01283264160156
 21
-77.16949462890625
  0
ARC
  8
0
  6
CONTINUOUS
 62
     2
 10
 173.21284484863281
 20
-76.669486999511719
 40
 0.5
 50
-90.000000851989171
 51
 0
  0
ARC
  8
0
  6
CONTINUOUS
 62
     2
 10
 175.01283264160156
 20
-76.16949462890625
 40
 1
 50
-90.000000851989171
 51
 0
  0
LINE
  8
0
  6
CONTINUOUS
 62
     2
 10
 146.01283264160156
 20
-45.187152862548828
 11
 176.01283264160156
 21
-45.187152862548828
  0
LINE
  8
0
  6
CONTINUOUS
 62
     2
 10
 146.01283264160156
 20
-57.187107086181641
 11
 148.31283569335937
 21
-57.187107086181641
  0
LINE
  8
0
  6
CONTINUOUS
 62
     2
 10
 173.71284484863281
 20
-57.187107086181641
 11
 176.01283264160156
 21
-57.187107086181641
  0
LINE
  8
0
  6
CONTINUOUS
 62
     2
 10
 146.01283264160156
 20
-72.1871337890625
 11
 148.31283569335937
 21
-72.1871337890625
  0
LINE
  8
0
  6
CONTINUOUS
 62
     2
 10
 173.71284484863281
 20
-72.1871337890625
 11
 176.01283264160156
 21
-72.1871337890625
  0
LINE
  8
0
  6
DOT
 62
     2
 10
 148.31283569335937
 20
-47.687129974365234
 11
 146.01283264160156
 21
-47.687129974365234
  0
LINE
  8
0
  6
DOT
 62
     2
 10
 148.31283569335937
 20
-52.687129974365234
 11
 146.01283264160156
 21
-52.687129974365234
  0
LINE
  8
0
  6
DOT
 62
     2
 10
 173.71284484863281
 20
-47.687129974365234
 11
 176.01283264160156
 21
-47.687129974365234
  0
LINE
  8
0
  6
DOT
 62
     2
 10
 173.71284484863281
 20
-52.687129974365234
 11
 176.01283264160156
 21
-52.687129974365234
  0
LINE
  8
0
  6
CONTINUOUS
 62
     2
 10
 146.01283264160156
 20
-45.187152862548828
 11
 146.01283264160156
 21
-100.18714141845703
  0
LINE
  8
0
  6
CONTINUOUS
 62
     2
 10
 152.01283264160156
 20
-77.16949462890625
 11
 152.01283264160156
 21
-100.18714141845703
  0
LINE
  8
0
  6
CONTINUOUS
 62
     2
 10
 170.01283264160156
 20
-77.16949462890625
 11
 170.01283264160156
 21
-100.18714141845703
  0
LINE
  8
0
  6
CONTINUOUS
 62
     2
 10
 176.01283264160156
 20
-45.187152862548828
 11
 176.01283264160156
 21
-100.18714141845703
  0
LINE
  8
0
  6
DOT
 62
     2
 10
 149.71282958984375
 20
-77.16949462890625
 11
 149.71282958984375
 21
-100.18714141845703
  0
LINE
  8
0
  6
DOT
 62
     2
 10
 172.31283569335937
 20
-77.16949462890625
 11
 172.31283569335937
 21
-100.18714141845703
  0
LINE
  8
0
  6
CONTINUOUS
 62
     2
 10
-88.025650024414063
 20
 56.671817779541016
 11
-88.025650024414063
 21
-5.8281793594360352
  0
LINE
  8
0
  6
CONTINUOUS
 62
     2
 10
-83.025642395019531
 20
 56.671817779541016
 11
-83.025642395019531
 21
-5.8281793594360352
  0
ARC
  8
0
  6
CONTINUOUS
 62
     2
 10
-88.025642395019531
 20
 56.671817779541016
 40
 5
 50
 0
 51
 90.000004039712721
  0
LINE
  8
0
  6
CONTINUOUS
 62
     2
 10
-88.025650024414063
 20
 56.671817779541016
 11
-103.025634765625
 21
 56.671817779541016
  0
LINE
  8
0
  6
CONTINUOUS
 62
     2
 10
-88.025642395019531
 20
 61.671817779541016
 11
-103.025634765625
 21
 61.671817779541016
  0
LINE
  8
0
  6
CONTINUOUS
 62
     2
 10
-108.025634765625
 20
 56.671817779541016
 11
-108.025634765625
 21
 10.171823501586914
  0
LINE
  8
0
  6
CONTINUOUS
 62
     2
 10
-107.77564239501953
 20
 10.171823501586914
 11
-107.77564239501953
 21
 9.1718239784240723
  0
LINE
  8
0
  6
CONTINUOUS
 62
     2
 10
-108.025634765625
 20
 9.1718239784240723
 11
-108.025634765625
 21
 8.1718244552612305
  0
ARC
  8
0
  6
CONTINUOUS
 62
     2
 10
-103.025634765625
 20
 56.671817779541016
 40
 5
 50
 90.000004039712721
 51
-179.9999980615126
  0
LINE
  8
0
  6
CONTINUOUS
 62
     2
 10
-103.025634765625
 20
 56.671817779541016
 11
-103.025634765625
 21
 10.171823501586914
  0
LINE
  8
0
  6
CONTINUOUS
 62
     2
 10
-103.275634765625
 20
 10.171823501586914
 11
-103.275634765625
 21
 9.1718239784240723
  0
LINE
  8
0
  6
CONTINUOUS
 62
     2
 10
-103.025634765625
 20
 9.1718239784240723
 11
-103.025634765625
 21
 8.1718244552612305
  0
LINE
  8
0
  6
CONTINUOUS
 62
     2
 10
-83.525642395019531
 20
-6.3281793594360352
 11
-87.525650024414063
 21
-6.3281793594360352
  0
LINE
  8
0
  6
CONTINUOUS
 62
     2
 10
-83.025642395019531
 20
-5.8281793594360352
 11
-88.025650024414063
 21
-5.8281793594360352
  0
LINE
  8
0
  6
CONTINUOUS
 62
     2
 10
-88.025650024414063
 20
-5.8281793594360352
 11
-87.525650024414063
 21
-6.3281793594360352
  0
LINE
  8
0
  6
CONTINUOUS
 62
     2
 10
-83.025642395019531
 20
-5.8281793594360352
 11
-83.525642395019531
 21
-6.3281793594360352
  0
LINE
  8
0
  6
CONTINUOUS
 62
     2
 10
-107.525634765625
 20
 7.6718249320983887
 11
-103.52564239501953
 21
 7.6718249320983887
  0
LINE
  8
0
  6
CONTINUOUS
 62
     2
 10
-108.025634765625
 20
 8.1718244552612305
 11
-103.025634765625
 21
 8.1718244552612305
  0
LINE
  8
0
  6
CONTINUOUS
 62
     2
 10
-108.025634765625
 20
 8.1718244552612305
 11
-107.525634765625
 21
 7.6718249320983887
  0
LINE
  8
0
  6
CONTINUOUS
 62
     2
 10
-103.025634765625
 20
 8.1718244552612305
 11
-103.52564239501953
 21
 7.6718249320983887
  0
LINE
  8
0
  6
DASHDOT
 62
     7
 10
-85.525650024414063
 20
 64.586624145507813
 11
-85.525650024414063
 21
-35.265201568603516
  0
LINE
  8
0
  6
DASHDOT
 62
     7
 10
-105.52562713623047
 20
 64.586624145507813
 11
-105.52562713623047
 21
-35.265201568603516
  0
LINE
  8
0
  6
CONTINUOUS
 62
     7
 10
-80.294792175292969
 20
 61.671817779541016
 11
-62.065643310546875
 21
 61.671817779541016
  0
LINE
  8
0
  6
CONTINUOUS
 62
     7
 10
-63.025642395019531
 20
 61.671817779541016
 11
-63.025642395019531
 21
 56.671817779541016
  0
TEXT
  8
0
  6
CONTINUOUS
 62
     7
 10
-63.985641444523068
 20
 63.271819349131313
 11
-63.9856415144613
 21
 64.871819349131314
 40
 2
 41
 0.8
  1
５
 50
 90.000004039712721
 72
  5
  0
LINE
  8
0
  6
CONTINUOUS
 62
     7
 10
-63.025642395019531
 20
 72.467262268066406
 11
-63.025642395019531
 21
 61.671817779541016
  0
LINE
  8
0
  6
CONTINUOUS
 62
     7
 10
-63.025642395019531
 20
 61.671817779541016
 11
-62.249185259711972
 21
 64.569595258408214
  0
LINE
  8
0
  6
CONTINUOUS
 62
     7
 10
-63.025642395019531
 20
 61.671817779541016
 11
-63.802099530327091
 21
 64.569595258408214
  0
TEXT
  8
0
  6
CONTINUOUS
 62
     7
 10
-64.061637825964297
 20
 66.134243839981153
 11
-64.061638057634667
 21
 71.434243839981136
 40
 3
 41
 0.8
  1
以下
 50
 90.000004039712721
 72
  5
  0
LINE
  8
0
  6
CONTINUOUS
 62
     7
 10
-103.025634765625
 20
 56.671817779541016
 11
-97.425636291503906
 21
 56.671817779541016
  0
LINE
  8
0
  6
CONTINUOUS
 62
     2
 10
-33.025653839111328
 20
 59.171821594238281
 11
-33.025653839111328
 21
-5.8281793594360352
  0
LINE
  8
0
  6
CONTINUOUS
 62
     2
 10
-33.525657653808594
 20
-6.3281793594360352
 11
-37.525653839111328
 21
-6.3281793594360352
  0
LINE
  8
0
  6
CONTINUOUS
 62
     2
 10
-38.025653839111328
 20
-5.8281793594360352
 11
-38.025653839111328
 21
 59.171821594238281
  0
LINE
  8
0
  6
DASHDOT
 62
     7
 10
-35.525653839111328
 20
-9.6482086181640625
 11
-35.525653839111328
 21
 67.867935180664063
  0
LINE
  8
0
  6
CONTINUOUS
 62
     2
 10
-33.025653839111328
 20
-5.8281793594360352
 11
-38.025653839111328
 21
-5.8281793594360352
  0
LINE
  8
0
  6
CONTINUOUS
 62
     2
 10
-38.025653839111328
 20
-5.8281793594360352
 11
-37.525653839111328
 21
-6.3281793594360352
  0
LINE
  8
0
  6
CONTINUOUS
 62
     2
 10
-33.525657653808594
 20
-6.3281793594360352
 11
-33.025653839111328
 21
-5.8281793594360352
  0
ARC
  8
0
  6
CONTINUOUS
 62
     2
 10
-35.525653839111328
 20
 59.171821594238281
 40
 2.5
 50
 0
 51
-179.9999980615126
  0
ARC
  8
0
  6
DOT
 62
     2
 10
-35.525653839111328
 20
 59.171821594238281
 40
 2.5
 50
-179.9999980615126
 51
 0
  0
TEXT
  8
0
  6
CONTINUOUS
 62
     7
 10
 139.75526304244994
 20
 38.579512000083923
 11
 154.5552632331848
 21
 38.579512000083923
 40
 3.2000000476837158
 41
 0.8
  1
保護板蝶番
 50
 0
 72
  5
  0
LINE
  8
0
  6
CONTINUOUS
 62
     7
 10
 124.76933288574219
 20
 37.679512023925781
 11
 157.0770263671875
 21
 37.679512023925781
  0
LINE
  8
0
  6
CONTINUOUS
 62
     7
 10
 124.76933288574219
 20
 37.679512023925781
 11
 115.81281280517578
 21
 47.312850952148438
  0
LINE
  8
0
  6
CONTINUOUS
 62
     7
 10
 115.81281280517578
 20
 47.312850952148438
 11
 117.21729161192086
 21
 44.661919176073482
  0
LINE
  8
0
  6
CONTINUOUS
 62
     7
 10
 115.81281280517578
 20
 47.312850952148438
 11
 118.35459301893135
 21
 45.719316093740666
  0
LINE
  8
0
  6
CONTINUOUS
 62
     6
 10
 88.512825012207031
 20
 7.3128547668457031
 11
 93.512825012207031
 21
 7.3128547668457031
  0
LINE
  8
0
  6
CONTINUOUS
 62
     6
 10
 88.512825012207031
 20
 8.3128542900085449
 11
 93.512825012207031
 21
 8.3128542900085449
  0
LINE
  8
0
  6
CONTINUOUS
 62
     3
 10
 85.0128173828125
 20
 8.1128582954406738
 11
 97.0128173828125
 21
 8.1128582954406738
  0
LINE
  8
0
  6
CONTINUOUS
 62
     3
 10
 97.0128173828125
 20
 8.1128582954406738
 11
 97.0128173828125
 21
 7.3128547668457031
  0
LINE
  8
0
  6
CONTINUOUS
 62
     3
 10
 97.0128173828125
 20
 7.3128547668457031
 11
 85.0128173828125
 21
 7.3128547668457031
  0
LINE
  8
0
  6
CONTINUOUS
 62
     3
 10
 85.0128173828125
 20
 7.3128547668457031
 11
 85.0128173828125
 21
 8.1128582954406738
  0
LINE
  8
0
  6
CONTINUOUS
 62
     2
 10
-108.025634765625
 20
 9.1718239784240723
 11
-103.025634765625
 21
 9.1718239784240723
  0
LINE
  8
0
  6
CONTINUOUS
 62
     2
 10
-108.025634765625
 20
 10.171823501586914
 11
-103.025634765625
 21
 10.171823501586914
  0
LINE
  8
0
  6
DOT
 62
     2
 10
-37.775669097900391
 20
 10.671823024749756
 11
-37.775669097900391
 21
 9.6718235015869141
  0
LINE
  8
0
  6
DOT
 62
     2
 10
-38.025661468505859
 20
 9.6718235015869141
 11
-38.025661468505859
 21
 8.6718244552612305
  0
LINE
  8
0
  6
DOT
 62
     2
 10
-33.275661468505859
 20
 10.671823024749756
 11
-33.275661468505859
 21
 9.6718235015869141
  0
LINE
  8
0
  6
DOT
 62
     2
 10
-33.025661468505859
 20
 9.6718235015869141
 11
-33.025661468505859
 21
 8.6718244552612305
  0
LINE
  8
0
  6
DOT
 62
     2
 10
-37.525661468505859
 20
 8.1718244552612305
 11
-33.525669097900391
 21
 8.1718244552612305
  0
LINE
  8
0
  6
DOT
 62
     2
 10
-38.025661468505859
 20
 8.6718244552612305
 11
-33.025661468505859
 21
 8.6718244552612305
  0
LINE
  8
0
  6
DOT
 62
     2
 10
-38.025661468505859
 20
 8.6718244552612305
 11
-37.525661468505859
 21
 8.1718244552612305
  0
LINE
  8
0
  6
DOT
 62
     2
 10
-33.025661468505859
 20
 8.6718244552612305
 11
-33.525669097900391
 21
 8.1718244552612305
  0
LINE
  8
0
  6
DOT
 62
     2
 10
-38.025661468505859
 20
 9.6718235015869141
 11
-33.025661468505859
 21
 9.6718235015869141
  0
LINE
  8
0
  6
DOT
 62
     2
 10
-38.025661468505859
 20
 10.671823024749756
 11
-33.025661468505859
 21
 10.671823024749756
  0
LINE
  8
0
  6
DASHDOT
 62
     6
 10
 108.51280975341797
 20
 102.81285858154297
 11
 108.51280975341797
 21
 40.3128662109375
  0
LINE
  8
0
  6
DASHDOT
 62
     6
 10
 113.5128173828125
 20
 102.81285858154297
 11
 113.5128173828125
 21
 40.3128662109375
  0
ARC
  8
0
  6
DASHDOT
 62
     6
 10
 108.5128173828125
 20
 102.81285858154297
 40
 5
 50
 0
 51
 90.000004039712721
  0
LINE
  8
0
  6
DASHDOT
 62
     6
 10
 108.51280975341797
 20
 102.81285858154297
 11
 93.512825012207031
 21
 102.81285858154297
  0
LINE
  8
0
  6
DASHDOT
 62
     6
 10
 108.5128173828125
 20
 107.81285858154297
 11
 93.512825012207031
 21
 107.81285858154297
  0
LINE
  8
0
  6
DASHDOT
 62
     6
 10
 88.512825012207031
 20
 102.81285858154297
 11
 88.512825012207031
 21
 56.812870025634766
  0
LINE
  8
0
  6
DASHDOT
 62
     6
 10
 88.762825012207031
 20
 56.812870025634766
 11
 88.762825012207031
 21
 55.812870025634766
  0
LINE
  8
0
  6
DASHDOT
 62
     6
 10
 88.512825012207031
 20
 55.812870025634766
 11
 88.512825012207031
 21
 54.812870025634766
  0
ARC
  8
0
  6
DASHDOT
 62
     6
 10
 93.512825012207031
 20
 102.81285858154297
 40
 5
 50
 90.000004039712721
 51
-179.9999980615126
  0
LINE
  8
0
  6
DASHDOT
 62
     6
 10
 93.512825012207031
 20
 102.81285858154297
 11
 93.512825012207031
 21
 56.812870025634766
  0
LINE
  8
0
  6
DASHDOT
 62
     6
 10
 93.2628173828125
 20
 56.812870025634766
 11
 93.2628173828125
 21
 55.812870025634766
  0
LINE
  8
0
  6
DASHDOT
 62
     6
 10
 93.512825012207031
 20
 55.812870025634766
 11
 93.512825012207031
 21
 54.812870025634766
  0
LINE
  8
0
  6
DASHDOT
 62
     6
 10
 113.0128173828125
 20
 39.8128662109375
 11
 109.01280975341797
 21
 39.8128662109375
  0
LINE
  8
0
  6
DASHDOT
 62
     6
 10
 113.5128173828125
 20
 40.3128662109375
 11
 108.51280975341797
 21
 40.3128662109375
  0
LINE
  8
0
  6
DASHDOT
 62
     6
 10
 108.51280975341797
 20
 40.3128662109375
 11
 109.01280975341797
 21
 39.8128662109375
  0
LINE
  8
0
  6
DASHDOT
 62
     6
 10
 113.5128173828125
 20
 40.3128662109375
 11
 113.0128173828125
 21
 39.8128662109375
  0
LINE
  8
0
  6
DASHDOT
 62
     6
 10
 89.0128173828125
 20
 54.312870025634766
 11
 93.0128173828125
 21
 54.312870025634766
  0
LINE
  8
0
  6
DASHDOT
 62
     6
 10
 88.512825012207031
 20
 54.812870025634766
 11
 93.512825012207031
 21
 54.812870025634766
  0
LINE
  8
0
  6
DASHDOT
 62
     6
 10
 88.512825012207031
 20
 54.812870025634766
 11
 89.0128173828125
 21
 54.312870025634766
  0
LINE
  8
0
  6
DASHDOT
 62
     6
 10
 93.512825012207031
 20
 54.812870025634766
 11
 93.0128173828125
 21
 54.312870025634766
  0
LINE
  8
0
  6
DASHDOT
 62
     6
 10
 88.512825012207031
 20
 55.812870025634766
 11
 93.512825012207031
 21
 55.812870025634766
  0
LINE
  8
0
  6
DASHDOT
 62
     6
 10
 88.512825012207031
 20
 56.812870025634766
 11
 93.512825012207031
 21
 56.812870025634766
  0
LINE
  8
0
  6
CONTINUOUS
 62
     3
 10
 112.01284790039062
 20
-45.187179565429688
 11
 75.912841796875
 21
-45.187179565429688
  0
ARC
  8
0
  6
CONTINUOUS
 62
     3
 10
 83.912841796875
 20
-44.687171936035156
 40
 0.5
 50
-179.9999980615126
 51
-90.000000851989171
  0
LINE
  8
0
  6
CONTINUOUS
 62
     3
 10
 116.01284790039062
 20
-49.187175750732422
 11
 116.01284790039062
 21
-51.187175750732422
  0
ARC
  8
0
  6
CONTINUOUS
 62
     3
 10
 112.01284790039062
 20
-49.187175750732422
 40
 4
 50
 0
 51
 90.000004039712721
  0
ARC
  8
0
  6
CONTINUOUS
 62
     3
 10
 112.01284790039062
 20
-51.187175750732422
 40
 4
 50
-90.000000851989171
 51
 0
  0
LINE
  8
0
  6
CONTINUOUS
 62
     3
 10
 112.01284790039062
 20
-55.187171936035156
 11
 111.01283264160156
 21
-55.187171936035156
  0
ARC
  8
0
  6
CONTINUOUS
 62
     3
 10
 111.01283264160156
 20
-60.187168121337891
 40
 5
 50
 90.000004039712721
 51
-179.9999980615126
  0
LINE
  8
0
  6
CONTINUOUS
 62
     3
 10
 106.01283264160156
 20
-60.187168121337891
 11
 106.01283264160156
 21
-70.187164306640625
  0
ARC
  8
0
  6
CONTINUOUS
 62
     3
 10
 104.01283264160156
 20
-70.187164306640625
 40
 2
 50
-50.722587548480213
 51
 0
  0
CIRCLE
  8
0
  6
CONTINUOUS
 62
     3
 10
 111.01284790039062
 20
-50.187175750732422
 40
 2.5
  0
CIRCLE
  8
0
  6
CONTINUOUS
 62
     3
 10
 91.012825012207031
 20
-50.187187194824219
 40
 2.5000002384185791
  0
LINE
  8
0
  6
CONTINUOUS
 62
     3
 10
 75.912796020507813
 20
-80.187156677246094
 11
 75.912796020507813
 21
-43.687171936035156
  0
LINE
  8
0
  6
CONTINUOUS
 62
     3
 10
 96.11279296875
 20
-80.187156677246094
 11
 96.11279296875
 21
-77.187149047851563
  0
LINE
  8
0
  6
CONTINUOUS
 62
     3
 10
 94.11279296875
 20
-82.187141418457031
 11
 77.912796020507813
 21
-82.187141418457031
  0
ARC
  8
0
  6
CONTINUOUS
 62
     3
 10
 94.11279296875
 20
-80.187156677246094
 40
 2
 50
-90.000000851989171
 51
 0
  0
ARC
  8
0
  6
CONTINUOUS
 62
     3
 10
 77.912796020507813
 20
-80.187156677246094
 40
 2
 50
-179.9999980615126
 51
-90.000000851989171
  0
LINE
  8
0
  6
CONTINUOUS
 62
     3
 10
 96.11279296875
 20
-77.187149047851563
 11
 98.61279296875
 21
-77.187149047851563
  0
LINE
  8
0
  6
CONTINUOUS
 62
     3
 10
 96.212821960449219
 20
-55.687191009521484
 11
 96.212821960449219
 21
-45.687171936035156
  0
ARC
  8
0
  6
CONTINUOUS
 62
     3
 10
 96.712821960449219
 20
-45.687171936035156
 40
 0.5
 50
 90.000004039712721
 51
-179.9999980615126
  0
LINE
  8
0
  6
CONTINUOUS
 62
     3
 10
 75.912841796875
 20
-45.187179565429688
 11
 73.512832641601563
 21
-45.187179565429688
  0
ARC
  8
0
  6
CONTINUOUS
 62
     3
 10
 76.912841796875
 20
-43.687171936035156
 40
 1
 50
 90.000004039712721
 51
-179.9999980615126
  0
LINE
  8
0
  6
CONTINUOUS
 62
     3
 10
 81.912826538085938
 20
-42.687171936035156
 11
 72.512832641601562
 21
-42.687171936035156
  0
ARC
  8
0
  6
CONTINUOUS
 62
     3
 10
 81.912826538085938
 20
-44.187164306640625
 40
 1.5
 50
 0
 51
 90.000004039712721
  0
ARC
  8
0
  6
CONTINUOUS
 62
     3
 10
 72.512832641601562
 20
-44.187164306640625
 40
 1.5
 50
 90.000004039712721
 51
-179.9999980615126
  0
LINE
  8
0
  6
CONTINUOUS
 62
     3
 10
 71.012840270996094
 20
-44.187164306640625
 11
 71.012840270996094
 21
-48.187175750732422
  0
ARC
  8
0
  6
CONTINUOUS
 62
     3
 10
 72.012840270996094
 20
-48.187175750732422
 40
 1
 50
-179.9999980615126
 51
-90.000000851989171
  0
LINE
  8
0
  6
CONTINUOUS
 62
     3
 10
 72.512832641601562
 20
-49.187175750732422
 11
 72.012840270996094
 21
-49.187175750732422
  0
ARC
  8
0
  6
CONTINUOUS
 62
     3
 10
 72.512832641601562
 20
-48.187175750732422
 40
 1
 50
-90.000000851989171
 51
 0
  0
LINE
  8
0
  6
CONTINUOUS
 62
     3
 10
 83.412841796875
 20
-44.687171936035156
 11
 83.412841796875
 21
-44.161876678466797
  0
LINE
  8
0
  6
CONTINUOUS
 62
     3
 10
 73.512832641601563
 20
-45.187179565429688
 11
 73.512832641601563
 21
-48.187175750732422
  0
LINE
  8
0
  6
CONTINUOUS
 62
     3
 10
 98.61279296875
 20
-77.187149047851563
 11
 105.27898406982422
 21
-71.735321044921875
  0
LINE
  8
0
  6
CONTINUOUS
 62
     3
 10
 146.5128173828125
 20
-55.187171936035156
 11
 175.51283264160156
 21
-55.187171936035156
  0
ARC
  8
0
  6
CONTINUOUS
 62
     3
 10
 175.51283264160156
 20
-54.687164306640625
 40
 0.5
 50
-90.000000851989171
 51
 0
  0
LINE
  8
0
  6
CONTINUOUS
 62
     3
 10
 149.16282653808594
 20
-42.687152862548828
 11
 172.36283874511719
 21
-42.687152862548828
  0
ARC
  8
0
  6
DOT
 62
     3
 10
 168.01280212402344
 20
-43.187152862548828
 40
 0.5
 50
 0
 51
 90.000004039712721
  0
ARC
  8
0
  6
DOT
 62
     3
 10
 154.01283264160156
 20
-43.187152862548828
 40
 0.5
 50
 90.000004039712721
 51
-179.9999980615126
  0
LINE
  8
0
  6
CONTINUOUS
 62
     3
 10
 148.66282653808594
 20
-43.187152862548828
 11
 148.66282653808594
 21
-45.187164306640625
  0
ARC
  8
0
  6
CONTINUOUS
 62
     3
 10
 149.16282653808594
 20
-43.187152862548828
 40
 0.5
 50
 90.000004039712721
 51
-179.9999980615126
  0
LINE
  8
0
  6
CONTINUOUS
 62
     3
 10
 173.36283874511719
 20
-43.687160491943359
 11
 173.36283874511719
 21
-45.187164306640625
  0
ARC
  8
0
  6
CONTINUOUS
 62
     3
 10
 172.36283874511719
 20
-43.687160491943359
 40
 1
 50
 0
 51
 90.000004039712721
  0
LINE
  8
0
  6
CONTINUOUS
 62
     3
 10
 175.51283264160156
 20
-45.187164306640625
 11
 146.5128173828125
 21
-45.187164306640625
  0
LINE
  8
0
  6
CONTINUOUS
 62
     3
 10
 146.0128173828125
 20
-45.687156677246094
 11
 146.0128173828125
 21
-55.687164306640625
  0
ARC
  8
0
  6
CONTINUOUS
 62
     3
 10
 146.5128173828125
 20
-45.687156677246094
 40
 0.5
 50
 90.000004039712721
 51
-179.9999980615126
  0
ARC
  8
0
  6
CONTINUOUS
 62
     3
 10
 146.5128173828125
 20
-54.687164306640625
 40
 0.5
 50
-179.9999980615126
 51
-90.000000851989171
  0
LINE
  8
0
  6
CONTINUOUS
 62
     3
 10
 176.01283264160156
 20
-45.687156677246094
 11
 176.01283264160156
 21
-55.687164306640625
  0
ARC
  8
0
  6
CONTINUOUS
 62
     3
 10
 175.51283264160156
 20
-45.687156677246094
 40
 0.5
 50
 0
 51
 90.000004039712721
  0
LINE
  8
0
  6
DOT
 62
     3
 10
 146.0128173828125
 20
-47.687156677246094
 11
 176.01283264160156
 21
-47.687156677246094
  0
LINE
  8
0
  6
DOT
 62
     3
 10
 176.01283264160156
 20
-52.687168121337891
 11
 146.0128173828125
 21
-52.687168121337891
  0
LINE
  8
0
  6
CONTINUOUS
 62
     3
 10
 148.66282653808594
 20
-56.187156677246094
 11
 148.66282653808594
 21
-81.687164306640625
  0
LINE
  8
0
  6
DOT
 62
     3
 10
 148.66282653808594
 20
-45.187164306640625
 11
 148.66282653808594
 21
-56.187156677246094
  0
LINE
  8
0
  6
CONTINUOUS
 62
     3
 10
 173.36283874511719
 20
-81.687164306640625
 11
 173.36283874511719
 21
-56.187156677246094
  0
LINE
  8
0
  6
DOT
 62
     3
 10
 173.36283874511719
 20
-56.187156677246094
 11
 173.36283874511719
 21
-45.187164306640625
  0
LINE
  8
0
  6
CONTINUOUS
 62
     3
 10
 148.66282653808594
 20
-72.187164306640625
 11
 173.36283874511719
 21
-72.187164306640625
  0
LINE
  8
0
  6
CONTINUOUS
 62
     3
 10
 149.16282653808594
 20
-82.187141418457031
 11
 172.86283874511719
 21
-82.187141418457031
  0
ARC
  8
0
  6
CONTINUOUS
 62
     3
 10
 172.86283874511719
 20
-81.687164306640625
 40
 0.5
 50
-90.000000851989171
 51
 0
  0
ARC
  8
0
  6
CONTINUOUS
 62
     3
 10
 149.16282653808594
 20
-81.687164306640625
 40
 0.5
 50
-179.9999980615126
 51
-90.000000851989171
  0
LINE
  8
0
  6
CONTINUOUS
 62
     3
 10
 148.66282653808594
 20
-77.1871337890625
 11
 173.36283874511719
 21
-77.1871337890625
  0
LINE
  8
0
  6
DOT
 62
     3
 10
 167.51280212402344
 20
-42.687152862548828
 11
 154.51283264160156
 21
-42.687152862548828
  0
LINE
  8
0
  6
DOT
 62
     3
 10
 168.51280212402344
 20
-43.187152862548828
 11
 168.51280212402344
 21
-48.687156677246094
  0
LINE
  8
0
  6
DOT
 62
     3
 10
 153.51283264160156
 20
-43.187152862548828
 11
 153.51283264160156
 21
-48.687156677246094
  0
LINE
  8
0
  6
DOT
 62
     3
 10
 154.01283264160156
 20
-49.187164306640625
 11
 168.01280212402344
 21
-49.187164306640625
  0
ARC
  8
0
  6
DOT
 62
     3
 10
 168.01280212402344
 20
-48.687156677246094
 40
 0.5
 50
-90.000000851989171
 51
 0
  0
ARC
  8
0
  6
DOT
 62
     3
 10
 154.01283264160156
 20
-48.687156677246094
 40
 0.5
 50
-179.9999980615126
 51
-90.000000851989171
  0
LINE
  8
0
  6
CONTINUOUS
 62
     3
 10
 96.712821960449219
 20
-56.187183380126953
 11
 108.01280975341797
 21
-56.187183380126953
  0
ARC
  8
0
  6
CONTINUOUS
 62
     3
 10
 96.712821960449219
 20
-55.687191009521484
 40
 0.5
 50
-179.9999980615126
 51
-90.000000851989171
  0
LINE
  8
0
  6
CONTINUOUS
 62
     3
 10
 146.5128173828125
 20
-56.187156677246094
 11
 148.66282653808594
 21
-56.187156677246094
  0
ARC
  8
0
  6
CONTINUOUS
 62
     3
 10
 146.5128173828125
 20
-55.687164306640625
 40
 0.5
 50
-179.9999980615126
 51
-90.000000851989171
  0
LINE
  8
0
  6
CONTINUOUS
 62
     3
 10
 175.51283264160156
 20
-56.187156677246094
 11
 173.36283874511719
 21
-56.187156677246094
  0
ARC
  8
0
  6
CONTINUOUS
 62
     3
 10
 175.51283264160156
 20
-55.687164306640625
 40
 0.5
 50
-90.000000851989171
 51
 0
  0
LINE
  8
0
  6
CONTINUOUS
 62
     6
 10
 102.01279449462891
 20
-56.187183380126953
 11
 87.56280517578125
 21
-56.187183380126953
  0
LINE
  8
0
  6
CONTINUOUS
 62
     6
 10
 87.56280517578125
 20
-56.187183380126953
 11
 87.56280517578125
 21
-70.187187194824219
  0
LINE
  8
0
  6
CONTINUOUS
 62
     6
 10
 87.56280517578125
 20
-70.187187194824219
 11
 88.56280517578125
 21
-70.187187194824219
  0
LINE
  8
0
  6
CONTINUOUS
 62
     6
 10
 88.56280517578125
 20
-70.187187194824219
 11
 88.56280517578125
 21
-57.187183380126953
  0
LINE
  8
0
  6
CONTINUOUS
 62
     6
 10
 88.56280517578125
 20
-57.187183380126953
 11
 101.01279449462891
 21
-57.187183380126953
  0
ARC
  8
0
  6
CONTINUOUS
 62
     6
 10
 96.512794494628906
 20
-57.687191009521484
 40
 0.5
 50
 90.000004039712721
 51
-179.9999980615126
  0
LINE
  8
0
  6
CONTINUOUS
 62
     6
 10
 101.01279449462891
 20
-57.187183380126953
 11
 101.01279449462891
 21
-66.187187194824219
  0
LINE
  8
0
  6
CONTINUOUS
 62
     6
 10
 102.01279449462891
 20
-66.737724304199219
 11
 102.01279449462891
 21
-56.187183380126953
  0
LINE
  8
0
  6
CONTINUOUS
 62
     6
 10
 148.662841796875
 20
-57.187156677246094
 11
 147.86283874511719
 21
-57.187156677246094
  0
LINE
  8
0
  6
CONTINUOUS
 62
     6
 10
 147.86283874511719
 20
-57.187156677246094
 11
 148.662841796875
 21
-70.187164306640625
  0
LINE
  8
0
  6
CONTINUOUS
 62
     6
 10
 96.012794494628906
 20
-57.687191009521484
 11
 96.012794494628906
 21
-65.687187194824219
  0
LINE
  8
0
  6
CONTINUOUS
 62
     6
 10
 147.86283874511719
 20
-57.187156677246094
 11
 146.51283264160156
 21
-57.187156677246094
  0
LINE
  8
0
  6
CONTINUOUS
 62
     6
 10
 146.01283264160156
 20
-57.687110900878906
 11
 146.01283264160156
 21
-65.687110900878906
  0
ARC
  8
0
  6
CONTINUOUS
 62
     6
 10
 146.51283264160156
 20
-57.687110900878906
 40
 0.5
 50
 90.000004039712721
 51
-179.9999980615126
  0
LINE
  8
0
  6
CONTINUOUS
 62
     6
 10
 96.56280517578125
 20
-70.187187194824219
 11
 96.56280517578125
 21
-69.011436462402344
  0
LINE
  8
0
  6
CONTINUOUS
 62
     6
 10
 101.01279449462891
 20
-66.187187194824219
 11
 96.512794494628906
 21
-66.187187194824219
  0
ARC
  8
0
  6
CONTINUOUS
 62
     6
 10
 96.512794494628906
 20
-65.687187194824219
 40
 0.5
 50
-179.9999980615126
 51
-90.000000851989171
  0
LINE
  8
0
  6
CONTINUOUS
 62
     6
 10
 101.01279449462891
 20
-66.187187194824219
 11
 96.559318542480469
 21
-69.005928039550781
  0
LINE
  8
0
  6
CONTINUOUS
 62
     6
 10
 96.56280517578125
 20
-70.187187194824219
 11
 102.01279449462891
 21
-66.737724304199219
  0
LINE
  8
0
  6
CONTINUOUS
 62
     6
 10
 146.51283264160156
 20
-66.187103271484375
 11
 148.41668701171875
 21
-66.187103271484375
  0
ARC
  8
0
  6
CONTINUOUS
 62
     6
 10
 146.51283264160156
 20
-65.687110900878906
 40
 0.5
 50
-179.9999980615126
 51
-90.000000851989171
  0
LINE
  8
0
  6
CONTINUOUS
 62
     6
 10
 173.36282348632812
 20
-57.187156677246094
 11
 174.16282653808594
 21
-57.187156677246094
  0
LINE
  8
0
  6
CONTINUOUS
 62
     6
 10
 174.16282653808594
 20
-57.187156677246094
 11
 173.36282348632812
 21
-70.187164306640625
  0
LINE
  8
0
  6
CONTINUOUS
 62
     6
 10
 174.16282653808594
 20
-57.187156677246094
 11
 175.51283264160156
 21
-57.187156677246094
  0
LINE
  8
0
  6
CONTINUOUS
 62
     6
 10
 176.01283264160156
 20
-57.687110900878906
 11
 176.01283264160156
 21
-65.687110900878906
  0
ARC
  8
0
  6
CONTINUOUS
 62
     6
 10
 175.51283264160156
 20
-57.687110900878906
 40
 0.5
 50
-0.0000173028443202
 51
 89.999997209523428
  0
LINE
  8
0
  6
CONTINUOUS
 62
     6
 10
 175.51283264160156
 20
-66.187103271484375
 11
 173.60897827148437
 21
-66.187103271484375
  0
ARC
  8
0
  6
CONTINUOUS
 62
     6
 10
 175.51283264160156
 20
-65.687110900878906
 40
 0.5
 50
-90.000000851989171
 51
-0.0000173028443202
  0
LINE
  8
0
  6
CONTINUOUS
 62
     7
 10
 74.120185852050781
 20
 9.8128533363342285
 11
 61.100887298583984
 21
 9.8128533363342285
  0
LINE
  8
0
  6
CONTINUOUS
 62
     7
 10
 82.758003234863281
 20
 8.1128582954406738
 11
 61.100887298583984
 21
 8.1128582954406738
  0
LINE
  8
0
  6
CONTINUOUS
 62
     7
 10
 62.060886383056641
 20
 9.8128533363342285
 11
 62.060886383056641
 21
 8.1128582954406738
  0
TEXT
  8
0
  6
CONTINUOUS
 62
     7
 10
 61.100887333553096
 20
 11.412853475413055
 11
 61.100887080027036
 21
 17.212853475413045
 40
 2
 41
 0.8
  1
１．７
 50
 90.000004039712721
 72
  5
  0
LINE
  8
0
  6
CONTINUOUS
 62
     7
 10
 62.060886383056641
 20
 14.612848281860352
 11
 62.060886383056641
 21
 9.8128533363342285
  0
LINE
  8
0
  6
CONTINUOUS
 62
     7
 10
 62.060886383056641
 20
 9.8128533363342285
 11
 62.8373435183642
 21
 12.710630815201434
  0
LINE
  8
0
  6
CONTINUOUS
 62
     7
 10
 62.060886383056641
 20
 9.8128533363342285
 11
 61.284429247749081
 21
 12.710630815201434
  0
LINE
  8
0
  6
CONTINUOUS
 62
     7
 10
 82.758003234863281
 20
 7.3128547668457031
 11
 61.100887298583984
 21
 7.3128547668457031
  0
LINE
  8
0
  6
CONTINUOUS
 62
     7
 10
 62.060886383056641
 20
 8.1128582954406738
 11
 62.060886383056641
 21
 7.3128547668457031
  0
TEXT
  8
0
  6
CONTINUOUS
 62
     7
 10
 61.100887333553096
 20
-1.321372989812166
 11
 61.100887080027036
 21
 4.4786270101878252
 40
 2
 41
 0.8
  1
０．８
 50
 90.000004039712721
 72
  5
  0
LINE
  8
0
  6
CONTINUOUS
 62
     7
 10
 62.060886383056641
 20
-2.9213767051696777
 11
 62.060886383056641
 21
 7.3128547668457031
  0
LINE
  8
0
  6
CONTINUOUS
 62
     7
 10
 62.060886383056641
 20
 7.3128547668457031
 11
 61.284429247749081
 21
 4.4150772879784981
  0
LINE
  8
0
  6
CONTINUOUS
 62
     7
 10
 62.060886383056641
 20
 7.3128547668457031
 11
 62.8373435183642
 21
 4.4150772879784981
  0
LINE
  8
0
  6
CONTINUOUS
 62
     7
 10
 87.020820617675781
 20
 5.8128557205200195
 11
 66.100879669189453
 21
 5.8128557205200195
  0
LINE
  8
0
  6
CONTINUOUS
 62
     7
 10
 67.060882568359375
 20
 7.3128547668457031
 11
 67.060882568359375
 21
 5.8128557205200195
  0
TEXT
  8
0
  6
CONTINUOUS
 62
     7
 10
 66.100883518855838
 20
-3.3405978719380203
 11
 66.10088326532977
 21
 2.4594021280619707
 40
 2
 41
 0.8
  1
１．５
 50
 90.000004039712721
 72
  5
  0
LINE
  8
0
  6
CONTINUOUS
 62
     7
 10
 67.060882568359375
 20
-4.9406018257141113
 11
 67.060882568359375
 21
 5.8128557205200195
  0
LINE
  8
0
  6
CONTINUOUS
 62
     7
 10
 67.060882568359375
 20
 5.8128557205200195
 11
 66.284425433051808
 21
 2.9150782416528145
  0
LINE
  8
0
  6
CONTINUOUS
 62
     7
 10
 67.060882568359375
 20
 5.8128557205200195
 11
 67.837339703666942
 21
 2.9150782416528145
  0
LINE
  8
0
  6
CONTINUOUS
 62
     7
 10
 67.060882568359375
 20
 15.492856979370117
 11
 67.060882568359375
 21
 7.3128547668457031
  0
LINE
  8
0
  6
CONTINUOUS
 62
     7
 10
 67.060882568359375
 20
 7.3128547668457031
 11
 67.837339703666942
 21
 10.210632245712908
  0
LINE
  8
0
  6
CONTINUOUS
 62
     7
 10
 67.060882568359375
 20
 7.3128547668457031
 11
 66.284425433051808
 21
 10.210632245712908
  0
CIRCLE
  8
0
  6
CONTINUOUS
 62
     7
 10
 62.060886383056641
 20
 8.1128582954406738
 40
 0.300000011920929
  0
TEXT
  8
0
  6
CONTINUOUS
 62
     7
 10
 60.8624885559082
 20
-12.209827423095703
 11
 95.162488555908212
 21
-12.209827423095703
 40
 3
 41
 0.8
  1
ネジ用抜け止めワッシヤー
 50
 0
 72
  5
  0
LINE
  8
0
  6
CONTINUOUS
 62
     7
 10
 60.995185852050781
 20
-13.20982551574707
 11
 97.341339111328125
 21
-13.20982551574707
  0
LINE
  8
0
  6
CONTINUOUS
 62
     7
 10
 97.341339111328125
 20
-13.20982551574707
 11
 94.985572814941406
 21
 7.1876096725463867
  0
LINE
  8
0
  6
CONTINUOUS
 62
     7
 10
 94.985572814941406
 20
 7.1876096725463867
 11
 94.546706703315365
 21
 4.2198838536631404
  0
LINE
  8
0
  6
CONTINUOUS
 62
     7
 10
 94.985572814941406
 20
 7.1876096725463867
 11
 96.089366522854775
 21
 4.3980506661134964
  0
TEXT
  8
0
  6
CONTINUOUS
 62
     7
 10
 67.062484741210937
 20
-16.959823608398438
 11
 96.662484884262085
 21
-16.959823608398438
 40
 2.5
 41
 0.8
  1
（ＴＭ－１４７　Ｎｏ．３）
 50
 0
 72
  5
  0
LINE
  8
0
  6
DASHDOT
 62
     7
 10
 64.080123901367188
 20
 122.31285858154297
 11
 123.42307281494141
 21
 122.31285858154297
  0
LINE
  8
0
  6
DASHDOT
 62
     7
 10
 64.080123901367188
 20
 120.71285247802734
 11
 123.42307281494141
 21
 120.71285247802734
  0
LINE
  8
0
  6
DIVIDE
 62
     6
 10
 108.51280975341797
 20
 88.812843322753906
 11
 108.51280975341797
 21
 26.312847137451172
  0
LINE
  8
0
  6
DIVIDE
 62
     6
 10
 113.5128173828125
 20
 88.812843322753906
 11
 113.5128173828125
 21
 26.312847137451172
  0
ARC
  8
0
  6
DIVIDE
 62
     6
 10
 108.5128173828125
 20
 88.812843322753906
 40
 5
 50
 0
 51
 90.000004039712721
  0
LINE
  8
0
  6
DIVIDE
 62
     6
 10
 108.51280975341797
 20
 88.812843322753906
 11
 93.512825012207031
 21
 88.812843322753906
  0
LINE
  8
0
  6
DIVIDE
 62
     6
 10
 108.5128173828125
 20
 93.812843322753906
 11
 93.512825012207031
 21
 93.812843322753906
  0
LINE
  8
0
  6
DIVIDE
 62
     6
 10
 88.512825012207031
 20
 88.812843322753906
 11
 88.512825012207031
 21
 42.312847137451172
  0
LINE
  8
0
  6
DIVIDE
 62
     6
 10
 88.762825012207031
 20
 42.312847137451172
 11
 88.762825012207031
 21
 41.312850952148438
  0
LINE
  8
0
  6
DIVIDE
 62
     6
 10
 88.512825012207031
 20
 41.312850952148438
 11
 88.512825012207031
 21
 40.312850952148438
  0
ARC
  8
0
  6
DIVIDE
 62
     6
 10
 93.512825012207031
 20
 88.812843322753906
 40
 5
 50
 90.000004039712721
 51
-179.9999980615126
  0
LINE
  8
0
  6
DIVIDE
 62
     6
 10
 93.512825012207031
 20
 88.812843322753906
 11
 93.512825012207031
 21
 42.312847137451172
  0
LINE
  8
0
  6
DIVIDE
 62
     6
 10
 93.2628173828125
 20
 42.312847137451172
 11
 93.2628173828125
 21
 41.312850952148438
  0
LINE
  8
0
  6
DIVIDE
 62
     6
 10
 93.512825012207031
 20
 41.312850952148438
 11
 93.512825012207031
 21
 40.312850952148438
  0
LINE
  8
0
  6
DIVIDE
 62
     6
 10
 113.0128173828125
 20
 25.812847137451172
 11
 109.01280975341797
 21
 25.812847137451172
  0
LINE
  8
0
  6
DIVIDE
 62
     6
 10
 113.5128173828125
 20
 26.312847137451172
 11
 108.51280975341797
 21
 26.312847137451172
  0
LINE
  8
0
  6
DIVIDE
 62
     6
 10
 108.51280975341797
 20
 26.312847137451172
 11
 109.01280975341797
 21
 25.812847137451172
  0
LINE
  8
0
  6
DIVIDE
 62
     6
 10
 113.5128173828125
 20
 26.312847137451172
 11
 113.0128173828125
 21
 25.812847137451172
  0
LINE
  8
0
  6
DIVIDE
 62
     6
 10
 89.0128173828125
 20
 39.812850952148438
 11
 93.0128173828125
 21
 39.812850952148438
  0
LINE
  8
0
  6
DIVIDE
 62
     6
 10
 88.512825012207031
 20
 40.312850952148438
 11
 93.512825012207031
 21
 40.312850952148438
  0
LINE
  8
0
  6
DIVIDE
 62
     6
 10
 88.512825012207031
 20
 40.312850952148438
 11
 89.0128173828125
 21
 39.812850952148438
  0
LINE
  8
0
  6
DIVIDE
 62
     6
 10
 93.512825012207031
 20
 40.312850952148438
 11
 93.0128173828125
 21
 39.812850952148438
  0
LINE
  8
0
  6
DIVIDE
 62
     6
 10
 88.512825012207031
 20
 41.312850952148438
 11
 93.512825012207031
 21
 41.312850952148438
  0
LINE
  8
0
  6
DIVIDE
 62
     6
 10
 88.512825012207031
 20
 42.312847137451172
 11
 93.512825012207031
 21
 42.312847137451172
  0
LINE
  8
0
  6
DIVIDE
 62
     2
 10
 108.51280975341797
 20
 117.81284332275391
 11
 108.51280975341797
 21
 55.312847137451172
  0
LINE
  8
0
  6
DIVIDE
 62
     2
 10
 113.5128173828125
 20
 117.81284332275391
 11
 113.5128173828125
 21
 55.312847137451172
  0
ARC
  8
0
  6
DIVIDE
 62
     2
 10
 108.5128173828125
 20
 117.81284332275391
 40
 5
 50
 0
 51
 90.000004039712721
  0
LINE
  8
0
  6
DIVIDE
 62
     2
 10
 108.51280975341797
 20
 117.81284332275391
 11
 93.512825012207031
 21
 117.81284332275391
  0
LINE
  8
0
  6
DIVIDE
 62
     2
 10
 108.5128173828125
 20
 122.81284332275391
 11
 93.512825012207031
 21
 122.81284332275391
  0
LINE
  8
0
  6
DIVIDE
 62
     2
 10
 88.512825012207031
 20
 117.81284332275391
 11
 88.512825012207031
 21
 71.312843322753906
  0
LINE
  8
0
  6
DIVIDE
 62
     2
 10
 88.762825012207031
 20
 71.312843322753906
 11
 88.762825012207031
 21
 70.312858581542969
  0
LINE
  8
0
  6
DIVIDE
 62
     2
 10
 88.512825012207031
 20
 70.312858581542969
 11
 88.512825012207031
 21
 69.312858581542969
  0
ARC
  8
0
  6
DIVIDE
 62
     2
 10
 93.512825012207031
 20
 117.81284332275391
 40
 5
 50
 90.000004039712721
 51
-179.9999980615126
  0
LINE
  8
0
  6
DIVIDE
 62
     2
 10
 93.512825012207031
 20
 117.81284332275391
 11
 93.512825012207031
 21
 71.312843322753906
  0
LINE
  8
0
  6
DIVIDE
 62
     2
 10
 93.2628173828125
 20
 71.312843322753906
 11
 93.2628173828125
 21
 70.312858581542969
  0
LINE
  8
0
  6
DIVIDE
 62
     2
 10
 93.512825012207031
 20
 70.312858581542969
 11
 93.512825012207031
 21
 69.312858581542969
  0
LINE
  8
0
  6
DIVIDE
 62
     2
 10
 113.0128173828125
 20
 54.812847137451172
 11
 109.01280975341797
 21
 54.812847137451172
  0
LINE
  8
0
  6
DIVIDE
 62
     2
 10
 113.5128173828125
 20
 55.312847137451172
 11
 108.51280975341797
 21
 55.312847137451172
  0
LINE
  8
0
  6
DIVIDE
 62
     2
 10
 108.51280975341797
 20
 55.312847137451172
 11
 109.01280975341797
 21
 54.812847137451172
  0
LINE
  8
0
  6
DIVIDE
 62
     2
 10
 113.5128173828125
 20
 55.312847137451172
 11
 113.0128173828125
 21
 54.812847137451172
  0
LINE
  8
0
  6
DIVIDE
 62
     2
 10
 89.0128173828125
 20
 68.812858581542969
 11
 93.0128173828125
 21
 68.812858581542969
  0
LINE
  8
0
  6
DIVIDE
 62
     2
 10
 88.512825012207031
 20
 69.312858581542969
 11
 93.512825012207031
 21
 69.312858581542969
  0
LINE
  8
0
  6
DIVIDE
 62
     2
 10
 88.512825012207031
 20
 69.312858581542969
 11
 89.0128173828125
 21
 68.812858581542969
  0
LINE
  8
0
  6
DIVIDE
 62
     2
 10
 93.512825012207031
 20
 69.312858581542969
 11
 93.0128173828125
 21
 68.812858581542969
  0
LINE
  8
0
  6
DIVIDE
 62
     2
 10
 88.512825012207031
 20
 70.312858581542969
 11
 93.512825012207031
 21
 70.312858581542969
  0
LINE
  8
0
  6
DIVIDE
 62
     2
 10
 88.512825012207031
 20
 71.312843322753906
 11
 93.512825012207031
 21
 71.312843322753906
  0
LINE
  8
0
  6
CONTINUOUS
 62
     7
 10
 133.51279449462891
 20
 113.03285980224609
 11
 133.51279449462891
 21
 120.71285247802734
  0
LINE
  8
0
  6
CONTINUOUS
 62
     7
 10
 133.51279449462891
 20
 120.71285247802734
 11
 132.73633735932134
 21
 117.81507499916015
  0
LINE
  8
0
  6
CONTINUOUS
 62
     7
 10
 133.51279449462891
 20
 120.71285247802734
 11
 134.28925162993647
 21
 117.81507499916015
  0
LINE
  8
0
  6
CONTINUOUS
 62
     7
 10
 133.51279449462891
 20
 120.71285247802734
 11
 133.51279449462891
 21
 122.81285858154297
  0
TEXT
  8
0
  6
CONTINUOUS
 62
     7
 10
 132.55278781573082
 20
 124.41285252173871
 11
 132.55278756220477
 21
 130.21285252173874
 40
 2
 41
 0.8
  1
２．１
 50
 90.000004039712721
 72
  5
  0
TEXT
  8
0
  6
CONTINUOUS
 62
     7
 10
 66.694218444824216
 20
 109.64108276367187
 11
 74.894218444824219
 21
 109.64108276367187
 40
 3
 41
 0.8
  1
保護板
 50
 0
 72
  5
  0
LINE
  8
0
  6
CONTINUOUS
 62
     7
 10
 64.528835296630859
 20
 109.14108276367187
 11
 81.019218444824219
 21
 109.14108276367187
  0
LINE
  8
0
  6
CONTINUOUS
 62
     7
 10
 81.019218444824219
 20
 109.14108276367187
 11
 73.278831481933594
 21
 120.56415557861328
  0
LINE
  8
0
  6
CONTINUOUS
 62
     7
 10
 73.278831481933594
 20
 120.56415557861328
 11
 74.261571369463482
 21
 117.7296852024305
  0
LINE
  8
0
  6
CONTINUOUS
 62
     7
 10
 73.278831481933594
 20
 120.56415557861328
 11
 75.547144377938125
 21
 118.6008021703295
  0
TEXT
  8
0
  6
CONTINUOUS
 62
     7
 10
 65.120128684045469
 20
 69.212857121231153
 11
 65.120128198849031
 21
 80.312857121231133
 40
 3
 41
 0.8
  1
（最小）
 50
 90.000004039712721
 72
  5
  0
LINE
  8
0
  6
CONTINUOUS
 62
     7
 10
 67.782035827636719
 20
 63.868625640869141
 11
 96.05126953125
 21
 63.868625640869141
  0
LINE
  8
0
  6
CONTINUOUS
 62
     7
 10
 96.05126953125
 20
 63.868625640869141
 11
 101.01282501220703
 21
 59.812847137451172
  0
LINE
  8
0
  6
CONTINUOUS
 62
     7
 10
 101.01282501220703
 20
 59.812847137451172
 11
 99.260669691952657
 21
 62.247996359512179
  0
LINE
  8
0
  6
CONTINUOUS
 62
     7
 10
 101.01282501220703
 20
 59.812847137451172
 11
 98.277839382460186
 21
 61.04567056563473
  0
TEXT
  8
0
  6
CONTINUOUS
 62
     7
 10
 149.17051086425781
 20
 118.14105987548828
 11
 175.07051086425781
 21
 118.14105987548828
 40
 3.5
 41
 0.8
  1
Ｕ形ピン外し位置
 50
 0
 72
  5
  0
LINE
  8
0
  6
CONTINUOUS
 62
     7
 10
 177.49359130859375
 20
 117.89106750488281
 11
 141.59614562988281
 21
 117.89106750488281
  0
LINE
  8
0
  6
CONTINUOUS
 62
     7
 10
 141.59614562988281
 20
 117.89106750488281
 11
 144.49392310875001
 21
 117.11461036957525
  0
LINE
  8
0
  6
CONTINUOUS
 62
     7
 10
 141.59614562988281
 20
 117.89106750488281
 11
 144.49392310875001
 21
 118.66752464019038
  0
TEXT
  8
0
  6
CONTINUOUS
 62
     7
 10
 149.17051086425781
 20
 105.64105987548828
 11
 175.07051086425781
 21
 105.64105987548828
 40
 3.5
 41
 0.8
  1
樹脂蝶番外し位置
 50
 0
 72
  5
  0
LINE
  8
0
  6
CONTINUOUS
 62
     7
 10
 177.49359130859375
 20
 105.39106750488281
 11
 141.59614562988281
 21
 105.39106750488281
  0
LINE
  8
0
  6
CONTINUOUS
 62
     7
 10
 141.59614562988281
 20
 105.39106750488281
 11
 144.49392310875001
 21
 104.61461036957525
  0
LINE
  8
0
  6
CONTINUOUS
 62
     7
 10
 141.59614562988281
 20
 105.39106750488281
 11
 144.49392310875001
 21
 106.16752464019038
  0
TEXT
  8
0
  6
CONTINUOUS
 62
     7
 10
 149.17051086425781
 20
 90.641059875488281
 11
 178.3705108642578
 21
 90.641059875488281
 40
 3.5
 41
 0.8
  1
支柱よりの外し位置
 50
 0
 72
  5
  0
LINE
  8
0
  6
CONTINUOUS
 62
     7
 10
 180.63459777832031
 20
 90.391067504882812
 11
 141.59614562988281
 21
 90.391067504882812
  0
LINE
  8
0
  6
CONTINUOUS
 62
     7
 10
 141.59614562988281
 20
 90.391067504882812
 11
 144.49392310875001
 21
 89.614610369575246
  0
LINE
  8
0
  6
CONTINUOUS
 62
     7
 10
 141.59614562988281
 20
 90.391067504882812
 11
 144.49392310875001
 21
 91.167524640190379
  0
LINE
  8
0
  6
CONTINUOUS
 62
     7
 10
 133.51279449462891
 20
 131.81285858154297
 11
 133.51279449462891
 21
 122.81285858154297
  0
LINE
  8
0
  6
CONTINUOUS
 62
     7
 10
 133.51279449462891
 20
 122.81285858154297
 11
 134.28925162993647
 21
 125.71063606041017
  0
LINE
  8
0
  6
CONTINUOUS
 62
     7
 10
 133.51279449462891
 20
 122.81285858154297
 11
 132.73633735932134
 21
 125.71063606041017
  0
LINE
  8
256
  6
CONTINUOUS
 62
     7
 10
-193.30000000000001
 20
 124.99999645625348
 11
-93.300000000000011
 21
 124.99999645625348
  0
LINE
  8
256
  6
CONTINUOUS
 62
     7
 10
-93.300000000000011
 20
 124.9999964562535
 11
-93.300000000000011
 21
 136.99999721136808
  0
TEXT
  8
256
  6
CONTINUOUS
 62
     7
 10
-188.30000000000001
 20
 127.99999604817611
 11
-140.30000000000001
 21
 127.99999604817611
 40
 6
 41
 1
  1
ＬＢ－Ｄ９９５０
 50
 0
 72
  5
  0
LINE
  8
256
  6
CONTINUOUS
 62
     7
 10
 104.99998474121094
 20
-121.5
 11
 200
 21
-121.5
  0
LINE
  8
256
  6
CONTINUOUS
 62
     7
 10
 170.99998474121094
 20
-109.5
 11
 170.99998474121094
 21
-121.5
  0
TEXT
  8
256
  6
CONTINUOUS
 62
     7
 10
 112.5
 20
-134.25
 11
 142.5
 21
-134.25
 40
 6
 41
 1
  1
ＳＱ－ＵＰ
 50
 0
 72
  5
  0
TEXT
  8
256
  6
CONTINUOUS
 62
     7
 10
 115.99998474121094
 20
-119.75
 11
 159.99998474121094
 21
-119.75
 40
 5
 41
 0.8
  1
保護板支柱用　Ｕ形ピン
 50
 0
 72
  5
  0
TEXT
  8
256
  6
CONTINUOUS
 62
     7
 10
 106.29998779296875
 20
-112.4499633789062
 11
 111.29998779296875
 21
-112.4499633789062
 40
 2.5
 41
 0.8
  1
品名
 50
 0
 72
  5
  0
TEXT
  8
256
  6
CONTINUOUS
 62
     7
 10
 106.29998779296875
 20
-124.45003051757811
 11
 111.29998779296875
 21
-124.45003051757811
 40
 2.5
 41
 0.8
  1
品番
 50
 0
 72
  5
  0
LINE
  8
256
  6
CONTINUOUS
 62
     7
 10
 104.99998474121094
 20
-139.5
 11
 104.99998474121094
 21
-109.5
  0
LINE
  8
256
  6
CONTINUOUS
 62
     7
 10
 104.99998474121094
 20
-109.5
 11
 200
 21
-109.5
  0
LINE
  8
256
  6
CONTINUOUS
 62
     7
 10
-193.30000000000001
 20
 136.99999721136808
 11
-193.30000000000001
 21
-139.49999999999994
  0
LINE
  8
256
  6
CONTINUOUS
 62
     7
 10
-193.30000000000001
 20
 136.99999721136808
 11
 200
 21
 136.99999721136808
  0
LINE
  8
256
  6
CONTINUOUS
 62
     7
 10
 200
 20
-139.5
 11
-193.30000000000001
 21
-139.49999999999994
  0
LINE
  8
256
  6
CONTINUOUS
 62
     7
 10
 200
 20
 136.99999721136808
 11
 200
 21
-139.5
  0
LINE
  8
0
  6
CONTINUOUS
 62
     7
 10
 126.01286315917969
 20
-39.349288940429688
 11
 126.01286315917969
 21
-34.127159118652344
  0
LINE
  8
0
  6
CONTINUOUS
 62
     7
 10
 111.01284790039062
 20
-38.283573150634766
 11
 111.01284790039062
 21
-34.127159118652344
  0
LINE
  8
0
  6
CONTINUOUS
 62
     7
 10
 126.01286315917969
 20
-35.087158203125
 11
 111.01284790039062
 21
-35.087158203125
  0
LINE
  8
0
  6
CONTINUOUS
 62
     7
 10
 126.01286315917969
 20
-35.087158203125
 11
 123.11508568031249
 21
-34.31070106781744
  0
LINE
  8
0
  6
CONTINUOUS
 62
     7
 10
 126.01286315917969
 20
-35.087158203125
 11
 123.11508568031249
 21
-35.86361533843256
  0
LINE
  8
0
  6
CONTINUOUS
 62
     7
 10
 111.01284790039062
 20
-35.087158203125
 11
 113.91062537925782
 21
-35.86361533843256
  0
LINE
  8
0
  6
CONTINUOUS
 62
     7
 10
 111.01284790039062
 20
-35.087158203125
 11
 113.91062537925782
 21
-34.31070106781744
  0
TEXT
  8
0
  6
CONTINUOUS
 62
     7
 10
 116.66286010742188
 20
-34.127162933349609
 11
 120.36286010742188
 21
-34.127162933349609
 40
 2
 41
 0.8
  1
15
 50
 0
 72
  5
  0
LINE
  8
0
  6
CONTINUOUS
 62
     7
 10
 91.0128173828125
 20
-38.458232879638672
 11
 91.0128173828125
 21
-34.127159118652344
  0
LINE
  8
0
  6
CONTINUOUS
 62
     7
 10
 91.0128173828125
 20
-35.087158203125
 11
 111.01284790039062
 21
-35.087158203125
  0
LINE
  8
0
  6
CONTINUOUS
 62
     7
 10
 91.0128173828125
 20
-35.087158203125
 11
 93.910594861679698
 21
-35.86361533843256
  0
LINE
  8
0
  6
CONTINUOUS
 62
     7
 10
 91.0128173828125
 20
-35.087158203125
 11
 93.910594861679698
 21
-34.31070106781744
  0
LINE
  8
0
  6
CONTINUOUS
 62
     7
 10
 111.01284790039062
 20
-35.087158203125
 11
 108.11507042152343
 21
-34.31070106781744
  0
LINE
  8
0
  6
CONTINUOUS
 62
     7
 10
 111.01284790039062
 20
-35.087158203125
 11
 108.11507042152343
 21
-35.86361533843256
  0
TEXT
  8
0
  6
CONTINUOUS
 62
     7
 10
 99.162829589843753
 20
-34.127162933349609
 11
 102.86282958984376
 21
-34.127162933349609
 40
 2
 41
 0.8
  1
20
 50
 0
 72
  5
  0
LINE
  8
0
  6
CONTINUOUS
 62
     7
 10
 116.69229888916016
 20
 93.812843322753906
 11
 129.47279357910156
 21
 93.812843322753906
  0
LINE
  8
0
  6
CONTINUOUS
 62
     7
 10
 128.51280212402344
 20
 93.812843322753906
 11
 128.51280212402344
 21
 24.812854766845703
  0
LINE
  8
0
  6
CONTINUOUS
 62
     7
 10
 128.51280212402344
 20
 93.812843322753906
 11
 127.73634498871587
 21
 90.915065843886708
  0
LINE
  8
0
  6
CONTINUOUS
 62
     7
 10
 128.51280212402344
 20
 93.812843322753906
 11
 129.289259259331
 21
 90.915065843886708
  0
LINE
  8
0
  6
CONTINUOUS
 62
     7
 10
 128.51280212402344
 20
 24.812854766845703
 11
 129.289259259331
 21
 27.710632245712908
  0
LINE
  8
0
  6
CONTINUOUS
 62
     7
 10
 128.51280212402344
 20
 24.812854766845703
 11
 127.73634498871587
 21
 27.710632245712908
  0
TEXT
  8
0
  6
CONTINUOUS
 62
     7
 10
 127.5528030745199
 20
 57.462844129404751
 11
 127.55280291278775
 21
 61.162844129404725
 40
 2
 41
 0.8
  1
69
 50
 90.000004039712721
 72
  5
  0
LINE
  8
0
  6
CONTINUOUS
 62
     7
 10
-86.773185729980469
 20
 56.671817779541016
 11
-62.065643310546875
 21
 56.671817779541016
  0
LINE
  8
0
  6
CONTINUOUS
 62
     7
 10
-80.603317260742187
 20
-6.3281793594360352
 11
-62.065643310546875
 21
-6.3281793594360352
  0
LINE
  8
0
  6
CONTINUOUS
 62
     7
 10
-63.025642395019531
 20
 56.671817779541016
 11
-63.025642395019531
 21
-6.3281793594360352
  0
LINE
  8
0
  6
CONTINUOUS
 62
     7
 10
-63.025642395019531
 20
 56.671817779541016
 11
-63.802099530327091
 21
 53.774040300673811
  0
LINE
  8
0
  6
CONTINUOUS
 62
     7
 10
-63.025642395019531
 20
 56.671817779541016
 11
-62.249185259711972
 21
 53.774040300673811
  0
LINE
  8
0
  6
CONTINUOUS
 62
     7
 10
-63.025642395019531
 20
-6.3281793594360352
 11
-62.249185259711972
 21
-3.4304018805688301
  0
LINE
  8
0
  6
CONTINUOUS
 62
     7
 10
-63.025642395019531
 20
-6.3281793594360352
 11
-63.802099530327091
 21
-3.4304018805688301
  0
TEXT
  8
0
  6
CONTINUOUS
 62
     7
 10
-63.985641444523068
 20
 23.321816678843231
 11
-63.985641606255221
 21
 27.02181667884323
 40
 2
 41
 0.8
  1
63
 50
 90.000004039712721
 72
  5
  0
LINE
  8
0
  6
CONTINUOUS
 62
     7
 10
-109.10490417480469
 20
 7.6718249320983887
 11
-123.98564147949219
 21
 7.6718249320983887
  0
LINE
  8
0
  6
CONTINUOUS
 62
     7
 10
-104.55364227294922
 20
 56.671817779541016
 11
-123.98564147949219
 21
 56.671817779541016
  0
LINE
  8
0
  6
CONTINUOUS
 62
     7
 10
-123.025634765625
 20
 7.6718249320983887
 11
-123.025634765625
 21
 56.671817779541016
  0
LINE
  8
0
  6
CONTINUOUS
 62
     7
 10
-123.025634765625
 20
 7.6718249320983887
 11
-122.24917763031743
 21
 10.569602410965594
  0
LINE
  8
0
  6
CONTINUOUS
 62
     7
 10
-123.025634765625
 20
 7.6718249320983887
 11
-123.80209190093257
 21
 10.569602410965594
  0
LINE
  8
0
  6
CONTINUOUS
 62
     7
 10
-123.025634765625
 20
 56.671817779541016
 11
-123.80209190093257
 21
 53.774040300673811
  0
LINE
  8
0
  6
CONTINUOUS
 62
     7
 10
-123.025634765625
 20
 56.671817779541016
 11
-122.24917763031743
 21
 53.774040300673811
  0
TEXT
  8
0
  6
CONTINUOUS
 62
     7
 10
-123.98564144452307
 20
 30.321820493540496
 11
-123.98564160625521
 21
 34.021820493540496
 40
 2
 41
 0.8
  1
49
 50
 90.000004039712721
 72
  5
  0
LINE
  8
0
  6
CONTINUOUS
 62
     7
 10
-105.52562713623047
 20
 64.586624145507813
 11
-105.52562713623047
 21
 72.631820678710938
  0
LINE
  8
0
  6
CONTINUOUS
 62
     7
 10
-85.525650024414063
 20
 64.586624145507813
 11
-85.525650024414063
 21
 72.631820678710938
  0
LINE
  8
0
  6
CONTINUOUS
 62
     7
 10
-105.52562713623047
 20
 71.671821594238281
 11
-85.525650024414063
 21
 71.671821594238281
  0
LINE
  8
0
  6
CONTINUOUS
 62
     7
 10
-105.52562713623047
 20
 71.671821594238281
 11
-102.62784965736327
 21
 70.895364458930715
  0
LINE
  8
0
  6
CONTINUOUS
 62
     7
 10
-105.52562713623047
 20
 71.671821594238281
 11
-102.62784965736327
 21
 72.448278729545848
  0
LINE
  8
0
  6
CONTINUOUS
 62
     7
 10
-85.525650024414063
 20
 71.671821594238281
 11
-88.42342750328126
 21
 72.448278729545848
  0
LINE
  8
0
  6
CONTINUOUS
 62
     7
 10
-85.525650024414063
 20
 71.671821594238281
 11
-88.42342750328126
 21
 70.895364458930715
  0
TEXT
  8
0
  6
CONTINUOUS
 62
     7
 10
-97.37563781738281
 20
 72.631820678710938
 11
-93.675637817382807
 21
 72.631820678710938
 40
 2
 41
 0.8
  1
20
 50
 0
 72
  5
  0
LINE
  8
0
  6
CONTINUOUS
 62
     7
 10
-88.025650024414063
 20
-8.6946659088134766
 11
-88.025650024414063
 21
-22.288187026977539
  0
LINE
  8
0
  6
CONTINUOUS
 62
     7
 10
-83.025642395019531
 20
-8.6946659088134766
 11
-83.025642395019531
 21
-22.288187026977539
  0
LINE
  8
0
  6
CONTINUOUS
 62
     7
 10
-88.025650024414063
 20
-21.328184127807617
 11
-83.025642395019531
 21
-21.328184127807617
  0
LINE
  8
0
  6
CONTINUOUS
 62
     7
 10
-88.025650024414063
 20
-21.328184127807617
 11
-85.127872545546865
 21
-22.10464126311518
  0
LINE
  8
0
  6
CONTINUOUS
 62
     7
 10
-88.025650024414063
 20
-21.328184127807617
 11
-85.127872545546865
 21
-20.551726992500054
  0
LINE
  8
0
  6
CONTINUOUS
 62
     7
 10
-83.025642395019531
 20
-21.328184127807617
 11
-85.923419873886729
 21
-20.551726992500054
  0
LINE
  8
0
  6
CONTINUOUS
 62
     7
 10
-83.025642395019531
 20
-21.328184127807617
 11
-85.923419873886729
 21
-22.10464126311518
  0
TEXT
  8
0
  6
CONTINUOUS
 62
     7
 10
-87.32565002441406
 20
-20.368186950683594
 11
-83.625650024414057
 21
-20.368186950683594
 40
 2
 41
 0.8
  1
φ5
 50
 0
 72
  5
  0
LINE
  8
0
  6
CONTINUOUS
 62
     2
 10
 116.92362976074219
 20
 107.81284332275391
 11
 134.47279357910156
 21
 107.81284332275391
  0
LINE
  8
0
  6
CONTINUOUS
 62
     2
 10
 133.51279449462891
 20
 107.81284332275391
 11
 133.51279449462891
 21
 24.812854766845703
  0
LINE
  8
0
  6
CONTINUOUS
 62
     2
 10
 133.51279449462891
 20
 107.81284332275391
 11
 132.73633735932134
 21
 104.91506584388671
  0
LINE
  8
0
  6
CONTINUOUS
 62
     2
 10
 133.51279449462891
 20
 107.81284332275391
 11
 134.28925162993647
 21
 104.91506584388671
  0
LINE
  8
0
  6
CONTINUOUS
 62
     2
 10
 133.51279449462891
 20
 24.812854766845703
 11
 134.28925162993647
 21
 27.710632245712908
  0
LINE
  8
0
  6
CONTINUOUS
 62
     2
 10
 133.51279449462891
 20
 24.812854766845703
 11
 132.73633735932134
 21
 27.710632245712908
  0
TEXT
  8
0
  6
CONTINUOUS
 62
     2
 10
 132.55278781573082
 20
 64.462844129404729
 11
 132.55278765399868
 21
 68.162844129404718
 40
 2
 41
 0.8
  1
83
 50
 90.000004039712721
 72
  5
  0
LINE
  8
0
  6
CONTINUOUS
 62
     7
 10
 123.42307281494141
 20
 120.71285247802734
 11
 134.47279357910156
 21
 120.71285247802734
  0
LINE
  8
0
  6
CONTINUOUS
 62
     7
 10
 133.51279449462891
 20
 120.71285247802734
 11
 133.51279449462891
 21
 107.81284332275391
  0
LINE
  8
0
  6
CONTINUOUS
 62
     7
 10
 133.51279449462891
 20
 120.71285247802734
 11
 132.73633735932134
 21
 117.81507499916015
  0
LINE
  8
0
  6
CONTINUOUS
 62
     7
 10
 133.51279449462891
 20
 120.71285247802734
 11
 134.28925162993647
 21
 117.81507499916015
  0
LINE
  8
0
  6
CONTINUOUS
 62
     7
 10
 133.51279449462891
 20
 107.81284332275391
 11
 134.28925162993647
 21
 110.7106208016211
  0
LINE
  8
0
  6
CONTINUOUS
 62
     7
 10
 133.51279449462891
 20
 107.81284332275391
 11
 132.73633735932134
 21
 110.7106208016211
  0
TEXT
  8
0
  6
CONTINUOUS
 62
     7
 10
 132.55278781573082
 20
 110.31284641822309
 11
 132.55278747041086
 21
 118.21284641822309
 40
 2
 41
 0.8
  1
12.9
 50
 90.000004039712721
 72
  5
  0
LINE
  8
0
  6
CONTINUOUS
 62
     7
 10
 138.01280212402344
 20
 24.812854766845703
 11
 132.55280303955078
 21
 24.812854766845703
  0
LINE
  8
0
  6
CONTINUOUS
 62
     7
 10
 112.67050170898437
 20
 122.81284332275391
 11
 139.47280883789062
 21
 122.81284332275391
  0
LINE
  8
0
  6
CONTINUOUS
 62
     7
 10
 138.51280212402344
 20
 122.81284332275391
 11
 138.51280212402344
 21
 24.812854766845703
  0
LINE
  8
0
  6
CONTINUOUS
 62
     7
 10
 138.51280212402344
 20
 122.81284332275391
 11
 137.73634498871587
 21
 119.91506584388671
  0
LINE
  8
0
  6
CONTINUOUS
 62
     7
 10
 138.51280212402344
 20
 122.81284332275391
 11
 139.289259259331
 21
 119.91506584388671
  0
LINE
  8
0
  6
CONTINUOUS
 62
     7
 10
 138.51280212402344
 20
 24.812854766845703
 11
 139.289259259331
 21
 27.710632245712908
  0
LINE
  8
0
  6
CONTINUOUS
 62
     7
 10
 138.51280212402344
 20
 24.812854766845703
 11
 137.73634498871587
 21
 27.710632245712908
  0
TEXT
  8
0
  6
CONTINUOUS
 62
     7
 10
 137.55279544512535
 20
 71.962855573496526
 11
 137.55279528339321
 21
 75.662855573496515
 40
 2
 41
 0.8
  1
98
 50
 90.000004039712721
 72
  5
  0
LINE
  8
0
  6
CONTINUOUS
 62
     7
 10
 60.205123901367188
 20
 24.812854766845703
 11
 62.540126800537109
 21
 24.812854766845703
  0
LINE
  8
0
  6
CONTINUOUS
 62
     7
 10
 63.580123901367188
 20
 122.31285858154297
 11
 60.620128631591797
 21
 122.31285858154297
  0
LINE
  8
0
  6
CONTINUOUS
 62
     7
 10
 61.580127716064453
 20
 24.812854766845703
 11
 61.580127716064453
 21
 122.31285858154297
  0
LINE
  8
0
  6
CONTINUOUS
 62
     7
 10
 61.580127716064453
 20
 24.812854766845703
 11
 62.356584851372013
 21
 27.710632245712908
  0
LINE
  8
0
  6
CONTINUOUS
 62
     7
 10
 61.580127716064453
 20
 24.812854766845703
 11
 60.803670580756894
 21
 27.710632245712908
  0
LINE
  8
0
  6
CONTINUOUS
 62
     7
 10
 61.580127716064453
 20
 122.31285858154297
 11
 60.803670580756894
 21
 119.41508110267577
  0
LINE
  8
0
  6
CONTINUOUS
 62
     7
 10
 61.580127716064453
 20
 122.31285858154297
 11
 62.356584851372013
 21
 119.41508110267577
  0
TEXT
  8
0
  6
CONTINUOUS
 62
     7
 10
 60.620128666560909
 20
 69.612857099375447
 11
 60.620128321240927
 21
 77.512857099375452
 40
 2
 41
 0.8
  1
97.5
 50
 90.000004039712721
 72
  5
  0
ENDSEC
  0
EOF
