  0
SECTION
  2
HEADER
  9
$INSBASE
 10
0.0
20
0.0
  9
$REGENMODE
 70
     1
  9
$DRAGMODE
 70
     1
  9
$DIMTAD
 70
     1
  9
$EXTMIN
 10
-210.000000
 20
-148.500000
 30
 0.0
  9
$EXTMAX
 10
210.000000
 20
148.500000
 30
 0.0
  9
$LUPREC
 70
    3
  9
$AUPREC
 70
    3
  9
$LTSCALE
 40
26.250000
  0
ENDSEC
  0
SECTION
  2
TABLES
  0
TABLE
  2
LTYPE
 70
     6
  0
LTYPE
  2
CONTINUOUS
 70
    64
  3
SOLID
 72
    65
 73
     0
 40
0.0
  0
LTYPE
  2
DASHED2
 70
    64
  3
_ _ _ _ _ _ _ _ _ _ _ _ _ _ _ _ _ _ _ _ _ _ 
 72
    65
 73
     2
 40
0.5
 49
0.25
 49
-0.25
  0
LTYPE
  2
DASHED
 70
    64
  3
__ __ __ __ __ __ __ __ __ __ __ __ __ __ __
 72
    65
 73
     2
 40
0.75
 49
0.5
 49
-0.25
  0
LTYPE
  2
DASHEDX2
 70
    64
  3
____  ____  ____  ____  ____  ____  ____  __
 72
    65
 73
     2
 40
1.5
 49
1.0
 49
-0.5
  0
LTYPE
  2
DOT
 70
    64
  3
............................................
 72
    65
 73
     2
 40
0.25
 49
0
 49
-0.25
  0
LTYPE
  2
DASHDOT
 70
    64
  3
__ . __ . __ . __ . __ . __ . __ . __ . __ .
 72
    65
 73
     4
 40
1.0
 49
0.5
 49
-0.25
 49
0.0
 49
-0.25
  0
LTYPE
  2
CENTER
 70
    64
  3
____ _ ____ _ ____ _ ____ _ ____ _ ____ _ __
 72
    65
 73
     4
 40
2.0
 49
1.25
 49
-0.25
 49
0.25
 49
-0.25
  0
LTYPE
  2
DIVIDE
 70
    64
  3
__ . . __ . . __ . . __ . . __ . . __ . . __
 72
    65
 73
     6
 40
1.25
 49
0.5
 49
-0.25
 49
0.0
 49
-0.25
 49
0.0
 49
-0.25
  0
LTYPE
  2
PHANTOM2
 70
    64
  3
___ _ _ ___ _ _ ___ _ _ ___ _ _ ___ _ _ ___ 
 72
    65
 73
     6
 40
1.25
 49
0.625
 49
-0.125
 49
0.125
 49
-0.125
 49
0.125
 49
-0.125
  0
LTYPE
  2
DOTX2
 70
    64
  3
. . . . . . . . . . . . . . . . . . . . . . 
 72
    65
 73
     2
 40
0.5
 49
0
 49
-0.5
  0
ENDTAB
  0
TABLE
  2
LAYER
 70
   255
  0
LAYER
  2
0
 70
    64
 62
     7
  6
CONTINUOUS
  0
LAYER
  2
1
 70
    64
 62
     7
  6
CONTINUOUS
  0
LAYER
  2
2
 70
    64
 62
     7
  6
CONTINUOUS
  0
LAYER
  2
3
 70
    64
 62
     7
  6
CONTINUOUS
  0
LAYER
  2
4
 70
    64
 62
     7
  6
CONTINUOUS
  0
LAYER
  2
5
 70
    64
 62
     7
  6
CONTINUOUS
  0
LAYER
  2
6
 70
    64
 62
     7
  6
CONTINUOUS
  0
LAYER
  2
7
 70
    64
 62
     7
  6
CONTINUOUS
  0
LAYER
  2
8
 70
    64
 62
     7
  6
CONTINUOUS
  0
LAYER
  2
9
 70
    64
 62
     7
  6
CONTINUOUS
  0
LAYER
  2
10
 70
    64
 62
     7
  6
CONTINUOUS
  0
LAYER
  2
11
 70
    64
 62
     7
  6
CONTINUOUS
  0
LAYER
  2
12
 70
    64
 62
     7
  6
CONTINUOUS
  0
LAYER
  2
13
 70
    64
 62
     7
  6
CONTINUOUS
  0
LAYER
  2
14
 70
    64
 62
     7
  6
CONTINUOUS
  0
LAYER
  2
15
 70
    64
 62
     7
  6
CONTINUOUS
  0
LAYER
  2
16
 70
    64
 62
     7
  6
CONTINUOUS
  0
LAYER
  2
17
 70
    64
 62
     7
  6
CONTINUOUS
  0
LAYER
  2
18
 70
    64
 62
     7
  6
CONTINUOUS
  0
LAYER
  2
19
 70
    64
 62
     7
  6
CONTINUOUS
  0
LAYER
  2
20
 70
    64
 62
     7
  6
CONTINUOUS
  0
LAYER
  2
21
 70
    64
 62
     7
  6
CONTINUOUS
  0
LAYER
  2
22
 70
    64
 62
     7
  6
CONTINUOUS
  0
LAYER
  2
23
 70
    64
 62
     7
  6
CONTINUOUS
  0
LAYER
  2
24
 70
    64
 62
     7
  6
CONTINUOUS
  0
LAYER
  2
25
 70
    64
 62
     7
  6
CONTINUOUS
  0
LAYER
  2
26
 70
    64
 62
     7
  6
CONTINUOUS
  0
LAYER
  2
27
 70
    64
 62
     7
  6
CONTINUOUS
  0
LAYER
  2
28
 70
    64
 62
     7
  6
CONTINUOUS
  0
LAYER
  2
29
 70
    64
 62
     7
  6
CONTINUOUS
  0
LAYER
  2
30
 70
    64
 62
     7
  6
CONTINUOUS
  0
LAYER
  2
31
 70
    64
 62
     7
  6
CONTINUOUS
  0
LAYER
  2
32
 70
    64
 62
     7
  6
CONTINUOUS
  0
LAYER
  2
33
 70
    64
 62
     7
  6
CONTINUOUS
  0
LAYER
  2
34
 70
    64
 62
     7
  6
CONTINUOUS
  0
LAYER
  2
35
 70
    64
 62
     7
  6
CONTINUOUS
  0
LAYER
  2
36
 70
    64
 62
     7
  6
CONTINUOUS
  0
LAYER
  2
37
 70
    64
 62
     7
  6
CONTINUOUS
  0
LAYER
  2
38
 70
    64
 62
     7
  6
CONTINUOUS
  0
LAYER
  2
39
 70
    64
 62
     7
  6
CONTINUOUS
  0
LAYER
  2
40
 70
    64
 62
     7
  6
CONTINUOUS
  0
LAYER
  2
41
 70
    64
 62
     7
  6
CONTINUOUS
  0
LAYER
  2
42
 70
    64
 62
     7
  6
CONTINUOUS
  0
LAYER
  2
43
 70
    64
 62
     7
  6
CONTINUOUS
  0
LAYER
  2
44
 70
    64
 62
     7
  6
CONTINUOUS
  0
LAYER
  2
45
 70
    64
 62
     7
  6
CONTINUOUS
  0
LAYER
  2
46
 70
    64
 62
     7
  6
CONTINUOUS
  0
LAYER
  2
47
 70
    64
 62
     7
  6
CONTINUOUS
  0
LAYER
  2
48
 70
    64
 62
     7
  6
CONTINUOUS
  0
LAYER
  2
49
 70
    64
 62
     7
  6
CONTINUOUS
  0
LAYER
  2
50
 70
    64
 62
     7
  6
CONTINUOUS
  0
LAYER
  2
51
 70
    64
 62
     7
  6
CONTINUOUS
  0
LAYER
  2
52
 70
    64
 62
     7
  6
CONTINUOUS
  0
LAYER
  2
53
 70
    64
 62
     7
  6
CONTINUOUS
  0
LAYER
  2
54
 70
    64
 62
     7
  6
CONTINUOUS
  0
LAYER
  2
55
 70
    64
 62
     7
  6
CONTINUOUS
  0
LAYER
  2
56
 70
    64
 62
     7
  6
CONTINUOUS
  0
LAYER
  2
57
 70
    64
 62
     7
  6
CONTINUOUS
  0
LAYER
  2
58
 70
    64
 62
     7
  6
CONTINUOUS
  0
LAYER
  2
59
 70
    64
 62
     7
  6
CONTINUOUS
  0
LAYER
  2
60
 70
    64
 62
     7
  6
CONTINUOUS
  0
LAYER
  2
61
 70
    64
 62
     7
  6
CONTINUOUS
  0
LAYER
  2
62
 70
    64
 62
     7
  6
CONTINUOUS
  0
LAYER
  2
63
 70
    64
 62
     7
  6
CONTINUOUS
  0
LAYER
  2
64
 70
    64
 62
     7
  6
CONTINUOUS
  0
LAYER
  2
65
 70
    64
 62
     7
  6
CONTINUOUS
  0
LAYER
  2
66
 70
    64
 62
     7
  6
CONTINUOUS
  0
LAYER
  2
67
 70
    64
 62
     7
  6
CONTINUOUS
  0
LAYER
  2
68
 70
    64
 62
     7
  6
CONTINUOUS
  0
LAYER
  2
69
 70
    64
 62
     7
  6
CONTINUOUS
  0
LAYER
  2
70
 70
    64
 62
     7
  6
CONTINUOUS
  0
LAYER
  2
71
 70
    64
 62
     7
  6
CONTINUOUS
  0
LAYER
  2
72
 70
    64
 62
     7
  6
CONTINUOUS
  0
LAYER
  2
73
 70
    64
 62
     7
  6
CONTINUOUS
  0
LAYER
  2
74
 70
    64
 62
     7
  6
CONTINUOUS
  0
LAYER
  2
75
 70
    64
 62
     7
  6
CONTINUOUS
  0
LAYER
  2
76
 70
    64
 62
     7
  6
CONTINUOUS
  0
LAYER
  2
77
 70
    64
 62
     7
  6
CONTINUOUS
  0
LAYER
  2
78
 70
    64
 62
     7
  6
CONTINUOUS
  0
LAYER
  2
79
 70
    64
 62
     7
  6
CONTINUOUS
  0
LAYER
  2
80
 70
    64
 62
     7
  6
CONTINUOUS
  0
LAYER
  2
81
 70
    64
 62
     7
  6
CONTINUOUS
  0
LAYER
  2
82
 70
    64
 62
     7
  6
CONTINUOUS
  0
LAYER
  2
83
 70
    64
 62
     7
  6
CONTINUOUS
  0
LAYER
  2
84
 70
    64
 62
     7
  6
CONTINUOUS
  0
LAYER
  2
85
 70
    64
 62
     7
  6
CONTINUOUS
  0
LAYER
  2
86
 70
    64
 62
     7
  6
CONTINUOUS
  0
LAYER
  2
87
 70
    64
 62
     7
  6
CONTINUOUS
  0
LAYER
  2
88
 70
    64
 62
     7
  6
CONTINUOUS
  0
LAYER
  2
89
 70
    64
 62
     7
  6
CONTINUOUS
  0
LAYER
  2
90
 70
    64
 62
     7
  6
CONTINUOUS
  0
LAYER
  2
91
 70
    64
 62
     7
  6
CONTINUOUS
  0
LAYER
  2
92
 70
    64
 62
     7
  6
CONTINUOUS
  0
LAYER
  2
93
 70
    64
 62
     7
  6
CONTINUOUS
  0
LAYER
  2
94
 70
    64
 62
     7
  6
CONTINUOUS
  0
LAYER
  2
95
 70
    64
 62
     7
  6
CONTINUOUS
  0
LAYER
  2
96
 70
    64
 62
     7
  6
CONTINUOUS
  0
LAYER
  2
97
 70
    64
 62
     7
  6
CONTINUOUS
  0
LAYER
  2
98
 70
    64
 62
     7
  6
CONTINUOUS
  0
LAYER
  2
99
 70
    64
 62
     7
  6
CONTINUOUS
  0
LAYER
  2
100
 70
    64
 62
     7
  6
CONTINUOUS
  0
LAYER
  2
101
 70
    64
 62
     7
  6
CONTINUOUS
  0
LAYER
  2
102
 70
    64
 62
     7
  6
CONTINUOUS
  0
LAYER
  2
103
 70
    64
 62
     7
  6
CONTINUOUS
  0
LAYER
  2
104
 70
    64
 62
     7
  6
CONTINUOUS
  0
LAYER
  2
105
 70
    64
 62
     7
  6
CONTINUOUS
  0
LAYER
  2
106
 70
    64
 62
     7
  6
CONTINUOUS
  0
LAYER
  2
107
 70
    64
 62
     7
  6
CONTINUOUS
  0
LAYER
  2
108
 70
    64
 62
     7
  6
CONTINUOUS
  0
LAYER
  2
109
 70
    64
 62
     7
  6
CONTINUOUS
  0
LAYER
  2
110
 70
    64
 62
     7
  6
CONTINUOUS
  0
LAYER
  2
111
 70
    64
 62
     7
  6
CONTINUOUS
  0
LAYER
  2
112
 70
    64
 62
     7
  6
CONTINUOUS
  0
LAYER
  2
113
 70
    64
 62
     7
  6
CONTINUOUS
  0
LAYER
  2
114
 70
    64
 62
     7
  6
CONTINUOUS
  0
LAYER
  2
115
 70
    64
 62
     7
  6
CONTINUOUS
  0
LAYER
  2
116
 70
    64
 62
     7
  6
CONTINUOUS
  0
LAYER
  2
117
 70
    64
 62
     7
  6
CONTINUOUS
  0
LAYER
  2
118
 70
    64
 62
     7
  6
CONTINUOUS
  0
LAYER
  2
119
 70
    64
 62
     7
  6
CONTINUOUS
  0
LAYER
  2
120
 70
    64
 62
     7
  6
CONTINUOUS
  0
LAYER
  2
121
 70
    64
 62
     7
  6
CONTINUOUS
  0
LAYER
  2
122
 70
    64
 62
     7
  6
CONTINUOUS
  0
LAYER
  2
123
 70
    64
 62
     7
  6
CONTINUOUS
  0
LAYER
  2
124
 70
    64
 62
     7
  6
CONTINUOUS
  0
LAYER
  2
125
 70
    64
 62
     7
  6
CONTINUOUS
  0
LAYER
  2
126
 70
    64
 62
     7
  6
CONTINUOUS
  0
LAYER
  2
127
 70
    64
 62
     7
  6
CONTINUOUS
  0
LAYER
  2
128
 70
    64
 62
     7
  6
CONTINUOUS
  0
LAYER
  2
129
 70
    64
 62
     7
  6
CONTINUOUS
  0
LAYER
  2
130
 70
    64
 62
     7
  6
CONTINUOUS
  0
LAYER
  2
131
 70
    64
 62
     7
  6
CONTINUOUS
  0
LAYER
  2
132
 70
    64
 62
     7
  6
CONTINUOUS
  0
LAYER
  2
133
 70
    64
 62
     7
  6
CONTINUOUS
  0
LAYER
  2
134
 70
    64
 62
     7
  6
CONTINUOUS
  0
LAYER
  2
135
 70
    64
 62
     7
  6
CONTINUOUS
  0
LAYER
  2
136
 70
    64
 62
     7
  6
CONTINUOUS
  0
LAYER
  2
137
 70
    64
 62
     7
  6
CONTINUOUS
  0
LAYER
  2
138
 70
    64
 62
     7
  6
CONTINUOUS
  0
LAYER
  2
139
 70
    64
 62
     7
  6
CONTINUOUS
  0
LAYER
  2
140
 70
    64
 62
     7
  6
CONTINUOUS
  0
LAYER
  2
141
 70
    64
 62
     7
  6
CONTINUOUS
  0
LAYER
  2
142
 70
    64
 62
     7
  6
CONTINUOUS
  0
LAYER
  2
143
 70
    64
 62
     7
  6
CONTINUOUS
  0
LAYER
  2
144
 70
    64
 62
     7
  6
CONTINUOUS
  0
LAYER
  2
145
 70
    64
 62
     7
  6
CONTINUOUS
  0
LAYER
  2
146
 70
    64
 62
     7
  6
CONTINUOUS
  0
LAYER
  2
147
 70
    64
 62
     7
  6
CONTINUOUS
  0
LAYER
  2
148
 70
    64
 62
     7
  6
CONTINUOUS
  0
LAYER
  2
149
 70
    64
 62
     7
  6
CONTINUOUS
  0
LAYER
  2
150
 70
    64
 62
     7
  6
CONTINUOUS
  0
LAYER
  2
151
 70
    64
 62
     7
  6
CONTINUOUS
  0
LAYER
  2
152
 70
    64
 62
     7
  6
CONTINUOUS
  0
LAYER
  2
153
 70
    64
 62
     7
  6
CONTINUOUS
  0
LAYER
  2
154
 70
    64
 62
     7
  6
CONTINUOUS
  0
LAYER
  2
155
 70
    64
 62
     7
  6
CONTINUOUS
  0
LAYER
  2
156
 70
    64
 62
     7
  6
CONTINUOUS
  0
LAYER
  2
157
 70
    64
 62
     7
  6
CONTINUOUS
  0
LAYER
  2
158
 70
    64
 62
     7
  6
CONTINUOUS
  0
LAYER
  2
159
 70
    64
 62
     7
  6
CONTINUOUS
  0
LAYER
  2
160
 70
    64
 62
     7
  6
CONTINUOUS
  0
LAYER
  2
161
 70
    64
 62
     7
  6
CONTINUOUS
  0
LAYER
  2
162
 70
    64
 62
     7
  6
CONTINUOUS
  0
LAYER
  2
163
 70
    64
 62
     7
  6
CONTINUOUS
  0
LAYER
  2
164
 70
    64
 62
     7
  6
CONTINUOUS
  0
LAYER
  2
165
 70
    64
 62
     7
  6
CONTINUOUS
  0
LAYER
  2
166
 70
    64
 62
     7
  6
CONTINUOUS
  0
LAYER
  2
167
 70
    64
 62
     7
  6
CONTINUOUS
  0
LAYER
  2
168
 70
    64
 62
     7
  6
CONTINUOUS
  0
LAYER
  2
169
 70
    64
 62
     7
  6
CONTINUOUS
  0
LAYER
  2
170
 70
    64
 62
     7
  6
CONTINUOUS
  0
LAYER
  2
171
 70
    64
 62
     7
  6
CONTINUOUS
  0
LAYER
  2
172
 70
    64
 62
     7
  6
CONTINUOUS
  0
LAYER
  2
173
 70
    64
 62
     7
  6
CONTINUOUS
  0
LAYER
  2
174
 70
    64
 62
     7
  6
CONTINUOUS
  0
LAYER
  2
175
 70
    64
 62
     7
  6
CONTINUOUS
  0
LAYER
  2
176
 70
    64
 62
     7
  6
CONTINUOUS
  0
LAYER
  2
177
 70
    64
 62
     7
  6
CONTINUOUS
  0
LAYER
  2
178
 70
    64
 62
     7
  6
CONTINUOUS
  0
LAYER
  2
179
 70
    64
 62
     7
  6
CONTINUOUS
  0
LAYER
  2
180
 70
    64
 62
     7
  6
CONTINUOUS
  0
LAYER
  2
181
 70
    64
 62
     7
  6
CONTINUOUS
  0
LAYER
  2
182
 70
    64
 62
     7
  6
CONTINUOUS
  0
LAYER
  2
183
 70
    64
 62
     7
  6
CONTINUOUS
  0
LAYER
  2
184
 70
    64
 62
     7
  6
CONTINUOUS
  0
LAYER
  2
185
 70
    64
 62
     7
  6
CONTINUOUS
  0
LAYER
  2
186
 70
    64
 62
     7
  6
CONTINUOUS
  0
LAYER
  2
187
 70
    64
 62
     7
  6
CONTINUOUS
  0
LAYER
  2
188
 70
    64
 62
     7
  6
CONTINUOUS
  0
LAYER
  2
189
 70
    64
 62
     7
  6
CONTINUOUS
  0
LAYER
  2
190
 70
    64
 62
     7
  6
CONTINUOUS
  0
LAYER
  2
191
 70
    64
 62
     7
  6
CONTINUOUS
  0
LAYER
  2
192
 70
    64
 62
     7
  6
CONTINUOUS
  0
LAYER
  2
193
 70
    64
 62
     7
  6
CONTINUOUS
  0
LAYER
  2
194
 70
    64
 62
     7
  6
CONTINUOUS
  0
LAYER
  2
195
 70
    64
 62
     7
  6
CONTINUOUS
  0
LAYER
  2
196
 70
    64
 62
     7
  6
CONTINUOUS
  0
LAYER
  2
197
 70
    64
 62
     7
  6
CONTINUOUS
  0
LAYER
  2
198
 70
    64
 62
     7
  6
CONTINUOUS
  0
LAYER
  2
199
 70
    64
 62
     7
  6
CONTINUOUS
  0
LAYER
  2
200
 70
    64
 62
     7
  6
CONTINUOUS
  0
LAYER
  2
201
 70
    64
 62
     7
  6
CONTINUOUS
  0
LAYER
  2
202
 70
    64
 62
     7
  6
CONTINUOUS
  0
LAYER
  2
203
 70
    64
 62
     7
  6
CONTINUOUS
  0
LAYER
  2
204
 70
    64
 62
     7
  6
CONTINUOUS
  0
LAYER
  2
205
 70
    64
 62
     7
  6
CONTINUOUS
  0
LAYER
  2
206
 70
    64
 62
     7
  6
CONTINUOUS
  0
LAYER
  2
207
 70
    64
 62
     7
  6
CONTINUOUS
  0
LAYER
  2
208
 70
    64
 62
     7
  6
CONTINUOUS
  0
LAYER
  2
209
 70
    64
 62
     7
  6
CONTINUOUS
  0
LAYER
  2
210
 70
    64
 62
     7
  6
CONTINUOUS
  0
LAYER
  2
211
 70
    64
 62
     7
  6
CONTINUOUS
  0
LAYER
  2
212
 70
    64
 62
     7
  6
CONTINUOUS
  0
LAYER
  2
213
 70
    64
 62
     7
  6
CONTINUOUS
  0
LAYER
  2
214
 70
    64
 62
     7
  6
CONTINUOUS
  0
LAYER
  2
215
 70
    64
 62
     7
  6
CONTINUOUS
  0
LAYER
  2
216
 70
    64
 62
     7
  6
CONTINUOUS
  0
LAYER
  2
217
 70
    64
 62
     7
  6
CONTINUOUS
  0
LAYER
  2
218
 70
    64
 62
     7
  6
CONTINUOUS
  0
LAYER
  2
219
 70
    64
 62
     7
  6
CONTINUOUS
  0
LAYER
  2
220
 70
    64
 62
     7
  6
CONTINUOUS
  0
LAYER
  2
221
 70
    64
 62
     7
  6
CONTINUOUS
  0
LAYER
  2
222
 70
    64
 62
     7
  6
CONTINUOUS
  0
LAYER
  2
223
 70
    64
 62
     7
  6
CONTINUOUS
  0
LAYER
  2
224
 70
    64
 62
     7
  6
CONTINUOUS
  0
LAYER
  2
225
 70
    64
 62
     7
  6
CONTINUOUS
  0
LAYER
  2
226
 70
    64
 62
     7
  6
CONTINUOUS
  0
LAYER
  2
227
 70
    64
 62
     7
  6
CONTINUOUS
  0
LAYER
  2
228
 70
    64
 62
     7
  6
CONTINUOUS
  0
LAYER
  2
229
 70
    64
 62
     7
  6
CONTINUOUS
  0
LAYER
  2
230
 70
    64
 62
     7
  6
CONTINUOUS
  0
LAYER
  2
231
 70
    64
 62
     7
  6
CONTINUOUS
  0
LAYER
  2
232
 70
    64
 62
     7
  6
CONTINUOUS
  0
LAYER
  2
233
 70
    64
 62
     7
  6
CONTINUOUS
  0
LAYER
  2
234
 70
    64
 62
     7
  6
CONTINUOUS
  0
LAYER
  2
235
 70
    64
 62
     7
  6
CONTINUOUS
  0
LAYER
  2
236
 70
    64
 62
     7
  6
CONTINUOUS
  0
LAYER
  2
237
 70
    64
 62
     7
  6
CONTINUOUS
  0
LAYER
  2
238
 70
    64
 62
     7
  6
CONTINUOUS
  0
LAYER
  2
239
 70
    64
 62
     7
  6
CONTINUOUS
  0
LAYER
  2
240
 70
    64
 62
     7
  6
CONTINUOUS
  0
LAYER
  2
241
 70
    64
 62
     7
  6
CONTINUOUS
  0
LAYER
  2
242
 70
    64
 62
     7
  6
CONTINUOUS
  0
LAYER
  2
243
 70
    64
 62
     7
  6
CONTINUOUS
  0
LAYER
  2
244
 70
    64
 62
     7
  6
CONTINUOUS
  0
LAYER
  2
245
 70
    64
 62
     7
  6
CONTINUOUS
  0
LAYER
  2
246
 70
    64
 62
     7
  6
CONTINUOUS
  0
LAYER
  2
247
 70
    64
 62
     7
  6
CONTINUOUS
  0
LAYER
  2
248
 70
    64
 62
     7
  6
CONTINUOUS
  0
LAYER
  2
249
 70
    64
 62
     7
  6
CONTINUOUS
  0
LAYER
  2
250
 70
    64
 62
     7
  6
CONTINUOUS
  0
LAYER
  2
251
 70
    64
 62
     7
  6
CONTINUOUS
  0
LAYER
  2
252
 70
    64
 62
     7
  6
CONTINUOUS
  0
LAYER
  2
253
 70
    64
 62
     7
  6
CONTINUOUS
  0
LAYER
  2
254
 70
    64
 62
     7
  6
CONTINUOUS
  0
LAYER
  2
255
 70
    64
 62
     7
  6
CONTINUOUS
  0
ENDTAB
  0
TABLE
  2
STYLE
 70
     2
  0
STYLE
  2
STANDARD
 70
    64
 40
0.0
 41
1.0
 50
0.0
 71
     0
 42
3.000000
  3
TXT
  4
BIGFONT
  0
ENDTAB
  0
ENDSEC
  0
SECTION
  2
ENTITIES
  0
LINE
  8
0
  6
DASHDOT
 62
     7
 10
-5.4613566398620605
 20
 117.62689208984375
 11
-16.230655670166016
 21
 117.62689208984375
  0
LINE
  8
0
  6
DASHDOT
 62
     7
 10
-54.827693939208991
 20
 117.62689208984375
 11
-66.487380981445313
 21
 117.62689208984375
  0
LINE
  8
0
  6
DASHDOT
 62
     7
 10
-35.487163543701172
 20
 55.576942443847656
 11
-35.487163543701172
 21
-88.008987426757812
  0
LINE
  8
0
  6
CONTINUOUS
 62
     3
 10
-70.487159729003906
 20
-85.0731201171875
 11
-51.987167358398438
 21
-85.0731201171875
  0
ARC
  8
0
  6
CONTINUOUS
 62
     3
 10
-51.987167358398438
 20
-83.573112487792983
 40
 1.5
 50
-90.000000851989171
 51
 0
  0
LINE
  8
0
  6
CONTINUOUS
 62
     3
 10
-18.987167358398438
 20
-85.0731201171875
 11
-0.4871633052825928
 21
-85.0731201171875
  0
ARC
  8
0
  6
CONTINUOUS
 62
     3
 10
-18.987167358398438
 20
-83.573112487792983
 40
 1.5
 50
-179.9999980615126
 51
-90.000000851989171
  0
LINE
  8
0
  6
CONTINUOUS
 62
     3
 10
-0.4871633052825928
 20
-85.0731201171875
 11
-0.4871633052825928
 21
-87.373115539550767
  0
LINE
  8
0
  6
CONTINUOUS
 62
     3
 10
-0.4871633052825928
 20
-87.373115539550767
 11
-18.987167358398438
 21
-87.373115539550767
  0
ARC
  8
0
  6
CONTINUOUS
 62
     3
 10
-18.987167358398438
 20
-83.573112487792983
 40
 3.7999999523162842
 50
-179.9999980615126
 51
-90.000000851989171
  0
LINE
  8
0
  6
CONTINUOUS
 62
     3
 10
-51.987167358398438
 20
-87.373115539550767
 11
-70.487159729003906
 21
-87.373115539550767
  0
LINE
  8
0
  6
CONTINUOUS
 62
     3
 10
-70.487159729003906
 20
-87.373115539550767
 11
-70.487159729003906
 21
-85.0731201171875
  0
LINE
  8
0
  6
DOT
 62
     3
 10
-63.137178802490226
 20
-85.0731201171875
 11
-63.137178802490226
 21
-87.373115539550767
  0
LINE
  8
0
  6
DOT
 62
     3
 10
-57.837178802490236
 20
-85.0731201171875
 11
-57.837178802490236
 21
-87.373115539550767
  0
LINE
  8
0
  6
DASHDOT
 62
     3
 10
-60.487178802490234
 20
-82.572135925292969
 11
-60.487178802490234
 21
-91.165832519531264
  0
LINE
  8
0
  6
DASHDOT
 62
     3
 10
-10.487163543701172
 20
-82.572135925292969
 11
-10.487163543701172
 21
-91.165847778320312
  0
LINE
  8
0
  6
DASHDOT
 62
     7
 10
-60.487167358398438
 20
 122.74058532714844
 11
-60.487167358398438
 21
 87.768417358398438
  0
LINE
  8
0
  6
DASHDOT
 62
     7
 10
-10.487159729003906
 20
 122.74058532714844
 11
-10.487159729003906
 21
 86.967239379882813
  0
LINE
  8
0
  6
CONTINUOUS
 62
     3
 10
-0.4871635437011719
 20
 120.12689208984375
 11
-0.4871635437011719
 21
 90.12689208984375
  0
ARC
  8
0
  6
CONTINUOUS
 62
     3
 10
-5.4871635437011719
 20
 120.12689208984375
 40
 5
 50
 0
 51
 90.000004039712721
  0
ARC
  8
0
  6
CONTINUOUS
 62
     3
 10
-5.4871635437011719
 20
 90.12689208984375
 40
 5
 50
-90.000000851989171
 51
 0
  0
LINE
  8
0
  6
CONTINUOUS
 62
     3
 10
-5.4871635437011719
 20
 85.12689208984375
 11
-22.787164688110352
 21
 85.12689208984375
  0
LINE
  8
0
  6
CONTINUOUS
 62
     3
 10
-65.487159729003906
 20
 85.12689208984375
 11
-48.187164306640625
 21
 85.12689208984375
  0
ARC
  8
0
  6
CONTINUOUS
 62
     3
 10
-65.487159729003906
 20
 90.12689208984375
 40
 5
 50
-179.9999980615126
 51
-90.000000851989171
  0
LINE
  8
0
  6
CONTINUOUS
 62
     3
 10
-70.487167358398438
 20
 90.12689208984375
 11
-70.487167358398438
 21
 120.12689208984375
  0
ARC
  8
0
  6
CONTINUOUS
 62
     3
 10
-65.487159729003906
 20
 120.12689208984375
 40
 5
 50
 90.000004039712721
 51
-179.9999980615126
  0
LINE
  8
0
  6
CONTINUOUS
 62
     3
 10
-65.487159729003906
 20
 125.12688446044922
 11
-52.487163543701172
 21
 125.12688446044922
  0
LINE
  8
0
  6
CONTINUOUS
 62
     3
 10
-5.4871635437011719
 20
 125.12688446044922
 11
-18.487165451049805
 21
 125.12688446044922
  0
LINE
  8
0
  6
DASHDOT
 62
     7
 10
-6.0222578048706055
 20
 92.62689208984375
 11
-17.611871719360352
 21
 92.62689208984375
  0
LINE
  8
0
  6
DASHDOT
 62
     7
 10
-54.827693939208991
 20
 92.62689208984375
 11
-65.814300537109375
 21
 92.62689208984375
  0
LINE
  8
0
  6
DOT
 62
     3
 10
-7.8371635437011715
 20
-85.0731201171875
 11
-7.8371635437011715
 21
-87.373115539550767
  0
LINE
  8
0
  6
DOT
 62
     3
 10
-13.137163543701172
 20
-85.0731201171875
 11
-13.137163543701172
 21
-87.373115539550767
  0
LINE
  8
0
  6
CONTINUOUS
 62
     3
 10
-50.487163543701172
 20
 101.12690734863281
 11
-50.487163543701172
 21
 85.12689208984375
  0
LINE
  8
0
  6
CONTINUOUS
 62
     3
 10
-20.487165451049805
 20
 103.62654113769531
 11
-20.487165451049805
 21
 85.12689208984375
  0
LINE
  8
0
  6
CONTINUOUS
 62
     3
 10
-48.187164306640625
 20
 85.12689208984375
 11
-48.187164306640625
 21
 100.28207397460937
  0
LINE
  8
0
  6
DOT
 62
     3
 10
-48.187164306640625
 20
 100.28207397460937
 11
-48.187164306640625
 21
 101.12691497802734
  0
LINE
  8
0
  6
CONTINUOUS
 62
     3
 10
-22.787164688110352
 20
 85.12689208984375
 11
-22.787164688110352
 21
 100.28207397460937
  0
LINE
  8
0
  6
DOT
 62
     3
 10
-22.787164688110352
 20
 100.28207397460937
 11
-22.787164688110352
 21
 101.12691497802734
  0
LINE
  8
0
  6
CONTINUOUS
 62
     3
 10
-50.487167358398437
 20
-83.573112487792983
 11
-50.487167358398437
 21
 52.626880645751953
  0
ARC
  8
0
  6
CONTINUOUS
 62
     3
 10
-49.487167358398437
 20
-68.37313079833983
 40
 1
 50
 90.000004039712721
 51
-179.9999980615126
  0
LINE
  8
0
  6
CONTINUOUS
 62
     3
 10
-20.487167358398437
 20
-83.573112487792983
 11
-20.487167358398437
 21
 52.626880645751953
  0
ARC
  8
0
  6
CONTINUOUS
 62
     3
 10
-21.487167358398437
 20
-68.37313079833983
 40
 1
 50
 0
 51
 90.000004039712721
  0
LINE
  8
0
  6
DOT
 62
     3
 10
-48.187168121337891
 20
-67.373130798339844
 11
-48.187168121337891
 21
-4.3041791915893608
  0
LINE
  8
0
  6
DOT
 62
     3
 10
-48.187168121337891
 20
 0.1830070912838028
 11
-48.187168121337891
 21
 20.644548416137695
  0
LINE
  8
0
  6
CONTINUOUS
 62
     3
 10
-48.187168121337891
 20
-83.573112487792983
 11
-48.187168121337891
 21
-67.873138427734375
  0
ARC
  8
0
  6
CONTINUOUS
 62
     3
 10
-51.987167358398438
 20
-83.573112487792983
 40
 3.7999999523162842
 50
-90.000000851989171
 51
 0
  0
LINE
  8
0
  6
CONTINUOUS
 62
     3
 10
-48.187168121337891
 20
 21.144544601440433
 11
-48.187168121337891
 21
 52.626880645751953
  0
LINE
  8
0
  6
DOT
 62
     3
 10
-22.787166595458984
 20
-67.373130798339844
 11
-22.787166595458984
 21
-4.3041791915893608
  0
LINE
  8
0
  6
DOT
 62
     3
 10
-22.787166595458984
 20
 0.1830070912838028
 11
-22.787166595458984
 21
 20.644548416137695
  0
LINE
  8
0
  6
CONTINUOUS
 62
     3
 10
-22.787166595458984
 20
-83.573112487792983
 11
-22.787166595458984
 21
-67.873138427734375
  0
ARC
  8
0
  6
CONTINUOUS
 62
     3
 10
-23.287166595458984
 20
-67.873138427734375
 40
 0.5
 50
 0
 51
 90.000004039712721
  0
LINE
  8
0
  6
CONTINUOUS
 62
     3
 10
-22.787166595458984
 20
 21.144544601440433
 11
-22.787166595458984
 21
 52.626880645751953
  0
LINE
  8
0
  6
CONTINUOUS
 62
     3
 10
-49.487167358398437
 20
 20.644548416137695
 11
-44.487171173095703
 21
 20.644548416137695
  0
ARC
  8
0
  6
CONTINUOUS
 62
     3
 10
-47.687168121337891
 20
 21.144544601440433
 40
 0.5
 50
-179.9999980615126
 51
-90.000000851989171
  0
ARC
  8
0
  6
CONTINUOUS
 62
     3
 10
-49.487167358398437
 20
 21.64454460144043
 40
 1
 50
-179.9999980615126
 51
-90.000000851989171
  0
LINE
  8
0
  6
CONTINUOUS
 62
     3
 10
-26.487163543701172
 20
 20.644548416137695
 11
-21.487167358398437
 21
 20.644548416137695
  0
ARC
  8
0
  6
CONTINUOUS
 62
     3
 10
-23.287166595458984
 20
 21.144544601440433
 40
 0.5
 50
-90.000000851989171
 51
 0
  0
ARC
  8
0
  6
CONTINUOUS
 62
     3
 10
-21.487167358398437
 20
 21.64454460144043
 40
 1
 50
-90.000000851989171
 51
 0
  0
LINE
  8
0
  6
CONTINUOUS
 62
     3
 10
-47.387165069580078
 20
 102.42690277099609
 11
-44.487163543701172
 21
 102.42690277099609
  0
ARC
  8
0
  6
CONTINUOUS
 62
     3
 10
-47.387165069580078
 20
 103.22690582275391
 40
 0.800000011920929
 50
-179.9999980615126
 51
-90.000000851989171
  0
LINE
  8
0
  6
CONTINUOUS
 62
     3
 10
-26.487165451049805
 20
 102.42690277099609
 11
-23.587165832519531
 21
 102.42690277099609
  0
LINE
  8
0
  6
CONTINUOUS
 62
     3
 10
-44.487163543701172
 20
 102.42690277099609
 11
-44.487163543701172
 21
 101.12691497802734
  0
ARC
  8
0
  6
CONTINUOUS
 62
     3
 10
-45.487163543701172
 20
 101.12691497802734
 40
 1
 50
-90.000000851989171
 51
 0
  0
LINE
  8
0
  6
CONTINUOUS
 62
     3
 10
-26.487165451049805
 20
 102.42690277099609
 11
-26.487165451049805
 21
 101.12691497802734
  0
ARC
  8
0
  6
CONTINUOUS
 62
     3
 10
-25.487165451049805
 20
 101.12691497802734
 40
 1
 50
-179.9999980615126
 51
-90.000000851989171
  0
LINE
  8
0
  6
CONTINUOUS
 62
     3
 10
-47.387165069580078
 20
 100.12691497802734
 11
-45.487163543701172
 21
 100.12691497802734
  0
LINE
  8
0
  6
CONTINUOUS
 62
     3
 10
-25.487165451049805
 20
 100.12691497802734
 11
-23.587165832519531
 21
 100.12691497802734
  0
ARC
  8
0
  6
CONTINUOUS
 62
     3
 10
-23.587165832519531
 20
 103.22691345214844
 40
 3.0999999046325684
 50
-90.000000851989171
 51
-42.642255056466077
  0
ARC
  8
0
  6
DOT
 62
     3
 10
-23.587165832519531
 20
 103.22691345214844
 40
 3.0999999046325684
 50
-42.642255056466077
 51
 0
  0
LINE
  8
0
  6
CONTINUOUS
 62
     3
 10
-52.487163543701172
 20
 125.12688446044922
 11
-50.487163543701172
 21
 124.12688446044922
  0
LINE
  8
0
  6
CONTINUOUS
 62
     3
 10
-18.487165451049805
 20
 125.12688446044922
 11
-20.487165451049805
 21
 124.12688446044922
  0
LINE
  8
0
  6
CONTINUOUS
 62
     3
 10
-44.487171173095703
 20
-67.373130798339844
 11
-44.487171173095703
 21
 20.644548416137695
  0
LINE
  8
0
  6
CONTINUOUS
 62
     3
 10
-26.487163543701172
 20
-67.373130798339844
 11
-26.487163543701172
 21
 20.644548416137695
  0
LINE
  8
0
  6
DASHDOT
 62
     3
 10
-35.487163543701172
 20
 131.85760498046875
 11
-35.487163543701172
 21
 81.328437805175781
  0
LINE
  8
50
  6
DASHDOT
 62
     3
 10
-139.48715209960937
 20
-83.028770446777344
 11
-139.48715209960937
 21
-90.733978271484375
  0
LINE
  8
50
  6
CONTINUOUS
 62
     3
 10
-146.98715209960937
 20
-85.073143005371094
 11
-106.98716735839844
 21
-85.073143005371094
  0
LINE
  8
50
  6
CONTINUOUS
 62
     3
 10
-106.98716735839844
 20
-87.373115539550767
 11
-106.98716735839844
 21
-81.892242431640611
  0
ARC
  8
50
  6
CONTINUOUS
 62
     3
 10
-109.98716735839842
 20
-81.892242431640611
 40
 3
 50
 0
 51
 63.455661830576084
  0
LINE
  8
50
  6
CONTINUOUS
 62
     3
 10
-106.98716735839844
 20
-87.373115539550767
 11
-146.98715209960937
 21
-87.373115539550767
  0
LINE
  8
50
  6
CONTINUOUS
 62
     3
 10
-146.9871826171875
 20
 52.626922607421875
 11
-146.98715209960937
 21
-82.373123168945313
  0
LINE
  8
50
  6
CONTINUOUS
 62
     3
 10
-145.98715209960937
 20
-83.373123168945298
 11
-145.98715209960937
 21
-85.073143005371094
  0
LINE
  8
50
  6
CONTINUOUS
 62
     3
 10
-146.98715209960937
 20
-85.073143005371094
 11
-146.98715209960937
 21
-87.373115539550767
  0
LINE
  8
50
  6
DOT
 62
     3
 10
-142.13715209960932
 20
-85.073143005371094
 11
-142.13715209960932
 21
-87.373138427734389
  0
LINE
  8
50
  6
DOT
 62
     3
 10
-136.83715209960937
 20
-85.073143005371094
 11
-136.83715209960937
 21
-87.373138427734389
  0
LINE
  8
50
  6
DOT
 62
     3
 10
-144.68716430664062
 20
 52.626922607421875
 11
-144.68716430664062
 21
-0.168208420276639
  0
LINE
  8
50
  6
DOT
 62
     3
 10
-144.68716430664062
 20
-4.2066707611084038
 11
-144.68716430664062
 21
-82.373123168945313
  0
LINE
  8
50
  6
DASHDOT
 62
     3
 10
-114.48717498779295
 20
-80.528762817382812
 11
-114.48717498779295
 21
-90.733978271484375
  0
LINE
  8
50
  6
DOT
 62
     3
 10
-117.13717498779296
 20
-85.073158264160156
 11
-117.13717498779296
 21
-87.373153686523452
  0
LINE
  8
50
  6
DOT
 62
     3
 10
-111.83717498779296
 20
-85.073158264160156
 11
-111.83717498779296
 21
-87.373153686523452
  0
LINE
  8
50
  6
DOT
 62
     3
 10
-146.98715209960937
 20
-82.373123168945313
 11
-144.68716430664062
 21
-82.373123168945313
  0
LINE
  8
50
  6
CONTINUOUS
 62
     3
 10
-128.48712158203125
 20
 52.626922607421875
 11
-146.98712158203125
 21
 52.626922607421875
  0
ARC
  8
50
  6
CONTINUOUS
 62
     3
 10
-128.48712158203125
 20
 48.626922607421875
 40
 4
 50
 0
 51
 90.000004039712721
  0
LINE
  8
50
  6
CONTINUOUS
 62
     3
 10
-124.48712921142577
 20
 49.126922607421875
 11
-124.48712921142577
 21
 44.626922607421875
  0
ARC
  8
50
  6
CONTINUOUS
 62
     3
 10
-128.48712158203125
 20
 44.626922607421875
 40
 4
 50
-90.000000851989171
 51
 0
  0
LINE
  8
50
  6
CONTINUOUS
 62
     3
 10
-128.48712158203125
 20
 40.626922607421875
 11
-131.48712158203125
 21
 40.626922607421875
  0
ARC
  8
50
  6
CONTINUOUS
 62
     3
 10
-131.48712158203125
 20
 37.626922607421875
 40
 3
 50
 90.000004039712721
 51
-179.9999980615126
  0
CIRCLE
  8
50
  6
CONTINUOUS
 62
     3
 10
-129.48712158203125
 20
 47.626907348632813
 40
 2.5000002384185791
  0
LINE
  8
0
  6
CONTINUOUS
 62
     3
 10
-134.48712158203125
 20
 37.626922607421875
 11
-134.48712158203125
 21
 28.626922607421871
  0
ARC
  8
0
  6
CONTINUOUS
 62
     3
 10
-131.48712158203125
 20
 28.626922607421871
 40
 3
 50
-179.9999980615126
 51
-90.000000851989171
  0
LINE
  8
0
  6
CONTINUOUS
 62
     3
 10
-131.48712158203125
 20
 25.626922607421875
 11
-125.98716735839844
 21
 25.626922607421875
  0
ARC
  8
0
  6
CONTINUOUS
 62
     3
 10
-125.98716735839844
 20
 22.626924514770508
 40
 3
 50
 0
 51
 90.000004039712721
  0
LINE
  8
0
  6
CONTINUOUS
 62
     3
 10
-121.98717498779297
 20
 20.626922607421879
 11
-121.98717498779297
 21
-67.359428405761705
  0
LINE
  8
0
  6
CONTINUOUS
 62
     3
 10
-122.98717498779295
 20
-68.359428405761719
 11
-122.98717498779295
 21
-70.189765930175781
  0
LINE
  8
0
  6
DOT
 62
     3
 10
-124.28716278076172
 20
 20.626922607421879
 11
-124.28716278076172
 21
-0.168208420276639
  0
LINE
  8
0
  6
DOT
 62
     3
 10
-124.28714752197266
 20
-4.2066707611084038
 11
-124.28714752197266
 21
-67.359428405761705
  0
LINE
  8
0
  6
CONTINUOUS
 62
     3
 10
-50.487167358398437
 20
 52.626880645751953
 11
-20.487167358398437
 21
 52.626880645751953
  0
LINE
  8
0
  6
DIVIDE
 62
     7
 10
-129.48712158203125
 20
-89.703514099121108
 11
-129.48712158203125
 21
-4.3749375343322701
  0
LINE
  8
0
  6
DIVIDE
 62
     7
 10
-129.48712158203125
 20
-0.0560306906700163
 11
-129.48712158203125
 21
 55.788467407226563
  0
LINE
  8
0
  6
DIVIDE
 62
     7
 10
-136.34616088867187
 20
 47.626907348632813
 11
-123.17306518554689
 21
 47.626907348632813
  0
LINE
  8
0
  6
DIVIDE
 62
     7
 10
-56.283203125
 20
 47.626907348632813
 11
-14.850184440612793
 21
 47.626907348632813
  0
LINE
  8
0
  6
CONTINUOUS
 62
     3
 10
-50.487163543701172
 20
 40.626922607421875
 11
-48.187164306640625
 21
 40.626922607421875
  0
LINE
  8
0
  6
CONTINUOUS
 62
     3
 10
-22.787162780761719
 20
 40.626922607421875
 11
-20.487163543701172
 21
 40.626922607421875
  0
LINE
  8
0
  6
CONTINUOUS
 62
     3
 10
-50.487163543701172
 20
 25.626899719238285
 11
-48.187164306640625
 21
 25.626899719238285
  0
LINE
  8
0
  6
CONTINUOUS
 62
     3
 10
-22.787162780761719
 20
 25.626899719238285
 11
-20.487163543701172
 21
 25.626899719238285
  0
LINE
  8
0
  6
DOT
 62
     3
 10
-48.187164306640625
 20
 50.126907348632813
 11
-50.487163543701172
 21
 50.126907348632813
  0
LINE
  8
0
  6
DOT
 62
     3
 10
-48.187164306640625
 20
 45.126907348632813
 11
-50.487163543701172
 21
 45.126907348632813
  0
LINE
  8
0
  6
DOT
 62
     3
 10
-22.787162780761719
 20
 50.126907348632813
 11
-20.487163543701172
 21
 50.126907348632813
  0
LINE
  8
0
  6
DOT
 62
     3
 10
-22.787162780761719
 20
 45.126907348632813
 11
-20.487163543701172
 21
 45.126907348632813
  0
LINE
  8
0
  6
DASHDOT
 62
     7
 10
-53.060894012451172
 20
 107.62689208984375
 11
-17.163455963134766
 21
 107.62689208984375
  0
LINE
  8
0
  6
CONTINUOUS
 62
     2
 10
-50.487163543701172
 20
 122.02688598632812
 11
-50.487163543701172
 21
 102.62689208984375
  0
ARC
  8
0
  6
CONTINUOUS
 62
     3
 10
-47.387165069580078
 20
 103.22691345214844
 40
 3.0999999046325684
 50
-137.35720023236937
 51
-90.000000851989171
  0
ARC
  8
0
  6
DOT
 62
     3
 10
-47.387165069580078
 20
 103.22691345214844
 40
 3.0999999046325684
 50
-179.9999980615126
 51
-137.35720023236937
  0
ARC
  8
0
  6
CONTINUOUS
 62
     2
 10
-47.387165069580078
 20
 122.02688598632812
 40
 3.0999999046325684
 50
 90.000004039712721
 51
-179.9999980615126
  0
LINE
  8
0
  6
CONTINUOUS
 62
     2
 10
-20.487165451049805
 20
 103.22691345214844
 11
-20.487165451049805
 21
 122.02688598632812
  0
ARC
  8
0
  6
CONTINUOUS
 62
     2
 10
-23.587165832519531
 20
 122.02688598632812
 40
 3.0999999046325684
 50
 0
 51
 90.000004039712721
  0
LINE
  8
0
  6
CONTINUOUS
 62
     2
 10
-47.387165069580078
 20
 125.12688446044922
 11
-23.587165832519531
 21
 125.12688446044922
  0
LINE
  8
0
  6
CONTINUOUS
 62
     2
 10
-47.387165069580078
 20
 122.82689666748047
 11
-23.587165832519531
 21
 122.82689666748047
  0
LINE
  8
0
  6
CONTINUOUS
 62
     2
 10
-48.187164306640625
 20
 102.62689208984375
 11
-48.187164306640625
 21
 122.02689361572266
  0
ARC
  8
0
  6
CONTINUOUS
 62
     2
 10
-47.387165069580078
 20
 122.02689361572266
 40
 0.800000011920929
 50
 90.000004039712721
 51
-179.9999980615126
  0
LINE
  8
0
  6
CONTINUOUS
 62
     2
 10
-22.787166595458984
 20
 102.62689208984375
 11
-22.787166595458984
 21
 122.02689361572266
  0
ARC
  8
0
  6
CONTINUOUS
 62
     3
 10
-23.587165832519531
 20
 103.22690582275391
 40
 0.800000011920929
 50
-90.000000851989171
 51
 0
  0
ARC
  8
0
  6
CONTINUOUS
 62
     2
 10
-23.587165832519531
 20
 122.02689361572266
 40
 0.800000011920929
 50
 0
 51
 90.000004039712721
  0
LINE
  8
0
  6
CONTINUOUS
 62
     2
 10
-48.187164306640625
 20
 102.62689208984375
 11
-50.487163543701172
 21
 102.62689208984375
  0
LINE
  8
0
  6
CONTINUOUS
 62
     2
 10
-22.787164688110352
 20
 102.62689208984375
 11
-20.487165451049805
 21
 102.62689208984375
  0
LINE
  8
0
  6
DOT
 62
     2
 10
-48.187164306640625
 20
 112.62689208984375
 11
-50.487163543701172
 21
 112.62689208984375
  0
LINE
  8
0
  6
DOT
 62
     2
 10
-22.787164688110352
 20
 112.62689208984375
 11
-20.487165451049805
 21
 112.62689208984375
  0
LINE
  8
0
  6
DOT
 62
     2
 10
-50.487163543701172
 20
 110.12689208984375
 11
-48.187164306640625
 21
 110.12689208984375
  0
LINE
  8
0
  6
DOT
 62
     2
 10
-48.187164306640625
 20
 105.12689208984375
 11
-50.487163543701172
 21
 105.12689208984375
  0
LINE
  8
0
  6
DOT
 62
     2
 10
-22.787166595458984
 20
 110.12689208984375
 11
-20.487167358398437
 21
 110.12689208984375
  0
LINE
  8
0
  6
DOT
 62
     2
 10
-20.487167358398437
 20
 105.12689208984375
 11
-22.787166595458984
 21
 105.12689208984375
  0
LINE
  8
0
  6
CONTINUOUS
 62
     3
 10
-48.187168121337891
 20
-82.373123168945313
 11
-22.787166595458984
 21
-82.373123168945313
  0
LINE
  8
0
  6
CONTINUOUS
 62
     3
 10
-108.64649200439455
 20
-79.20847320556642
 11
-121.32785034179689
 21
-72.87353515625
  0
ARC
  8
0
  6
CONTINUOUS
 62
     3
 10
-119.98717498779297
 20
-70.189765930175781
 40
 3
 50
-179.9999980615126
 51
-116.5443567215044
  0
LINE
  8
0
  6
DOT
 62
     3
 10
-124.28714752197266
 20
-67.359428405761705
 11
-121.98714447021486
 21
-67.359428405761705
  0
LINE
  8
0
  6
CONTINUOUS
 62
     3
 10
-44.487171173095703
 20
-67.373130798339844
 11
-49.487167358398437
 21
-67.373130798339844
  0
ARC
  8
0
  6
CONTINUOUS
 62
     3
 10
-47.687168121337891
 20
-67.873138427734375
 40
 0.5
 50
 90.000004039712721
 51
-179.9999980615126
  0
LINE
  8
0
  6
CONTINUOUS
 62
     3
 10
-26.487163543701172
 20
-67.373130798339844
 11
-21.487167358398437
 21
-67.373130798339844
  0
LINE
  8
0
  6
CONTINUOUS
 62
     3
 10
-50.487167358398437
 20
-72.373130798339858
 11
-48.187168121337891
 21
-72.373130798339858
  0
LINE
  8
0
  6
CONTINUOUS
 62
     3
 10
-22.787166595458984
 20
-72.373130798339858
 11
-20.487167358398437
 21
-72.373130798339858
  0
LINE
  8
0
  6
CONTINUOUS
 62
     3
 10
-20.487165451049805
 20
 124.12688446044922
 11
-21.420726776123047
 21
 124.12688446044922
  0
LINE
  8
0
  6
CONTINUOUS
 62
     3
 10
-50.487163543701172
 20
 124.12688446044922
 11
-49.553596496582031
 21
 124.12688446044922
  0
CIRCLE
  8
0
  6
CONTINUOUS
 62
     3
 10
-60.487167358398438
 20
 92.62689208984375
 40
 1.5
  0
CIRCLE
  8
0
  6
CONTINUOUS
 62
     3
 10
-10.487148284912109
 20
 117.62689208984375
 40
 1.5
  0
LINE
  8
0
  6
CONTINUOUS
 62
     3
 10
-62.587177276611335
 20
-87.373115539550767
 11
-62.587177276611335
 21
-88.373115539550781
  0
LINE
  8
0
  6
CONTINUOUS
 62
     3
 10
-62.587177276611335
 20
-88.373115539550781
 11
-58.387176513671875
 21
-88.373115539550781
  0
LINE
  8
0
  6
CONTINUOUS
 62
     3
 10
-58.387176513671875
 20
-88.373115539550781
 11
-58.387176513671875
 21
-87.373115539550767
  0
LINE
  8
0
  6
DOT
 62
     3
 10
-61.987178802490234
 20
-85.0731201171875
 11
-61.987178802490234
 21
-86.073112487792955
  0
LINE
  8
0
  6
DOT
 62
     3
 10
-61.987178802490234
 20
-86.073112487792955
 11
-58.987178802490234
 21
-86.073112487792955
  0
LINE
  8
0
  6
DOT
 62
     3
 10
-58.987178802490234
 20
-86.073112487792955
 11
-58.987178802490234
 21
-85.0731201171875
  0
LINE
  8
0
  6
CONTINUOUS
 62
     7
 10
-72.339653015136719
 20
-87.373115539550767
 11
-78.947158813476563
 21
-87.373115539550767
  0
LINE
  8
0
  6
CONTINUOUS
 62
     7
 10
-64.262725830078125
 20
-88.373115539550781
 11
-78.947158813476563
 21
-88.373115539550781
  0
LINE
  8
0
  6
CONTINUOUS
 62
     7
 10
-77.987159729003906
 20
-87.373115539550767
 11
-77.987159729003906
 21
-88.373115539550781
  0
TEXT
  8
0
  6
CONTINUOUS
 62
     7
 10
-78.947158778507443
 20
-91.573124651112849
 11
-78.947158848445682
 21
-89.97312465111284
 40
 2
 41
 0.8
  1
１
 50
 90.000004039712707
 72
  5
  0
LINE
  8
0
  6
CONTINUOUS
 62
     7
 10
-77.987159729003906
 20
-93.173126220703125
 11
-77.987159729003906
 21
-88.373115539550781
  0
LINE
  8
0
  6
CONTINUOUS
 62
     7
 10
-77.987159729003906
 20
-88.373115539550781
 11
-78.763616864311473
 21
-91.270893018417979
  0
LINE
  8
0
  6
CONTINUOUS
 62
     7
 10
-77.987159729003906
 20
-88.373115539550781
 11
-77.21070259369634
 21
-91.270893018417979
  0
LINE
  8
0
  6
CONTINUOUS
 62
     7
 10
-72.339653015136719
 20
-85.0731201171875
 11
-78.947158813476563
 21
-85.0731201171875
  0
LINE
  8
0
  6
CONTINUOUS
 62
     7
 10
-77.987159729003906
 20
-87.373115539550767
 11
-77.987159729003906
 21
-85.0731201171875
  0
TEXT
  8
0
  6
CONTINUOUS
 62
     7
 10
-78.947158778507443
 20
-83.473110918202678
 11
-78.947159032033511
 21
-77.673110918202681
 40
 2
 41
 0.8
  1
２．３
 50
 90.000004039712707
 72
  5
  0
LINE
  8
0
  6
CONTINUOUS
 62
     7
 10
-77.987159729003906
 20
-75.918441772460938
 11
-77.987159729003906
 21
-85.0731201171875
  0
LINE
  8
0
  6
CONTINUOUS
 62
     7
 10
-77.987159729003906
 20
-85.0731201171875
 11
-77.21070259369634
 21
-82.175342638320302
  0
LINE
  8
0
  6
CONTINUOUS
 62
     7
 10
-77.987159729003906
 20
-85.0731201171875
 11
-78.763616864311473
 21
-82.175342638320302
  0
CIRCLE
  8
0
  6
CONTINUOUS
 62
     7
 10
-77.987159729003906
 20
-87.373115539550767
 40
 0.300000011920929
  0
CIRCLE
  8
0
  6
CONTINUOUS
 62
     7
 10
-77.987159729003906
 20
-87.373115539550767
 40
 0.300000011920929
  0
LINE
  8
0
  6
CONTINUOUS
 62
     3
 10
-116.68718719482422
 20
-87.373115539550767
 11
-116.68718719482422
 21
-88.373115539550781
  0
LINE
  8
0
  6
CONTINUOUS
 62
     3
 10
-116.68718719482422
 20
-88.373115539550781
 11
-112.28717041015625
 21
-88.373115539550781
  0
LINE
  8
0
  6
CONTINUOUS
 62
     3
 10
-112.28717041015625
 20
-88.373115539550781
 11
-112.28717041015625
 21
-87.373115539550767
  0
LINE
  8
0
  6
DOT
 62
     3
 10
-115.98717498779298
 20
-85.0731201171875
 11
-115.98717498779298
 21
-86.073112487792955
  0
LINE
  8
0
  6
DOT
 62
     3
 10
-115.98717498779298
 20
-86.073112487792955
 11
-112.9871826171875
 21
-86.073112487792955
  0
LINE
  8
0
  6
DOT
 62
     3
 10
-112.9871826171875
 20
-86.073112487792955
 11
-112.9871826171875
 21
-85.0731201171875
  0
LINE
  8
4
  6
CONTINUOUS
 62
     7
 10
 116.93405151367189
 20
 30.741029739379879
 11
 179.87689208984375
 21
 30.741029739379879
  0
ARC
  8
4
  6
CONTINUOUS
 62
     7
 10
 179.87689208984375
 20
 27.541034698486328
 40
 3.2000000476837158
 50
 0
 51
 90.000004039712721
  0
LINE
  8
4
  6
CONTINUOUS
 62
     7
 10
 183.076904296875
 20
 27.541034698486328
 11
 183.076904296875
 21
 20.741027832031246
  0
LINE
  8
4
  6
CONTINUOUS
 62
     7
 10
 183.076904296875
 20
 20.741027832031246
 11
 181.47689819335937
 21
 20.741027832031246
  0
LINE
  8
4
  6
CONTINUOUS
 62
     7
 10
 181.47689819335937
 20
 20.741027832031246
 11
 181.47689819335937
 21
 27.541021347045898
  0
ARC
  8
4
  6
CONTINUOUS
 62
     7
 10
 179.87689208984375
 20
 27.541021347045898
 40
 1.6000000238418579
 50
 0
 51
 90.000004039712721
  0
LINE
  8
4
  6
CONTINUOUS
 62
     7
 10
 179.87689208984375
 20
 29.141021728515621
 11
 116.93405151367189
 21
 29.141021728515621
  0
ARC
  8
0
  6
CONTINUOUS
 62
     7
 10
 168.07687377929687
 20
 20.641027450561523
 40
 2.5
 50
-179.9999980615126
 51
 120.7627189635311
  0
ARC
  8
0
  6
CONTINUOUS
 62
     7
 10
 168.07687377929687
 20
 20.641027450561523
 40
 4.8000001907348633
 50
-179.9999980615126
 51
 120.76273262390967
  0
LINE
  8
0
  6
CONTINUOUS
 62
     7
 10
 166.07687377929687
 20
 29.141021728515621
 11
 175.57687377929687
 21
 29.141021728515621
  0
LINE
  8
0
  6
CONTINUOUS
 62
     7
 10
 166.07687377929687
 20
 26.841026306152347
 11
 175.57687377929687
 21
 26.841026306152347
  0
LINE
  8
0
  6
CONTINUOUS
 62
     7
 10
 163.27688598632812
 20
 20.641027450561523
 11
 163.27688598632812
 21
 24.841039657592773
  0
ARC
  8
0
  6
CONTINUOUS
 62
     7
 10
 167.57687377929687
 20
 24.841039657592773
 40
 4.3000001907348633
 50
 90.000004039712721
 51
-179.9999980615126
  0
LINE
  8
0
  6
CONTINUOUS
 62
     7
 10
 165.57687377929687
 20
 20.641027450561523
 11
 165.57687377929687
 21
 24.841039657592773
  0
ARC
  8
0
  6
CONTINUOUS
 62
     7
 10
 167.57687377929687
 20
 24.841039657592773
 40
 2
 50
 90.000004039712721
 51
-179.9999980615126
  0
LINE
  8
0
  6
CONTINUOUS
 62
     7
 10
 175.57687377929687
 20
 29.141021728515621
 11
 175.57687377929687
 21
 26.841026306152347
  0
LINE
  8
0
  6
CONTINUOUS
 62
     7
 10
 166.79818725585937
 20
 22.78925895690918
 11
 165.57687377929687
 21
 24.841039657592773
  0
LINE
  8
0
  6
CONTINUOUS
 62
     7
 10
 170.07687377929687
 20
 29.141021728515621
 11
 170.07687377929687
 21
 28.941026687622067
  0
LINE
  8
0
  6
CONTINUOUS
 62
     7
 10
 170.07687377929687
 20
 28.941026687622067
 11
 172.07687377929687
 21
 28.941026687622067
  0
LINE
  8
0
  6
CONTINUOUS
 62
     7
 10
 172.07687377929687
 20
 28.941026687622067
 11
 172.07687377929687
 21
 29.141021728515621
  0
LINE
  8
0
  6
CONTINUOUS
 62
     7
 10
 166.07687377929687
 20
 29.141021728515621
 11
 166.07687377929687
 21
 26.841026306152347
  0
ARC
  8
0
  6
CONTINUOUS
 62
     6
 10
 168.07687377929687
 20
 20.641027450561523
 40
 16.976242065429687
 50
-115.88890443681248
 51
 47.744884339377876
  0
LINE
  8
0
  6
CONTINUOUS
 62
     7
 10
 113.88868713378906
 20
 30.741029739379879
 11
 71.405136108398437
 21
 30.741029739379879
  0
LINE
  8
0
  6
CONTINUOUS
 62
     7
 10
 71.405136108398437
 20
 29.141021728515621
 11
 113.88868713378906
 21
 29.141021728515621
  0
LINE
  8
0
  6
CONTINUOUS
 62
     6
 10
 80.405143737792969
 20
 28.641035079956055
 11
 101.40513610839844
 21
 28.641035079956055
  0
ARC
  8
0
  6
CONTINUOUS
 62
     6
 10
 101.40513610839844
 20
 26.641036987304691
 40
 2
 50
 0
 51
 90.000004039712721
  0
ARC
  8
0
  6
CONTINUOUS
 62
     6
 10
 80.405143737792969
 20
 26.641036987304691
 40
 2
 50
 90.000004039712721
 51
-179.9999980615126
  0
LINE
  8
0
  6
CONTINUOUS
 62
     6
 10
 103.40513610839844
 20
 26.641036987304691
 11
 103.40513610839844
 21
 24.391040802001953
  0
LINE
  8
0
  6
CONTINUOUS
 62
     6
 10
 100.90513610839844
 20
 25.641044616699219
 11
 100.70513916015625
 21
 25.641044616699219
  0
LINE
  8
0
  6
CONTINUOUS
 62
     6
 10
 98.405136108398438
 20
 25.641044616699219
 11
 78.405128479003906
 21
 25.641044616699219
  0
LINE
  8
0
  6
DOT
 62
     6
 10
 100.70513916015625
 20
 25.641044616699219
 11
 98.405136108398438
 21
 25.641044616699219
  0
LINE
  8
0
  6
CONTINUOUS
 62
     6
 10
 78.405128479003906
 20
 25.641044616699219
 11
 78.405128479003906
 21
 26.641036987304691
  0
LINE
  8
0
  6
CONTINUOUS
 62
     6
 10
 98.405136108398438
 20
 25.641044616699219
 11
 98.405136108398438
 21
 12.141045570373535
  0
ARC
  8
0
  6
CONTINUOUS
 62
     6
 10
 96.405136108398437
 20
 12.141045570373535
 40
 2
 50
-90.000000851989171
 51
 0
  0
LINE
  8
0
  6
CONTINUOUS
 62
     6
 10
 96.405136108398437
 20
 10.141039848327638
 11
 80.405143737792969
 21
 10.141039848327638
  0
ARC
  8
0
  6
CONTINUOUS
 62
     6
 10
 80.405143737792969
 20
 12.141045570373535
 40
 2
 50
-179.9999980615126
 51
-90.000000851989171
  0
LINE
  8
0
  6
CONTINUOUS
 62
     6
 10
 78.405128479003906
 20
 12.141045570373535
 11
 78.405128479003906
 21
 25.641044616699219
  0
LINE
  8
0
  6
CONTINUOUS
 62
     6
 10
 78.405128479003906
 20
 13.341047286987306
 11
 84.405136108398438
 21
 13.341047286987306
  0
ARC
  8
0
  6
CONTINUOUS
 62
     6
 10
 84.405136108398438
 20
 10.341049194335939
 40
 3
 50
 0
 51
 90.000004039712721
  0
LINE
  8
0
  6
CONTINUOUS
 62
     6
 10
 87.405136108398438
 20
 10.341049194335939
 11
 87.405136108398438
 21
 10.141039848327638
  0
LINE
  8
0
  6
CONTINUOUS
 62
     6
 10
 100.90513610839844
 20
 25.641044616699219
 11
 100.90513610839844
 21
 24.391040802001953
  0
LINE
  8
0
  6
DOT
 62
     6
 10
 98.39312744140625
 20
 20.641033172607422
 11
 79.393135070800781
 21
 20.641033172607422
  0
LINE
  8
0
  6
DOT
 62
     6
 10
 79.393135070800781
 20
 20.641033172607422
 11
 79.393135070800781
 21
 16.641036987304691
  0
LINE
  8
0
  6
DOT
 62
     6
 10
 79.393135070800781
 20
 16.641029357910153
 11
 98.39312744140625
 21
 16.641029357910153
  0
LINE
  8
0
  6
DOT
 62
     6
 10
 81.155136108398438
 20
 10.141039848327638
 11
 81.155136108398438
 21
 13.241039276123047
  0
LINE
  8
0
  6
DOT
 62
     6
 10
 81.155136108398438
 20
 13.241039276123047
 11
 95.655136108398438
 21
 13.241039276123047
  0
LINE
  8
0
  6
DOT
 62
     6
 10
 95.655136108398438
 20
 13.241039276123047
 11
 95.655136108398438
 21
 10.141039848327638
  0
LINE
  8
0
  6
DOT
 62
     6
 10
 79.263198852539063
 20
 28.282976150512692
 11
 84.405136108398438
 21
 23.141033172607422
  0
LINE
  8
0
  6
DOT
 62
     6
 10
 84.405136108398438
 20
 23.141033172607422
 11
 84.405136108398438
 21
 20.641033172607422
  0
LINE
  8
0
  6
DOT
 62
     6
 10
 84.405136108398438
 20
 16.641029357910153
 11
 84.405136108398438
 21
 13.241039276123047
  0
LINE
  8
0
  6
DOT
 62
     6
 10
 92.405120849609375
 20
 13.241039276123047
 11
 92.405120849609375
 21
 16.641029357910153
  0
LINE
  8
0
  6
DOT
 62
     6
 10
 92.405120849609375
 20
 20.641027450561523
 11
 92.405120849609375
 21
 23.141025543212891
  0
LINE
  8
0
  6
DOT
 62
     6
 10
 92.405120849609375
 20
 23.141025543212891
 11
 97.905136108398438
 21
 28.641035079956055
  0
LINE
  8
0
  6
DOT
 62
     6
 10
 84.405136108398438
 20
 23.141033172607422
 11
 92.405120849609375
 21
 23.141025543212891
  0
ARC
  8
0
  6
CONTINUOUS
 62
     6
 10
 102.15513610839844
 20
 24.391040802001953
 40
 1.25
 50
-179.9999980615126
 51
 0
  0
LINE
  8
0
  6
DASHDOT
 62
     7
 10
 88.205154418945313
 20
 48.806106567382813
 11
 88.205154418945313
 21
 7.1875276565551758
  0
LINE
  8
0
  6
CONTINUOUS
 62
     7
 10
 94.20513916015625
 20
 45.24102783203125
 11
 82.205154418945313
 21
 45.24102783203125
  0
LINE
  8
0
  6
CONTINUOUS
 62
     7
 10
 82.205154418945313
 20
 45.24102783203125
 11
 81.171844482421875
 21
 44.241584777832031
  0
LINE
  8
0
  6
CONTINUOUS
 62
     7
 10
 94.20513916015625
 20
 45.24102783203125
 11
 95.238449096679688
 21
 44.241584777832031
  0
LINE
  8
0
  6
CONTINUOUS
 62
     7
 10
 95.705154418945313
 20
 31.241027832031246
 11
 95.238449096679688
 21
 44.241584777832031
  0
LINE
  8
0
  6
CONTINUOUS
 62
     7
 10
 95.705154418945313
 20
 31.241027832031246
 11
 80.705154418945313
 21
 31.241027832031246
  0
LINE
  8
0
  6
CONTINUOUS
 62
     7
 10
 80.705154418945313
 20
 31.241027832031246
 11
 81.171844482421875
 21
 44.241584777832031
  0
LINE
  8
0
  6
CONTINUOUS
 62
     7
 10
 81.205154418945313
 20
 44.24102783203125
 11
 95.20513916015625
 21
 44.24102783203125
  0
LINE
  8
0
  6
CONTINUOUS
 62
     7
 10
 80.705154418945313
 20
 31.241027832031246
 11
 88.205154418945313
 21
 30.241029739379879
  0
LINE
  8
0
  6
CONTINUOUS
 62
     7
 10
 88.205154418945313
 20
 30.241029739379879
 11
 95.705154418945313
 21
 31.241027832031246
  0
LINE
  8
0
  6
CONTINUOUS
 62
     7
 10
 95.190887451171875
 20
 31.668975830078129
 11
 94.749404907226563
 21
 43.912704467773437
  0
LINE
  8
0
  6
CONTINUOUS
 62
     7
 10
 94.678695678710937
 20
 32.034938812255859
 11
 94.269424438476563
 21
 43.312427520751953
  0
LINE
  8
0
  6
CONTINUOUS
 62
     7
 10
 94.163848876953125
 20
 32.479583740234375
 11
 93.794525146484375
 21
 42.55902099609375
  0
LINE
  8
0
  6
CONTINUOUS
 62
     7
 10
 93.643173217773438
 20
 33.099781036376953
 11
 93.323684692382813
 21
 41.684215545654297
  0
LINE
  8
0
  6
CONTINUOUS
 62
     7
 10
 93.131179809570313
 20
 33.459922790527344
 11
 92.844284057617188
 21
 41.066207885742188
  0
LINE
  8
0
  6
CONTINUOUS
 62
     7
 10
 92.618667602539062
 20
 33.834529876708984
 11
 92.3648681640625
 21
 40.448188781738281
  0
LINE
  8
0
  6
CONTINUOUS
 62
     7
 10
 92.10455322265625
 20
 34.258163452148438
 11
 91.878936767578125
 21
 40.026279449462891
  0
LINE
  8
0
  6
CONTINUOUS
 62
     7
 10
 91.588699340820312
 20
 34.733158111572266
 11
 91.391799926757813
 21
 39.639850616455078
  0
LINE
  8
0
  6
CONTINUOUS
 62
     7
 10
 91.058761596679688
 20
 35.631156921386719
 11
 90.901199340820312
 21
 39.358009338378906
  0
LINE
  8
0
  6
CONTINUOUS
 62
     7
 10
 86.205154418945313
 20
 30.507694244384766
 11
 86.205154418945313
 21
 17.241031646728516
  0
LINE
  8
0
  6
CONTINUOUS
 62
     7
 10
 90.205154418945313
 20
 30.507694244384766
 11
 90.205154418945313
 21
 17.241031646728516
  0
LINE
  8
0
  6
CONTINUOUS
 62
     7
 10
 85.205169677734375
 20
 25.241025924682617
 11
 91.205154418945313
 21
 25.241025924682617
  0
LINE
  8
0
  6
CONTINUOUS
 62
     7
 10
 91.205154418945313
 20
 25.241025924682617
 11
 91.205154418945313
 21
 17.241031646728516
  0
LINE
  8
0
  6
CONTINUOUS
 62
     7
 10
 91.205154418945313
 20
 17.241031646728516
 11
 85.205169677734375
 21
 17.241031646728516
  0
LINE
  8
0
  6
CONTINUOUS
 62
     7
 10
 85.205169677734375
 20
 17.241031646728516
 11
 85.205169677734375
 21
 25.241025924682617
  0
LINE
  8
0
  6
CONTINUOUS
 62
     7
 10
 85.205169677734375
 20
 17.241031646728516
 11
 88.205154418945313
 21
 15.241031646728516
  0
LINE
  8
0
  6
CONTINUOUS
 62
     7
 10
 88.205154418945313
 20
 15.241031646728516
 11
 91.205154418945313
 21
 17.241031646728516
  0
ARC
  8
0
  6
CONTINUOUS
 62
     7
 10
 51.405132293701172
 20
 27.541034698486328
 40
 3.2000000476837158
 50
 89.999997209523428
 51
-179.9999980615126
  0
LINE
  8
0
  6
CONTINUOUS
 62
     7
 10
 48.205135345458984
 20
 27.541034698486328
 11
 48.205135345458984
 21
 20.741027832031246
  0
LINE
  8
0
  6
CONTINUOUS
 62
     7
 10
 48.205135345458984
 20
 20.741027832031246
 11
 49.805126190185547
 21
 20.741027832031246
  0
LINE
  8
0
  6
CONTINUOUS
 62
     7
 10
 49.805126190185547
 20
 20.741027832031246
 11
 49.805126190185547
 21
 27.541021347045898
  0
ARC
  8
0
  6
CONTINUOUS
 62
     7
 10
 51.405132293701172
 20
 27.541021347045898
 40
 1.6000000238418579
 50
 89.999997209523428
 51
-179.9999980615126
  0
LINE
  8
0
  6
CONTINUOUS
 62
     7
 10
 51.405132293701172
 20
 30.741035461425785
 11
 71.405136108398437
 21
 30.741035461425785
  0
LINE
  8
0
  6
CONTINUOUS
 62
     7
 10
 51.405132293701172
 20
 29.141021728515621
 11
 71.405136108398437
 21
 29.141021728515621
  0
TEXT
  8
0
  6
CONTINUOUS
 62
     7
 10
 110.73049011230468
 20
-32.769371032714851
 11
 125.03049011230468
 21
-32.769371032714851
 40
 4
 41
 0.8
  1
組付け図
 50
 0
 72
  5
  0
LINE
  8
0
  6
CONTINUOUS
 62
     7
 10
 107.75997924804686
 20
-33.769386291503906
 11
 129.94345092773437
 21
-33.769386291503906
  0
LINE
  8
0
  6
DASHDOT
 62
     7
 10
 38.141029357910156
 20
 99.839759826660156
 11
 38.141029357910156
 21
-39.935874938964837
  0
LINE
  8
0
  6
DASHDOT
 62
     7
 10
 168.07687377929687
 20
 33.241207122802734
 11
 168.07687377929687
 21
 11.702742576599119
  0
LINE
  8
0
  6
DASHDOT
 62
     7
 10
 136.97116088867187
 20
 20.641027450561523
 11
 176.76687622070312
 21
 20.641027450561523
  0
ARC
  8
0
  6
CONTINUOUS
 62
     3
 10
-121.98717498779297
 20
-68.359428405761719
 40
 1
 50
 90.000004039712721
 51
-179.9999980615126
  0
ARC
  8
0
  6
CONTINUOUS
 62
     3
 10
-146.98715209960937
 20
-83.37310791015625
 40
 1
 50
-0.0004271142015116
 51
 90.000004039712721
  0
LINE
  8
0
  6
CONTINUOUS
 62
     3
 10
-48.555557250976563
 20
-79.873115539550781
 11
-50.196189880371094
 21
-79.873115539550781
  0
LINE
  8
0
  6
CONTINUOUS
 62
     3
 10
-22.557809829711914
 20
-79.873115539550781
 11
-20.720857620239258
 21
-79.873115539550781
  0
LINE
  8
0
  6
CONTINUOUS
 62
     7
 10
 104.37501525878906
 20
 28.641035079956055
 11
 113.34869384765626
 21
 28.641035079956055
  0
LINE
  8
0
  6
CONTINUOUS
 62
     7
 10
 112.38869476318361
 20
 22.892644882202148
 11
 112.38869476318361
 21
 28.641035079956055
  0
LINE
  8
0
  6
CONTINUOUS
 62
     7
 10
 112.38869476318361
 20
 28.641035079956055
 11
 111.61223762787604
 21
 25.74325760108885
  0
LINE
  8
0
  6
CONTINUOUS
 62
     7
 10
 112.38869476318361
 20
 28.641035079956055
 11
 113.16515189849117
 21
 25.74325760108885
  0
LINE
  8
0
  6
CONTINUOUS
 62
     7
 10
 112.38869476318361
 20
 28.641035079956055
 11
 112.38869476318361
 21
 29.141021728515621
  0
TEXT
  8
0
  6
CONTINUOUS
 62
     7
 10
 111.42870334307457
 20
 30.74101948340866
 11
 111.42870308954851
 21
 36.541019483408647
 40
 2
 41
 0.8
  1
０．５
 50
 90.000004039712707
 72
  5
  0
LINE
  8
0
  6
CONTINUOUS
 62
     7
 10
 112.38869476318361
 20
 38.141021728515625
 11
 112.38869476318361
 21
 29.141021728515621
  0
LINE
  8
0
  6
CONTINUOUS
 62
     7
 10
 112.38869476318361
 20
 29.141021728515621
 11
 113.16515189849117
 21
 32.038799207382823
  0
LINE
  8
0
  6
CONTINUOUS
 62
     7
 10
 112.38869476318361
 20
 29.141021728515621
 11
 111.61223762787604
 21
 32.038799207382823
  0
LINE
  8
0
  6
CONTINUOUS
 62
     7
 10
 127.72437286376955
 20
 28.141048431396484
 11
 124.97404479980467
 21
 28.141048431396484
  0
LINE
  8
0
  6
CONTINUOUS
 62
     7
 10
 125.93404388427734
 20
 22.892644882202148
 11
 125.93404388427734
 21
 28.141048431396484
  0
LINE
  8
0
  6
CONTINUOUS
 62
     7
 10
 125.93404388427734
 20
 28.141048431396484
 11
 125.15758674896978
 21
 25.243270952529279
  0
LINE
  8
0
  6
CONTINUOUS
 62
     7
 10
 125.93404388427734
 20
 28.141048431396484
 11
 126.71050101958491
 21
 25.243270952529279
  0
LINE
  8
0
  6
CONTINUOUS
 62
     7
 10
 125.93404388427734
 20
 29.141021728515621
 11
 125.93404388427734
 21
 28.141048431396484
  0
TEXT
  8
0
  6
CONTINUOUS
 62
     7
 10
 124.97404483477381
 20
 30.74101948340866
 11
 124.97404458124774
 21
 36.541019483408647
 40
 2
 41
 0.8
  1
１．０
 50
 90.000004039712707
 72
  5
  0
LINE
  8
0
  6
CONTINUOUS
 62
     7
 10
 125.93404388427734
 20
 38.141021728515625
 11
 125.93404388427734
 21
 29.141021728515621
  0
LINE
  8
0
  6
CONTINUOUS
 62
     7
 10
 125.93404388427734
 20
 29.141021728515621
 11
 126.71050101958491
 21
 32.038799207382823
  0
LINE
  8
0
  6
CONTINUOUS
 62
     7
 10
 125.93404388427734
 20
 29.141021728515621
 11
 125.15758674896978
 21
 32.038799207382823
  0
LINE
  8
0
  6
CONTINUOUS
 62
     7
 10
-124.48712921142577
 20
 55.837970733642578
 11
-124.48712921142577
 21
 68.586921691894531
  0
LINE
  8
0
  6
CONTINUOUS
 62
     7
 10
-124.48712921142577
 20
 67.626922607421875
 11
-121.98717498779297
 21
 67.626922607421875
  0
TEXT
  8
0
  6
CONTINUOUS
 62
     7
 10
-120.15895538330078
 20
 68.586921691894531
 11
-110.15895538330078
 21
 68.586921691894531
 40
 2
 41
 0.8
  1
（２．５）
 50
 0
 72
  5
  0
LINE
  8
0
  6
CONTINUOUS
 62
     7
 10
-113.18909454345702
 20
 67.626922607421875
 11
-121.98717498779297
 21
 67.626922607421875
  0
LINE
  8
0
  6
CONTINUOUS
 62
     7
 10
-121.98717498779297
 20
 67.626922607421875
 11
-119.08939750892577
 21
 66.850465472114308
  0
LINE
  8
0
  6
CONTINUOUS
 62
     7
 10
-121.98717498779297
 20
 67.626922607421875
 11
-119.08939750892577
 21
 68.403379742729442
  0
LINE
  8
0
  6
DOT
 62
     3
 10
-124.28716278076172
 20
 20.626922607421879
 11
-121.98717498779297
 21
 20.626922607421879
  0
ARC
  8
0
  6
CONTINUOUS
 62
     3
 10
-121.98717498779297
 20
 21.626918792724613
 40
 1
 50
-179.99994341999832
 51
-90.000000851989171
  0
LINE
  8
0
  6
CONTINUOUS
 62
     3
 10
-122.98717498779295
 20
 21.626918792724613
 11
-122.98717498779295
 21
 22.626924514770508
  0
LINE
  8
0
  6
CONTINUOUS
 62
     3
 10
-50.487163543701172
 20
 102.62689208984375
 11
-50.487163543701172
 21
 101.12689208984375
  0
LINE
  8
0
  6
CONTINUOUS
 62
     3
 10
-50.487163543701172
 20
 101.12689208984375
 11
-48.187164306640625
 21
 101.12689208984375
  0
LINE
  8
0
  6
CONTINUOUS
 62
     3
 10
-48.187164306640625
 20
 101.12691497802734
 11
-48.187164306640625
 21
 102.62689208984375
  0
LINE
  8
0
  6
CONTINUOUS
 62
     3
 10
-22.787166595458984
 20
 102.62689208984375
 11
-22.787166595458984
 21
 101.12689208984375
  0
LINE
  8
0
  6
CONTINUOUS
 62
     3
 10
-22.787164688110352
 20
 101.12691497802734
 11
-20.487165451049805
 21
 101.12691497802734
  0
LINE
  8
0
  6
CONTINUOUS
 62
     3
 10
 149.07687377929687
 20
 25.641044616699219
 11
 130.57687377929687
 21
 25.641044616699219
  0
ARC
  8
0
  6
CONTINUOUS
 62
     3
 10
 149.07687377929687
 20
 21.641046524047848
 40
 4
 50
 0
 51
 90.000004039712721
  0
LINE
  8
0
  6
CONTINUOUS
 62
     3
 10
 153.07685852050781
 20
 22.141046524047848
 11
 153.07685852050781
 21
 17.641042709350586
  0
ARC
  8
0
  6
CONTINUOUS
 62
     3
 10
 149.07687377929687
 20
 17.641042709350586
 40
 4
 50
-90.000000851989171
 51
 0
  0
LINE
  8
0
  6
CONTINUOUS
 62
     3
 10
 149.07687377929687
 20
 13.641044616699221
 11
 146.07687377929687
 21
 13.641044616699221
  0
ARC
  8
0
  6
CONTINUOUS
 62
     3
 10
 146.07687377929687
 20
 10.64104652404785
 40
 3
 50
 90.000004039712721
 51
-179.9999980615126
  0
CIRCLE
  8
0
  6
CONTINUOUS
 62
     3
 10
 148.07687377929687
 20
 20.641027450561523
 40
 2.5000002384185791
  0
LINE
  8
0
  6
CONTINUOUS
 62
     3
 10
 143.07688903808594
 20
 10.64104652404785
 11
 143.07688903808594
 21
 1.641048431396481
  0
ARC
  8
0
  6
CONTINUOUS
 62
     3
 10
 146.07687377929687
 20
 1.641048431396481
 40
 3
 50
-179.9999980615126
 51
-90.000000851989171
  0
LINE
  8
0
  6
CONTINUOUS
 62
     3
 10
 146.07687377929687
 20
-1.358962535858159
 11
 151.57682800292969
 21
-1.358962535858159
  0
ARC
  8
0
  6
CONTINUOUS
 62
     3
 10
 151.57682800292969
 20
-4.3589544296264613
 40
 3
 50
 0
 51
 90.000004039712721
  0
LINE
  8
0
  6
DOT
 62
     3
 10
 153.27682495117187
 20
-6.3589596748352104
 11
 155.57682800292969
 21
-6.3589596748352104
  0
ARC
  8
0
  6
CONTINUOUS
 62
     3
 10
 155.57682800292969
 20
-5.3589601516723642
 40
 1
 50
-179.99994341999832
 51
-90.000000851989171
  0
LINE
  8
0
  6
CONTINUOUS
 62
     3
 10
 154.57681274414062
 20
-5.3589601516723642
 11
 154.57681274414062
 21
-4.3589544296264613
  0
LINE
  8
0
  6
CONTINUOUS
 62
     3
 10
 130.57687377929687
 20
 25.641044616699219
 11
 130.57687377929687
 21
-24.358955383300781
  0
LINE
  8
0
  6
CONTINUOUS
 62
     3
 10
 155.57682800292969
 20
-6.3589596748352104
 11
 155.57682800292969
 21
-24.358955383300781
  0
LINE
  8
0
  6
DOT
 62
     3
 10
 132.87687683105469
 20
 25.641044616699219
 11
 132.87687683105469
 21
-24.358955383300781
  0
LINE
  8
0
  6
DOT
 62
     3
 10
 153.27682495117187
 20
-6.3589596748352104
 11
 153.27682495117187
 21
-24.358955383300781
  0
LINE
  8
0
  6
CONTINUOUS
 62
     3
 10
 82.20513916015625
 20
 25.641044616699219
 11
 100.70513916015625
 21
 25.641044616699219
  0
ARC
  8
0
  6
CONTINUOUS
 62
     3
 10
 82.20513916015625
 20
 21.641046524047848
 40
 4
 50
 89.999997209523428
 51
-179.9999980615126
  0
LINE
  8
0
  6
CONTINUOUS
 62
     3
 10
 78.205154418945313
 20
 22.141046524047848
 11
 78.205154418945313
 21
 17.641042709350586
  0
ARC
  8
0
  6
CONTINUOUS
 62
     3
 10
 82.20513916015625
 20
 17.641042709350586
 40
 4
 50
-179.9999980615126
 51
-90.000000851989171
  0
LINE
  8
0
  6
CONTINUOUS
 62
     3
 10
 82.20513916015625
 20
 13.641044616699221
 11
 85.20513916015625
 21
 13.641044616699221
  0
ARC
  8
0
  6
CONTINUOUS
 62
     3
 10
 85.20513916015625
 20
 10.64104652404785
 40
 3
 50
-0.0000173028443202
 51
 89.999997209523428
  0
CIRCLE
  8
0
  6
CONTINUOUS
 62
     3
 10
 83.20513916015625
 20
 20.641027450561523
 40
 2.5000002384185791
  0
LINE
  8
0
  6
CONTINUOUS
 62
     3
 10
 88.205123901367188
 20
 10.64104652404785
 11
 88.205123901367188
 21
 1.641048431396481
  0
ARC
  8
0
  6
CONTINUOUS
 62
     3
 10
 85.20513916015625
 20
 1.641048431396481
 40
 3
 50
-90.000000851989171
 51
-0.0000173028443202
  0
LINE
  8
0
  6
CONTINUOUS
 62
     3
 10
 85.20513916015625
 20
-1.358962535858159
 11
 79.705184936523438
 21
-1.358962535858159
  0
ARC
  8
0
  6
CONTINUOUS
 62
     3
 10
 79.705184936523438
 20
-4.3589544296264613
 40
 3
 50
 89.999997209523428
 51
-179.9999980615126
  0
LINE
  8
0
  6
DOT
 62
     3
 10
 78.00518798828125
 20
-6.3589596748352104
 11
 75.705184936523438
 21
-6.3589596748352104
  0
ARC
  8
0
  6
CONTINUOUS
 62
     3
 10
 75.705184936523438
 20
-5.3589601516723642
 40
 1
 50
-90.000000851989171
 51
-0.0000719443586124
  0
LINE
  8
0
  6
CONTINUOUS
 62
     3
 10
 76.7052001953125
 20
-5.3589601516723642
 11
 76.7052001953125
 21
-4.3589544296264613
  0
LINE
  8
0
  6
CONTINUOUS
 62
     3
 10
 100.70513916015625
 20
 25.641044616699219
 11
 100.70513916015625
 21
-24.358955383300781
  0
LINE
  8
0
  6
CONTINUOUS
 62
     3
 10
 75.705184936523438
 20
-6.3589596748352104
 11
 75.705184936523438
 21
-24.358955383300781
  0
LINE
  8
0
  6
DOT
 62
     3
 10
 98.405136108398438
 20
 25.641044616699219
 11
 98.405136108398438
 21
-24.358955383300781
  0
LINE
  8
0
  6
DOT
 62
     3
 10
 78.00518798828125
 20
-6.3589596748352104
 11
 78.00518798828125
 21
-24.358955383300781
  0
LINE
  8
0
  6
CONTINUOUS
 62
     3
 10
-136.48716735839844
 20
-49.873123168945305
 11
-132.4871826171875
 21
-49.873123168945305
  0
ARC
  8
0
  6
CONTINUOUS
 62
     3
 10
-132.4871826171875
 20
-51.873119354248054
 40
 2
 50
 0
 51
 90.000004039712721
  0
ARC
  8
0
  6
CONTINUOUS
 62
     3
 10
-136.48716735839844
 20
-51.873119354248054
 40
 2
 50
 90.000004039712721
 51
-179.9999980615126
  0
LINE
  8
0
  6
CONTINUOUS
 62
     3
 10
-130.4871826171875
 20
-51.873119354248054
 11
-130.4871826171875
 21
-62.873126983642585
  0
ARC
  8
0
  6
CONTINUOUS
 62
     3
 10
-132.4871826171875
 20
-62.873126983642585
 40
 2
 50
-90.000000851989171
 51
 0
  0
LINE
  8
0
  6
CONTINUOUS
 62
     3
 10
-132.4871826171875
 20
-64.873123168945313
 11
-136.48716735839844
 21
-64.873123168945313
  0
ARC
  8
0
  6
CONTINUOUS
 62
     3
 10
-136.48716735839844
 20
-62.873126983642585
 40
 2
 50
-179.9999980615126
 51
-90.000000851989171
  0
LINE
  8
0
  6
CONTINUOUS
 62
     3
 10
-138.48716735839844
 20
-62.873126983642585
 11
-138.48716735839844
 21
-51.873119354248054
  0
LINE
  8
0
  6
CONTINUOUS
 62
     3
 10
-136.48716735839844
 20
-9.8731145858764666
 11
-132.4871826171875
 21
-9.8731145858764666
  0
ARC
  8
0
  6
CONTINUOUS
 62
     3
 10
-132.4871826171875
 20
-11.873112678527827
 40
 2
 50
 0
 51
 90.000004039712721
  0
ARC
  8
0
  6
CONTINUOUS
 62
     3
 10
-136.48716735839844
 20
-11.873112678527827
 40
 2
 50
 90.000004039712721
 51
-179.9999980615126
  0
LINE
  8
0
  6
CONTINUOUS
 62
     3
 10
-130.4871826171875
 20
-11.873112678527827
 11
-130.4871826171875
 21
-22.873113632202152
  0
ARC
  8
0
  6
CONTINUOUS
 62
     3
 10
-132.4871826171875
 20
-22.873113632202152
 40
 2
 50
-90.000000851989171
 51
 0
  0
LINE
  8
0
  6
CONTINUOUS
 62
     3
 10
-132.4871826171875
 20
-24.873117446899418
 11
-136.48716735839844
 21
-24.873117446899418
  0
ARC
  8
0
  6
CONTINUOUS
 62
     3
 10
-136.48716735839844
 20
-22.873113632202152
 40
 2
 50
-179.9999980615126
 51
-90.000000851989171
  0
LINE
  8
0
  6
CONTINUOUS
 62
     3
 10
-138.48716735839844
 20
-22.873113632202152
 11
-138.48716735839844
 21
-11.873112678527827
  0
LINE
  8
0
  6
DASHDOT
 62
     7
 10
-52.724353790283203
 20
-57.37312316894532
 11
-45.881401062011719
 21
-57.37312316894532
  0
LINE
  8
0
  6
DASHDOT
 62
     7
 10
-25.240377426147461
 20
-57.37312316894532
 11
-18.621786117553711
 21
-57.37312316894532
  0
LINE
  8
0
  6
DOT
 62
     3
 10
-50.487167358398437
 20
-49.873123168945305
 11
-48.187168121337891
 21
-49.873123168945305
  0
LINE
  8
0
  6
DOT
 62
     3
 10
-48.187168121337891
 20
-64.873123168945313
 11
-50.487167358398437
 21
-64.873123168945313
  0
LINE
  8
0
  6
DOT
 62
     3
 10
-22.787166595458984
 20
-49.873123168945305
 11
-20.487167358398437
 21
-49.873123168945305
  0
LINE
  8
0
  6
DOT
 62
     3
 10
-20.487167358398437
 20
-64.873123168945313
 11
-22.787166595458984
 21
-64.873123168945313
  0
LINE
  8
0
  6
DASHDOT
 62
     7
 10
-25.240377426147461
 20
-17.37312316894532
 11
-18.621786117553711
 21
-17.37312316894532
  0
LINE
  8
0
  6
DOT
 62
     3
 10
-50.487167358398437
 20
-9.873120307922358
 11
-48.187168121337891
 21
-9.873120307922358
  0
LINE
  8
0
  6
DOT
 62
     3
 10
-48.187168121337891
 20
-24.873125076293945
 11
-50.487167358398437
 21
-24.873125076293945
  0
LINE
  8
0
  6
DOT
 62
     3
 10
-22.787166595458984
 20
-9.873120307922358
 11
-20.487167358398437
 21
-9.873120307922358
  0
LINE
  8
0
  6
DOT
 62
     3
 10
-20.487167358398437
 20
-24.873125076293945
 11
-22.787166595458984
 21
-24.873125076293945
  0
LINE
  8
0
  6
DASHDOT
 62
     7
 10
-52.724353790283203
 20
-17.37312316894532
 11
-45.881401062011719
 21
-17.37312316894532
  0
LINE
  8
0
  6
CONTINUOUS
 62
     2
 10
 169.07687377929687
 20
 25.641023635864258
 11
 141.47686767578125
 21
 25.641023635864258
  0
ARC
  8
0
  6
CONTINUOUS
 62
     2
 10
 154.27684020996094
 20
 24.641025543212891
 40
 1
 50
 90.000004039712721
 51
-179.9999980615126
  0
LINE
  8
0
  6
CONTINUOUS
 62
     2
 10
 173.07687377929687
 20
 21.641027450561523
 11
 173.07687377929687
 21
 19.641021728515629
  0
ARC
  8
0
  6
CONTINUOUS
 62
     2
 10
 169.07687377929687
 20
 21.641027450561523
 40
 4
 50
 0
 51
 90.000004039712721
  0
ARC
  8
0
  6
CONTINUOUS
 62
     2
 10
 169.07687377929687
 20
 19.641021728515629
 40
 4
 50
-90.000000851989171
 51
 0
  0
LINE
  8
0
  6
CONTINUOUS
 62
     2
 10
 169.07687377929687
 20
 15.641030311584473
 11
 168.07687377929687
 21
 15.641030311584473
  0
LINE
  8
0
  6
CONTINUOUS
 62
     2
 10
 163.07687377929687
 20
 10.641033172607422
 11
 163.07687377929687
 21
 0.6410490870475798
  0
ARC
  8
0
  6
CONTINUOUS
 62
     2
 10
 168.07687377929687
 20
 10.641033172607422
 40
 5
 50
 90.000004039712721
 51
-179.9999980615126
  0
ARC
  8
0
  6
CONTINUOUS
 62
     2
 10
 161.07687377929687
 20
 0.6410490870475798
 40
 2
 50
-90.000000851989171
 51
 0
  0
LINE
  8
0
  6
CONTINUOUS
 62
     2
 10
 133.17684936523437
 20
-9.3589515686035121
 11
 133.17684936523437
 21
 27.141029357910153
  0
LINE
  8
0
  6
CONTINUOUS
 62
     2
 10
 153.17680358886719
 20
-9.3589515686035121
 11
 153.17680358886719
 21
-5.3589472770690962
  0
LINE
  8
0
  6
CONTINUOUS
 62
     2
 10
 151.17680358886719
 20
-11.358943939208981
 11
 135.17684936523437
 21
-11.358943939208981
  0
ARC
  8
0
  6
CONTINUOUS
 62
     2
 10
 151.17680358886719
 20
-9.3589515686035121
 40
 2
 50
-90.000000851989171
 51
 0
  0
ARC
  8
0
  6
CONTINUOUS
 62
     2
 10
 135.17684936523437
 20
-9.3589515686035121
 40
 2
 50
-179.9999980615126
 51
-90.000000851989171
  0
LINE
  8
0
  6
CONTINUOUS
 62
     2
 10
 155.27685546875
 20
-1.3589433431625333
 11
 161.07687377929687
 21
-1.3589433431625333
  0
ARC
  8
0
  6
CONTINUOUS
 62
     2
 10
 155.27685546875
 20
 0.6410490870475798
 40
 2
 50
-179.9999980615126
 51
-90.000000851989171
  0
LINE
  8
0
  6
CONTINUOUS
 62
     2
 10
 153.17680358886719
 20
-5.3589472770690962
 11
 155.67681884765625
 21
-5.3589472770690962
  0
LINE
  8
0
  6
CONTINUOUS
 62
     2
 10
 153.27685546875
 20
 0.6410490870475798
 11
 153.27685546875
 21
 24.641025543212891
  0
LINE
  8
0
  6
CONTINUOUS
 62
     2
 10
 133.17686462402344
 20
 25.641023635864258
 11
 130.57685852050781
 21
 25.641023635864258
  0
ARC
  8
0
  6
CONTINUOUS
 62
     2
 10
 141.47686767578125
 20
 26.641023635864258
 40
 1
 50
-179.9999980615126
 51
-90.000000851989171
  0
ARC
  8
0
  6
CONTINUOUS
 62
     2
 10
 134.1768798828125
 20
 27.141029357910153
 40
 1
 50
 90.000004039712721
 51
-179.9999980615126
  0
LINE
  8
0
  6
CONTINUOUS
 62
     2
 10
 138.97686767578125
 20
 28.14102935791016
 11
 129.57685852050781
 21
 28.14102935791016
  0
ARC
  8
0
  6
CONTINUOUS
 62
     2
 10
 138.97686767578125
 20
 26.641029357910153
 40
 1.5
 50
 0
 51
 90.000004039712721
  0
ARC
  8
0
  6
CONTINUOUS
 62
     2
 10
 129.57685852050781
 20
 26.641029357910153
 40
 1.5
 50
 90.000004039712721
 51
-179.9999980615126
  0
LINE
  8
0
  6
CONTINUOUS
 62
     2
 10
 128.07688903808594
 20
 26.641029357910153
 11
 128.07688903808594
 21
 22.641025543212891
  0
ARC
  8
0
  6
CONTINUOUS
 62
     2
 10
 129.07687377929687
 20
 22.641025543212891
 40
 1
 50
-179.9999980615126
 51
-90.000000851989171
  0
LINE
  8
0
  6
CONTINUOUS
 62
     2
 10
 129.57685852050781
 20
 21.641027450561523
 11
 129.07687377929687
 21
 21.641027450561523
  0
ARC
  8
0
  6
CONTINUOUS
 62
     2
 10
 129.57685852050781
 20
 22.641025543212891
 40
 1
 50
-90.000000851989171
 51
 0
  0
LINE
  8
0
  6
CONTINUOUS
 62
     2
 10
 140.47685241699219
 20
 26.641023635864258
 11
 140.47685241699219
 21
 26.666318893432617
  0
LINE
  8
0
  6
CONTINUOUS
 62
     2
 10
 130.57685852050781
 20
 25.641023635864258
 11
 130.57685852050781
 21
 22.641025543212891
  0
LINE
  8
0
  6
CONTINUOUS
 62
     2
 10
 155.67681884765625
 20
-5.3589472770690962
 11
 162.343017578125
 21
-0.907130539417264
  0
CIRCLE
  8
0
  6
CONTINUOUS
 62
     2
 10
 148.07684326171875
 20
 20.641008377075192
 40
 2.9000000953674316
  0
CIRCLE
  8
0
  6
CONTINUOUS
 62
     2
 10
 168.07687377929687
 20
 20.641027450561523
 40
 2.5999999046325684
  0
LINE
  8
0
  6
CONTINUOUS
 62
     2
 10
 153.07685852050781
 20
 14.641012191772461
 11
 143.07685852050781
 21
 14.641012191772461
  0
LINE
  8
0
  6
CONTINUOUS
 62
     2
 10
 143.07685852050781
 20
 14.641012191772461
 11
 143.07685852050781
 21
 0.6410106420516962
  0
LINE
  8
0
  6
CONTINUOUS
 62
     2
 10
 143.07685852050781
 20
 0.6410106420516962
 11
 144.07684326171875
 21
 0.6410106420516962
  0
LINE
  8
0
  6
CONTINUOUS
 62
     2
 10
 144.07684326171875
 20
 0.6410106420516962
 11
 144.07684326171875
 21
 13.641012191772463
  0
LINE
  8
0
  6
CONTINUOUS
 62
     2
 10
 144.07684326171875
 20
 13.641012191772463
 11
 152.07687377929687
 21
 13.641012191772463
  0
LINE
  8
0
  6
CONTINUOUS
 62
     2
 10
 152.07687377929687
 20
 13.641012191772463
 11
 152.07687377929687
 21
 0.6410106420516962
  0
LINE
  8
0
  6
CONTINUOUS
 62
     2
 10
 152.07687377929687
 20
 0.6410106420516962
 11
 153.07685852050781
 21
 0.6410106420516962
  0
LINE
  8
0
  6
CONTINUOUS
 62
     2
 10
 153.07685852050781
 20
 0.6410106420516962
 11
 153.07685852050781
 21
 14.641012191772461
  0
CIRCLE
  8
0
  6
CONTINUOUS
 62
     2
 10
-35.487163543701172
 20
-67.373115539550781
 40
 4
  0
CIRCLE
  8
0
  6
CONTINUOUS
 62
     2
 10
-35.487163543701172
 20
 37.626884460449219
 40
 4
  0
LINE
  8
0
  6
DASHDOT
 62
     7
 10
 38.141029357910156
 20
-39.935874938964837
 11
 174.99998474121094
 21
-39.935874938964837
  0
ARC
  8
0
  6
DOT
 62
     2
 10
-60.487178802490234
 20
-88.373115539550781
 40
 0.25
 50
 0
 51
-179.9999980615126
  0
CIRCLE
  8
0
  6
DOT
 62
     3
 10
-60.487167358398438
 20
 92.62689208984375
 40
 2.0999999046325684
  0
CIRCLE
  8
0
  6
DOT
 62
     3
 10
-10.487148284912109
 20
 117.62689208984375
 40
 2.0999999046325684
  0
CIRCLE
  8
0
  6
CONTINUOUS
 62
     3
 10
-60.487167358398438
 20
 117.62689208984375
 40
 2.6499999999999999
  0
CIRCLE
  8
0
  6
CONTINUOUS
 62
     3
 10
-10.487159729003906
 20
 92.62689208984375
 40
 2.6499999999999999
  0
LINE
  8
256
  6
CONTINUOUS
 62
     7
 10
-193.30000000000001
 20
 124.99999645625348
 11
-93.300000000000011
 21
 124.99999645625348
  0
LINE
  8
256
  6
CONTINUOUS
 62
     7
 10
-93.300000000000011
 20
 124.9999964562535
 11
-93.300000000000011
 21
 136.99999721136808
  0
TEXT
  8
256
  6
CONTINUOUS
 62
     7
 10
-188.30000000000001
 20
 127.99999604817611
 11
-134.30000000000001
 21
 127.99999604817611
 40
 6
 41
 1
  1
ＬＢ－Ｄ９２６０Ａ
 50
 0
 72
  5
  0
LINE
  8
256
  6
CONTINUOUS
 62
     7
 10
 104.99998474121094
 20
-121.5
 11
 200
 21
-121.5
  0
LINE
  8
256
  6
CONTINUOUS
 62
     7
 10
 170.99998474121094
 20
-109.5
 11
 170.99998474121094
 21
-121.5
  0
TEXT
  8
256
  6
CONTINUOUS
 62
     7
 10
 112.5
 20
-134.25
 11
 154.5
 21
-134.25
 40
 6
 41
 1
  1
ＳＱ－１４３Ｎ
 50
 0
 72
  5
  0
TEXT
  8
256
  6
CONTINUOUS
 62
     7
 10
 127.99998474121094
 20
-119.75
 11
 147.99998474121094
 21
-119.75
 40
 5
 41
 0.8
  1
保護板支柱
 50
 0
 72
  5
  0
TEXT
  8
256
  6
CONTINUOUS
 62
     7
 10
 106.29998779296875
 20
-112.4499633789062
 11
 111.29998779296875
 21
-112.4499633789062
 40
 2.5
 41
 0.8
  1
品名
 50
 0
 72
  5
  0
TEXT
  8
256
  6
CONTINUOUS
 62
     7
 10
 106.29998779296875
 20
-124.45003051757811
 11
 111.29998779296875
 21
-124.45003051757811
 40
 2.5
 41
 0.8
  1
品番
 50
 0
 72
  5
  0
TEXT
  8
256
  6
CONTINUOUS
 62
     7
 10
 175.59999999999999
 20
-117.25
 11
 194.90000000000001
 21
-117.25
 40
 3.5
 41
 0.8
  1
Ｈ＝１４３用
 50
 0
 72
  5
  0
LINE
  8
256
  6
CONTINUOUS
 62
     7
 10
 104.99998474121094
 20
-139.5
 11
 104.99998474121094
 21
-109.5
  0
LINE
  8
256
  6
CONTINUOUS
 62
     7
 10
 104.99998474121094
 20
-109.5
 11
 200
 21
-109.5
  0
LINE
  8
256
  6
CONTINUOUS
 62
     7
 10
-193.30000000000001
 20
 136.99999721136808
 11
-193.30000000000001
 21
-139.49999999999994
  0
LINE
  8
256
  6
CONTINUOUS
 62
     7
 10
-193.30000000000001
 20
 136.99999721136808
 11
 200
 21
 136.99999721136808
  0
LINE
  8
256
  6
CONTINUOUS
 62
     7
 10
 200
 20
-139.5
 11
-193.30000000000001
 21
-139.49999999999994
  0
LINE
  8
256
  6
CONTINUOUS
 62
     7
 10
 200
 20
 136.99999721136808
 11
 200
 21
-139.5
  0
LINE
  8
0
  6
CONTINUOUS
 62
     7
 10
-58.387176513671875
 20
-89.716613769531236
 11
-58.387176513671875
 21
-93.39299774169919
  0
LINE
  8
0
  6
CONTINUOUS
 62
     7
 10
-62.587177276611335
 20
-92.432998657226534
 11
-58.387176513671875
 21
-92.432998657226534
  0
TEXT
  8
0
  6
CONTINUOUS
 62
     7
 10
-56.687172698974607
 20
-91.472991943359361
 11
-48.787172698974608
 21
-91.472991943359361
 40
 2
 41
 0.8
  1
φ４．２
 50
 0
 72
  5
  0
LINE
  8
0
  6
CONTINUOUS
 62
     7
 10
-47.788295745849609
 20
-92.432998657226534
 11
-58.387176513671875
 21
-92.432998657226534
  0
LINE
  8
0
  6
CONTINUOUS
 62
     7
 10
-58.387176513671875
 20
-92.432998657226534
 11
-55.48939903480467
 21
-93.209455792534101
  0
LINE
  8
0
  6
CONTINUOUS
 62
     7
 10
-58.387176513671875
 20
-92.432998657226534
 11
-55.48939903480467
 21
-91.656541521918967
  0
LINE
  8
0
  6
CONTINUOUS
 62
     7
 10
-62.587177276611335
 20
-89.716613769531236
 11
-62.587177276611335
 21
-93.39299774169919
  0
LINE
  8
0
  6
CONTINUOUS
 62
     7
 10
-66.18585205078125
 20
-92.432998657226534
 11
-62.587177276611335
 21
-92.432998657226534
  0
LINE
  8
0
  6
CONTINUOUS
 62
     7
 10
-62.587177276611335
 20
-92.432998657226534
 11
-65.48495475547854
 21
-91.656541521918967
  0
LINE
  8
0
  6
CONTINUOUS
 62
     7
 10
-62.587177276611335
 20
-92.432998657226534
 11
-65.48495475547854
 21
-93.209455792534101
  0
LINE
  8
0
  6
CONTINUOUS
 62
     7
 10
-70.487159729003906
 20
-89.2587890625
 11
-70.487159729003906
 21
-108.33310699462892
  0
LINE
  8
0
  6
CONTINUOUS
 62
     7
 10
-0.4871480762958527
 20
-90.323860168457017
 11
-0.4871480762958527
 21
-108.33310699462892
  0
LINE
  8
0
  6
CONTINUOUS
 62
     7
 10
-70.487159729003906
 20
-107.37312316894531
 11
-0.4871480762958527
 21
-107.37312316894531
  0
LINE
  8
0
  6
CONTINUOUS
 62
     7
 10
-70.487159729003906
 20
-107.37312316894531
 11
-67.589382250136708
 21
-108.14958030425288
  0
LINE
  8
0
  6
CONTINUOUS
 62
     7
 10
-70.487159729003906
 20
-107.37312316894531
 11
-67.589382250136708
 21
-106.59666603363775
  0
LINE
  8
0
  6
CONTINUOUS
 62
     7
 10
-0.4871480762958527
 20
-107.37312316894531
 11
-3.3849255551630577
 21
-106.59666603363775
  0
LINE
  8
0
  6
CONTINUOUS
 62
     7
 10
-0.4871480762958527
 20
-107.37312316894531
 11
-3.3849255551630577
 21
-108.14958030425288
  0
TEXT
  8
0
  6
CONTINUOUS
 62
     7
 10
-37.337155151367185
 20
-106.41310119628905
 11
-33.637155151367182
 21
-106.41310119628905
 40
 2
 41
 0.8
  1
70
 50
 0
 72
  5
  0
LINE
  8
0
  6
CONTINUOUS
 62
     7
 10
-60.487178802490234
 20
-91.165832519531264
 11
-60.487178802490234
 21
-103.33312225341797
  0
LINE
  8
0
  6
CONTINUOUS
 62
     7
 10
-10.487163543701172
 20
-91.165847778320312
 11
-10.487163543701172
 21
-103.33312225341797
  0
LINE
  8
0
  6
CONTINUOUS
 62
     7
 10
-60.487178802490234
 20
-102.37310028076172
 11
-10.487163543701172
 21
-102.37310028076172
  0
LINE
  8
0
  6
CONTINUOUS
 62
     7
 10
-60.487178802490234
 20
-102.37310028076172
 11
-57.589401323623029
 21
-103.14955741606929
  0
LINE
  8
0
  6
CONTINUOUS
 62
     7
 10
-60.487178802490234
 20
-102.37310028076172
 11
-57.589401323623029
 21
-101.59664314545415
  0
LINE
  8
0
  6
CONTINUOUS
 62
     7
 10
-10.487163543701172
 20
-102.37310028076172
 11
-13.384941022568377
 21
-101.59664314545415
  0
LINE
  8
0
  6
CONTINUOUS
 62
     7
 10
-10.487163543701172
 20
-102.37310028076172
 11
-13.384941022568377
 21
-103.14955741606929
  0
TEXT
  8
0
  6
CONTINUOUS
 62
     2
 10
-37.337155151367185
 20
-101.41310119628906
 11
-33.637155151367182
 21
-101.41310119628906
 40
 2
 41
 0.8
  1
50
 50
 0
 72
  5
  0
LINE
  8
0
  6
CONTINUOUS
 62
     7
 10
-22.787164688110352
 20
 83.686111450195313
 11
-22.787164688110352
 21
 79.166893005371094
  0
LINE
  8
0
  6
CONTINUOUS
 62
     7
 10
-0.4871635437011719
 20
 83.686111450195313
 11
-0.4871635437011719
 21
 79.166893005371094
  0
LINE
  8
0
  6
CONTINUOUS
 62
     7
 10
-22.787164688110352
 20
 80.12689208984375
 11
-0.4871635437011719
 21
 80.12689208984375
  0
LINE
  8
0
  6
CONTINUOUS
 62
     7
 10
-22.787164688110352
 20
 80.12689208984375
 11
-19.889387209243147
 21
 79.350434954536183
  0
LINE
  8
0
  6
CONTINUOUS
 62
     7
 10
-22.787164688110352
 20
 80.12689208984375
 11
-19.889387209243147
 21
 80.903349225151317
  0
LINE
  8
0
  6
CONTINUOUS
 62
     7
 10
-0.4871635437011719
 20
 80.12689208984375
 11
-3.3849410225683769
 21
 80.903349225151317
  0
LINE
  8
0
  6
CONTINUOUS
 62
     7
 10
-0.4871635437011719
 20
 80.12689208984375
 11
-3.3849410225683769
 21
 79.350434954536183
  0
TEXT
  8
0
  6
CONTINUOUS
 62
     7
 10
-15.587162780761718
 20
 81.086891174316406
 11
-7.6871627807617164
 21
 81.086891174316406
 40
 2
 41
 0.8
  1
22.3
 50
 0
 72
  5
  0
LINE
  8
0
  6
CONTINUOUS
 62
     7
 10
-48.187160491943359
 20
 83.686111450195313
 11
-48.187160491943359
 21
 79.166893005371094
  0
LINE
  8
0
  6
CONTINUOUS
 62
     7
 10
-70.487152099609375
 20
 83.686111450195313
 11
-70.487152099609375
 21
 79.166893005371094
  0
LINE
  8
0
  6
CONTINUOUS
 62
     7
 10
-48.187160491943359
 20
 80.12689208984375
 11
-70.487152099609375
 21
 80.12689208984375
  0
LINE
  8
0
  6
CONTINUOUS
 62
     7
 10
-48.187160491943359
 20
 80.12689208984375
 11
-51.084937970810564
 21
 80.903349225151317
  0
LINE
  8
0
  6
CONTINUOUS
 62
     7
 10
-48.187160491943359
 20
 80.12689208984375
 11
-51.084937970810564
 21
 79.350434954536183
  0
LINE
  8
0
  6
CONTINUOUS
 62
     7
 10
-70.487152099609375
 20
 80.12689208984375
 11
-67.589374620742177
 21
 79.350434954536183
  0
LINE
  8
0
  6
CONTINUOUS
 62
     7
 10
-70.487152099609375
 20
 80.12689208984375
 11
-67.589374620742177
 21
 80.903349225151317
  0
TEXT
  8
0
  6
CONTINUOUS
 62
     7
 10
-63.287159729003903
 20
 81.086891174316406
 11
-55.387159729003905
 21
 81.086891174316406
 40
 2
 41
 0.8
  1
22.3
 50
 0
 72
  5
  0
LINE
  8
0
  6
CONTINUOUS
 62
     7
 10
-50.487163543701172
 20
 54.626880645751953
 11
-50.487163543701172
 21
 68.586883544921875
  0
LINE
  8
0
  6
CONTINUOUS
 62
     7
 10
-20.487163543701172
 20
 54.626880645751953
 11
-20.487163543701172
 21
 68.586883544921875
  0
LINE
  8
0
  6
CONTINUOUS
 62
     7
 10
-50.487163543701172
 20
 67.626884460449219
 11
-20.487163543701172
 21
 67.626884460449219
  0
LINE
  8
0
  6
CONTINUOUS
 62
     7
 10
-50.487163543701172
 20
 67.626884460449219
 11
-47.589386064833967
 21
 66.850427325141652
  0
LINE
  8
0
  6
CONTINUOUS
 62
     7
 10
-50.487163543701172
 20
 67.626884460449219
 11
-47.589386064833967
 21
 68.403341595756785
  0
LINE
  8
0
  6
CONTINUOUS
 62
     7
 10
-20.487163543701172
 20
 67.626884460449219
 11
-23.384941022568377
 21
 68.403341595756785
  0
LINE
  8
0
  6
CONTINUOUS
 62
     7
 10
-20.487163543701172
 20
 67.626884460449219
 11
-23.384941022568377
 21
 66.850427325141652
  0
TEXT
  8
0
  6
CONTINUOUS
 62
     7
 10
-37.337162780761716
 20
 68.586883544921875
 11
-33.637162780761713
 21
 68.586883544921875
 40
 2
 41
 0.8
  1
30
 50
 0
 72
  5
  0
LINE
  8
0
  6
CONTINUOUS
 62
     7
 10
-119.49917602539062
 20
 52.626922607421875
 11
-88.527122497558594
 21
 52.626922607421875
  0
LINE
  8
0
  6
CONTINUOUS
 62
     7
 10
-104.98716735839844
 20
-87.373115539550767
 11
-88.527122497558594
 21
-87.373115539550767
  0
LINE
  8
0
  6
CONTINUOUS
 62
     7
 10
-89.48712158203125
 20
 52.626922607421875
 11
-89.48712158203125
 21
-87.373115539550767
  0
LINE
  8
0
  6
CONTINUOUS
 62
     7
 10
-89.48712158203125
 20
 52.626922607421875
 11
-90.263578717338817
 21
 49.72914512855467
  0
LINE
  8
0
  6
CONTINUOUS
 62
     7
 10
-89.48712158203125
 20
 52.626922607421875
 11
-88.710664446723683
 21
 49.72914512855467
  0
LINE
  8
0
  6
CONTINUOUS
 62
     7
 10
-89.48712158203125
 20
-87.373115539550767
 11
-88.710664446723683
 21
-84.475338060683555
  0
LINE
  8
0
  6
CONTINUOUS
 62
     7
 10
-89.48712158203125
 20
-87.373115539550767
 11
-90.263578717338817
 21
-84.475338060683555
  0
TEXT
  8
0
  6
CONTINUOUS
 62
     2
 10
-90.447113002140256
 20
-20.273096803822785
 11
-90.447113255666324
 21
-14.473096803822795
 40
 2
 41
 0.8
  1
140
 50
 90.000004039712707
 72
  5
  0
LINE
  8
0
  6
CONTINUOUS
 62
     7
 10
-129.48712158203125
 20
 55.788467407226563
 11
-129.48712158203125
 21
 73.586921691894531
  0
LINE
  8
0
  6
CONTINUOUS
 62
     7
 10
-146.98712158203125
 20
 55.837970733642578
 11
-146.98712158203125
 21
 73.586921691894531
  0
LINE
  8
0
  6
CONTINUOUS
 62
     7
 10
-129.48712158203125
 20
 72.626922607421875
 11
-146.98712158203125
 21
 72.626922607421875
  0
LINE
  8
0
  6
CONTINUOUS
 62
     7
 10
-129.48712158203125
 20
 72.626922607421875
 11
-132.38489906089845
 21
 73.403379742729442
  0
LINE
  8
0
  6
CONTINUOUS
 62
     7
 10
-129.48712158203125
 20
 72.626922607421875
 11
-132.38489906089845
 21
 71.850465472114308
  0
LINE
  8
0
  6
CONTINUOUS
 62
     7
 10
-146.98712158203125
 20
 72.626922607421875
 11
-144.08934410316405
 21
 71.850465472114308
  0
LINE
  8
0
  6
CONTINUOUS
 62
     7
 10
-146.98712158203125
 20
 72.626922607421875
 11
-144.08934410316405
 21
 73.403379742729442
  0
TEXT
  8
0
  6
CONTINUOUS
 62
     2
 10
-142.18711547851564
 20
 73.586921691894531
 11
-134.28711547851563
 21
 73.586921691894531
 40
 2
 41
 0.8
  1
17.5
 50
 0
 72
  5
  0
LINE
  8
0
  6
CONTINUOUS
 62
     7
 10
-121.98717498779297
 20
 24.651699066162113
 11
-121.98717498779297
 21
 73.586921691894531
  0
LINE
  8
0
  6
CONTINUOUS
 62
     7
 10
-121.98717498779297
 20
 72.626922607421875
 11
-129.48712158203125
 21
 72.626922607421875
  0
LINE
  8
0
  6
CONTINUOUS
 62
     7
 10
-121.98717498779297
 20
 72.626922607421875
 11
-124.88495246666017
 21
 73.403379742729442
  0
LINE
  8
0
  6
CONTINUOUS
 62
     7
 10
-121.98717498779297
 20
 72.626922607421875
 11
-124.88495246666017
 21
 71.850465472114308
  0
LINE
  8
0
  6
CONTINUOUS
 62
     7
 10
-129.48712158203125
 20
 72.626922607421875
 11
-126.58934410316405
 21
 71.850465472114308
  0
LINE
  8
0
  6
CONTINUOUS
 62
     7
 10
-129.48712158203125
 20
 72.626922607421875
 11
-126.58934410316405
 21
 73.403379742729442
  0
TEXT
  8
0
  6
CONTINUOUS
 62
     7
 10
-128.63715820312501
 20
 73.586921691894531
 11
-116.537158203125
 21
 73.586921691894531
 40
 2
 41
 0.8
  1
(7.5) 
 50
 0
 72
  5
  0
LINE
  8
0
  6
CONTINUOUS
 62
     7
 10
-124.48712921142577
 20
 67.626922607421875
 11
-146.98712158203125
 21
 67.626922607421875
  0
LINE
  8
0
  6
CONTINUOUS
 62
     7
 10
-124.48712921142577
 20
 67.626922607421875
 11
-127.38490669029298
 21
 68.403379742729442
  0
LINE
  8
0
  6
CONTINUOUS
 62
     7
 10
-124.48712921142577
 20
 67.626922607421875
 11
-127.38490669029298
 21
 66.850465472114308
  0
LINE
  8
0
  6
CONTINUOUS
 62
     7
 10
-146.98712158203125
 20
 67.626922607421875
 11
-144.08934410316405
 21
 66.850465472114308
  0
LINE
  8
0
  6
CONTINUOUS
 62
     7
 10
-146.98712158203125
 20
 67.626922607421875
 11
-144.08934410316405
 21
 68.403379742729442
  0
TEXT
  8
0
  6
CONTINUOUS
 62
     2
 10
-139.6871307373047
 20
 68.586921691894531
 11
-131.78713073730469
 21
 68.586921691894531
 40
 2
 41
 0.8
  1
22.5
 50
 0
 72
  5
  0
LINE
  8
0
  6
CONTINUOUS
 62
     7
 10
-146.98715209960937
 20
-89.373115539550767
 11
-146.98715209960937
 21
-108.33311462402345
  0
LINE
  8
0
  6
CONTINUOUS
 62
     7
 10
-106.98716735839844
 20
-89.373115539550767
 11
-106.98716735839844
 21
-108.33311462402345
  0
LINE
  8
0
  6
CONTINUOUS
 62
     7
 10
-146.98715209960937
 20
-107.37312316894531
 11
-106.98716735839844
 21
-107.37312316894531
  0
LINE
  8
0
  6
CONTINUOUS
 62
     7
 10
-146.98715209960937
 20
-107.37312316894531
 11
-144.08937462074218
 21
-108.14958030425288
  0
LINE
  8
0
  6
CONTINUOUS
 62
     7
 10
-146.98715209960937
 20
-107.37312316894531
 11
-144.08937462074218
 21
-106.59666603363775
  0
LINE
  8
0
  6
CONTINUOUS
 62
     7
 10
-106.98716735839844
 20
-107.37312316894531
 11
-109.88494483726564
 21
-106.59666603363775
  0
LINE
  8
0
  6
CONTINUOUS
 62
     7
 10
-106.98716735839844
 20
-107.37312316894531
 11
-109.88494483726564
 21
-108.14958030425288
  0
TEXT
  8
0
  6
CONTINUOUS
 62
     7
 10
-128.8371551513672
 20
-106.41310882568358
 11
-125.13715515136718
 21
-106.41310882568358
 40
 2
 41
 0.8
  1
40
 50
 0
 72
  5
  0
LINE
  8
0
  6
CONTINUOUS
 62
     7
 10
-139.48715209960937
 20
-90.733978271484375
 11
-139.48715209960937
 21
-103.33312225341797
  0
LINE
  8
0
  6
CONTINUOUS
 62
     7
 10
-114.48717498779295
 20
-90.733978271484375
 11
-114.48717498779295
 21
-103.33312225341797
  0
LINE
  8
0
  6
CONTINUOUS
 62
     7
 10
-139.48715209960937
 20
-102.37310791015625
 11
-114.48717498779295
 21
-102.37310791015625
  0
LINE
  8
0
  6
CONTINUOUS
 62
     7
 10
-139.48715209960937
 20
-102.37310791015625
 11
-136.58937462074218
 21
-103.14956504546382
  0
LINE
  8
0
  6
CONTINUOUS
 62
     7
 10
-139.48715209960937
 20
-102.37310791015625
 11
-136.58937462074218
 21
-101.59665077484868
  0
LINE
  8
0
  6
CONTINUOUS
 62
     7
 10
-114.48717498779295
 20
-102.37310791015625
 11
-117.38495246666017
 21
-101.59665077484868
  0
LINE
  8
0
  6
CONTINUOUS
 62
     7
 10
-114.48717498779295
 20
-102.37310791015625
 11
-117.38495246666017
 21
-103.14956504546382
  0
TEXT
  8
0
  6
CONTINUOUS
 62
     2
 10
-128.83717041015626
 20
-101.41312408447266
 11
-125.13717041015624
 21
-101.41312408447266
 40
 2
 41
 0.8
  1
25
 50
 0
 72
  5
  0
LINE
  8
0
  6
CONTINUOUS
 62
     7
 10
-114.48717498779295
 20
-102.37310791015625
 11
-106.98716735839844
 21
-102.37310791015625
  0
LINE
  8
0
  6
CONTINUOUS
 62
     7
 10
-114.48717498779295
 20
-102.37310791015625
 11
-111.58939750892574
 21
-103.14956504546382
  0
LINE
  8
0
  6
CONTINUOUS
 62
     7
 10
-114.48717498779295
 20
-102.37310791015625
 11
-111.58939750892574
 21
-101.59665077484868
  0
LINE
  8
0
  6
CONTINUOUS
 62
     7
 10
-106.98716735839844
 20
-102.37310791015625
 11
-109.88494483726564
 21
-101.59665077484868
  0
LINE
  8
0
  6
CONTINUOUS
 62
     7
 10
-106.98716735839844
 20
-102.37310791015625
 11
-109.88494483726564
 21
-103.14956504546382
  0
TEXT
  8
0
  6
CONTINUOUS
 62
     7
 10
-115.63717346191406
 20
-101.41312408447266
 11
-105.63717346191406
 21
-101.41312408447266
 40
 2
 41
 0.8
  1
(7.5)
 50
 0
 72
  5
  0
LINE
  8
0
  6
CONTINUOUS
 62
     7
 10
-139.48715209960937
 20
-102.37310791015625
 11
-146.98715209960937
 21
-102.37310791015625
  0
LINE
  8
0
  6
CONTINUOUS
 62
     7
 10
-139.48715209960937
 20
-102.37310791015625
 11
-142.38492957847657
 21
-101.59665077484868
  0
LINE
  8
0
  6
CONTINUOUS
 62
     7
 10
-139.48715209960937
 20
-102.37310791015625
 11
-142.38492957847657
 21
-103.14956504546382
  0
LINE
  8
0
  6
CONTINUOUS
 62
     7
 10
-146.98715209960937
 20
-102.37310791015625
 11
-144.08937462074218
 21
-103.14956504546382
  0
LINE
  8
0
  6
CONTINUOUS
 62
     7
 10
-146.98715209960937
 20
-102.37310791015625
 11
-144.08937462074218
 21
-101.59665077484868
  0
TEXT
  8
0
  6
CONTINUOUS
 62
     7
 10
-148.13714294433595
 20
-101.41312408447266
 11
-138.13714294433595
 21
-101.41312408447266
 40
 2
 41
 0.8
  1
(7.5)
 50
 0
 72
  5
  0
LINE
  8
0
  6
CONTINUOUS
 62
     7
 10
-129.48712158203125
 20
-89.703514099121108
 11
-129.48712158203125
 21
-98.333106994628892
  0
LINE
  8
0
  6
CONTINUOUS
 62
     7
 10
-139.48715209960937
 20
-97.373123168945327
 11
-129.48712158203125
 21
-97.373123168945327
  0
LINE
  8
0
  6
CONTINUOUS
 62
     7
 10
-139.48715209960937
 20
-97.373123168945327
 11
-136.58937462074218
 21
-98.149580304252893
  0
LINE
  8
0
  6
CONTINUOUS
 62
     7
 10
-139.48715209960937
 20
-97.373123168945327
 11
-136.58937462074218
 21
-96.59666603363776
  0
LINE
  8
0
  6
CONTINUOUS
 62
     7
 10
-129.48712158203125
 20
-97.373123168945327
 11
-132.38489906089845
 21
-96.59666603363776
  0
LINE
  8
0
  6
CONTINUOUS
 62
     7
 10
-129.48712158203125
 20
-97.373123168945327
 11
-132.38489906089845
 21
-98.149580304252893
  0
TEXT
  8
0
  6
CONTINUOUS
 62
     2
 10
-136.33713989257814
 20
-96.413139343261705
 11
-132.63713989257815
 21
-96.413139343261705
 40
 2
 41
 0.8
  1
10
 50
 0
 72
  5
  0
LINE
  8
0
  6
CONTINUOUS
 62
     7
 10
-66.487380981445313
 20
 117.62689208984375
 11
-81.447151184082031
 21
 117.62689208984375
  0
LINE
  8
0
  6
CONTINUOUS
 62
     7
 10
-53.560894012451172
 20
 107.62689208984375
 11
-81.447151184082031
 21
 107.62689208984375
  0
LINE
  8
0
  6
CONTINUOUS
 62
     7
 10
-80.487152099609375
 20
 117.62689208984375
 11
-80.487152099609375
 21
 107.62689208984375
  0
LINE
  8
0
  6
CONTINUOUS
 62
     7
 10
-80.487152099609375
 20
 117.62689208984375
 11
-81.263609234916942
 21
 114.72911461097655
  0
LINE
  8
0
  6
CONTINUOUS
 62
     7
 10
-80.487152099609375
 20
 117.62689208984375
 11
-79.710694964301808
 21
 114.72911461097655
  0
LINE
  8
0
  6
CONTINUOUS
 62
     7
 10
-80.487152099609375
 20
 107.62689208984375
 11
-79.710694964301808
 21
 110.52466956871095
  0
LINE
  8
0
  6
CONTINUOUS
 62
     7
 10
-80.487152099609375
 20
 107.62689208984375
 11
-81.263609234916942
 21
 110.52466956871095
  0
TEXT
  8
0
  6
CONTINUOUS
 62
     7
 10
-81.447151149112912
 20
 110.77688908179732
 11
-81.447151310845058
 21
 114.47688908179732
 40
 2
 41
 0.8
  1
10
 50
 90.000004039712707
 72
  5
  0
LINE
  8
0
  6
CONTINUOUS
 62
     7
 10
-35.487163543701172
 20
-88.008987426757812
 11
-35.487163543701172
 21
-98.333099365234361
  0
LINE
  8
0
  6
CONTINUOUS
 62
     7
 10
-60.487178802490234
 20
-97.373100280761705
 11
-35.487163543701172
 21
-97.373100280761705
  0
LINE
  8
0
  6
CONTINUOUS
 62
     7
 10
-60.487178802490234
 20
-97.373100280761705
 11
-57.589401323623029
 21
-98.149557416069271
  0
LINE
  8
0
  6
CONTINUOUS
 62
     7
 10
-60.487178802490234
 20
-97.373100280761705
 11
-57.589401323623029
 21
-96.596643145454138
  0
LINE
  8
0
  6
CONTINUOUS
 62
     7
 10
-35.487163543701172
 20
-97.373100280761705
 11
-38.384941022568377
 21
-96.596643145454138
  0
LINE
  8
0
  6
CONTINUOUS
 62
     7
 10
-35.487163543701172
 20
-97.373100280761705
 11
-38.384941022568377
 21
-98.149557416069271
  0
TEXT
  8
0
  6
CONTINUOUS
 62
     2
 10
-49.837170410156247
 20
-96.413101196289063
 11
-46.137170410156244
 21
-96.413101196289063
 40
 2
 41
 0.8
  1
25
 50
 0
 72
  5
  0
LINE
  8
0
  6
CONTINUOUS
 62
     7
 10
-10.487163543701172
 20
-97.373100280761705
 11
-35.487163543701172
 21
-97.373100280761705
  0
LINE
  8
0
  6
CONTINUOUS
 62
     7
 10
-10.487163543701172
 20
-97.373100280761705
 11
-13.384941022568377
 21
-96.596643145454138
  0
LINE
  8
0
  6
CONTINUOUS
 62
     7
 10
-10.487163543701172
 20
-97.373100280761705
 11
-13.384941022568377
 21
-98.149557416069271
  0
LINE
  8
0
  6
CONTINUOUS
 62
     7
 10
-35.487163543701172
 20
-97.373100280761705
 11
-32.589386064833967
 21
-98.149557416069271
  0
LINE
  8
0
  6
CONTINUOUS
 62
     7
 10
-35.487163543701172
 20
-97.373100280761705
 11
-32.589386064833967
 21
-96.596643145454138
  0
TEXT
  8
0
  6
CONTINUOUS
 62
     2
 10
-24.837162780761719
 20
-96.413101196289063
 11
-21.13716278076172
 21
-96.413101196289063
 40
 2
 41
 0.8
  1
25
 50
 0
 72
  5
  0
LINE
  8
0
  6
CONTINUOUS
 62
     7
 10
-70.487159729003906
 20
-102.37310028076172
 11
-60.487178802490234
 21
-102.37310028076172
  0
LINE
  8
0
  6
CONTINUOUS
 62
     7
 10
-70.487159729003906
 20
-102.37310028076172
 11
-67.589382250136708
 21
-103.14955741606929
  0
LINE
  8
0
  6
CONTINUOUS
 62
     7
 10
-70.487159729003906
 20
-102.37310028076172
 11
-67.589382250136708
 21
-101.59664314545415
  0
LINE
  8
0
  6
CONTINUOUS
 62
     7
 10
-60.487178802490234
 20
-102.37310028076172
 11
-63.384956281357439
 21
-101.59664314545415
  0
LINE
  8
0
  6
CONTINUOUS
 62
     7
 10
-60.487178802490234
 20
-102.37310028076172
 11
-63.384956281357439
 21
-103.14955741606929
  0
TEXT
  8
0
  6
CONTINUOUS
 62
     7
 10
-69.337170410156247
 20
-101.41310119628906
 11
-61.437170410156249
 21
-101.41310119628906
 40
 2
 41
 0.8
  1
(10)
 50
 0
 72
  5
  0
LINE
  8
0
  6
CONTINUOUS
 62
     7
 10
-0.4871480762958527
 20
-102.37312316894531
 11
-10.487163543701172
 21
-102.37312316894531
  0
LINE
  8
0
  6
CONTINUOUS
 62
     7
 10
-0.4871480762958527
 20
-102.37312316894531
 11
-3.3849255551630577
 21
-101.59666603363775
  0
LINE
  8
0
  6
CONTINUOUS
 62
     7
 10
-0.4871480762958527
 20
-102.37312316894531
 11
-3.3849255551630577
 21
-103.14958030425288
  0
LINE
  8
0
  6
CONTINUOUS
 62
     7
 10
-10.487163543701172
 20
-102.37312316894531
 11
-7.5893860648339668
 21
-103.14958030425288
  0
LINE
  8
0
  6
CONTINUOUS
 62
     7
 10
-10.487163543701172
 20
-102.37312316894531
 11
-7.5893860648339668
 21
-101.59666603363775
  0
TEXT
  8
0
  6
CONTINUOUS
 62
     7
 10
-9.3371551513671882
 20
-101.41312408447266
 11
-1.437155151367187
 21
-101.41312408447266
 40
 2
 41
 0.8
  1
(10)
 50
 0
 72
  5
  0
LINE
  8
0
  6
CONTINUOUS
 62
     7
 10
 48.205131530761719
 20
 34.475173950195313
 11
 48.205131530761719
 21
 51.701026916503906
  0
LINE
  8
0
  6
CONTINUOUS
 62
     7
 10
 88.205154418945313
 20
 48.806106567382813
 11
 88.205154418945313
 21
 51.701026916503906
  0
LINE
  8
0
  6
CONTINUOUS
 62
     7
 10
 48.205131530761719
 20
 50.74102783203125
 11
 88.205154418945313
 21
 50.74102783203125
  0
LINE
  8
0
  6
CONTINUOUS
 62
     7
 10
 48.205131530761719
 20
 50.74102783203125
 11
 51.102909009628924
 21
 49.96457069672369
  0
LINE
  8
0
  6
CONTINUOUS
 62
     7
 10
 48.205131530761719
 20
 50.74102783203125
 11
 51.102909009628924
 21
 51.51748496733881
  0
LINE
  8
0
  6
CONTINUOUS
 62
     7
 10
 88.205154418945313
 20
 50.74102783203125
 11
 85.307376940078115
 21
 51.51748496733881
  0
LINE
  8
0
  6
CONTINUOUS
 62
     7
 10
 88.205154418945313
 20
 50.74102783203125
 11
 85.307376940078115
 21
 49.96457069672369
  0
TEXT
  8
0
  6
CONTINUOUS
 62
     7
 10
 66.355143737792972
 20
 51.701026916503906
 11
 70.055143737792974
 21
 51.701026916503906
 40
 2
 41
 0.8
  1
40
 50
 0
 72
  5
  0
LINE
  8
0
  6
CONTINUOUS
 62
     7
 10
 183.076904296875
 20
 32.680313110351563
 11
 183.076904296875
 21
 51.701034545898438
  0
LINE
  8
0
  6
CONTINUOUS
 62
     7
 10
 168.07687377929687
 20
 33.241207122802734
 11
 168.07687377929687
 21
 51.701034545898438
  0
LINE
  8
0
  6
CONTINUOUS
 62
     7
 10
 183.076904296875
 20
 50.74102783203125
 11
 168.07687377929687
 21
 50.74102783203125
  0
LINE
  8
0
  6
CONTINUOUS
 62
     7
 10
 183.076904296875
 20
 50.74102783203125
 11
 180.1791268180078
 21
 51.51748496733881
  0
LINE
  8
0
  6
CONTINUOUS
 62
     7
 10
 183.076904296875
 20
 50.74102783203125
 11
 180.1791268180078
 21
 49.96457069672369
  0
LINE
  8
0
  6
CONTINUOUS
 62
     7
 10
 168.07687377929687
 20
 50.74102783203125
 11
 170.97465125816407
 21
 49.96457069672369
  0
LINE
  8
0
  6
CONTINUOUS
 62
     7
 10
 168.07687377929687
 20
 50.74102783203125
 11
 170.97465125816407
 21
 51.51748496733881
  0
TEXT
  8
0
  6
CONTINUOUS
 62
     7
 10
 173.72688598632811
 20
 51.701030731201172
 11
 177.4268859863281
 21
 51.701030731201172
 40
 2
 41
 0.8
  1
15
 50
 0
 72
  5
  0
LINE
  8
0
  6
CONTINUOUS
 62
     7
 10
-48.187160491943359
 20
 80.12689208984375
 11
-22.787164688110352
 21
 80.12689208984375
  0
LINE
  8
0
  6
CONTINUOUS
 62
     7
 10
-48.187160491943359
 20
 80.12689208984375
 11
-45.289383013076154
 21
 79.350434954536183
  0
LINE
  8
0
  6
CONTINUOUS
 62
     7
 10
-48.187160491943359
 20
 80.12689208984375
 11
-45.289383013076154
 21
 80.903349225151317
  0
LINE
  8
0
  6
CONTINUOUS
 62
     7
 10
-22.787164688110352
 20
 80.12689208984375
 11
-25.684942166977557
 21
 80.903349225151317
  0
LINE
  8
0
  6
CONTINUOUS
 62
     7
 10
-22.787164688110352
 20
 80.12689208984375
 11
-25.684942166977557
 21
 79.350434954536183
  0
TEXT
  8
0
  6
CONTINUOUS
 62
     7
 10
-39.43716125488281
 20
 81.086891174316406
 11
-31.537161254882815
 21
 81.086891174316406
 40
 2
 41
 0.8
  1
25.4
 50
 0
 72
  5
  0
LINE
  8
0
  6
CONTINUOUS
 62
     7
 10
 148.07687377929687
 20
 15.993597984313963
 11
 148.07687377929687
 21
 51.701026916503906
  0
LINE
  8
0
  6
CONTINUOUS
 62
     7
 10
 148.07687377929687
 20
 50.74102783203125
 11
 168.07687377929687
 21
 50.74102783203125
  0
LINE
  8
0
  6
CONTINUOUS
 62
     7
 10
 148.07687377929687
 20
 50.74102783203125
 11
 150.97465125816407
 21
 49.96457069672369
  0
LINE
  8
0
  6
CONTINUOUS
 62
     7
 10
 148.07687377929687
 20
 50.74102783203125
 11
 150.97465125816407
 21
 51.51748496733881
  0
LINE
  8
0
  6
CONTINUOUS
 62
     7
 10
 168.07687377929687
 20
 50.74102783203125
 11
 165.17909630042968
 21
 51.51748496733881
  0
LINE
  8
0
  6
CONTINUOUS
 62
     7
 10
 168.07687377929687
 20
 50.74102783203125
 11
 165.17909630042968
 21
 49.96457069672369
  0
TEXT
  8
0
  6
CONTINUOUS
 62
     7
 10
 156.22687072753905
 20
 51.701026916503906
 11
 159.92687072753904
 21
 51.701026916503906
 40
 2
 41
 0.8
  1
20
 50
 0
 72
  5
  0
LINE
  8
0
  6
CONTINUOUS
 62
     7
 10
 136.97116088867187
 20
 20.641027450561523
 11
 119.97405242919922
 21
 20.641027450561523
  0
LINE
  8
0
  6
CONTINUOUS
 62
     7
 10
 120.93404388427736
 20
 29.141021728515621
 11
 120.93404388427736
 21
 20.641027450561523
  0
LINE
  8
0
  6
CONTINUOUS
 62
     7
 10
 120.93404388427736
 20
 29.141021728515621
 11
 120.15758674896979
 21
 26.243244249648416
  0
LINE
  8
0
  6
CONTINUOUS
 62
     7
 10
 120.93404388427736
 20
 29.141021728515621
 11
 121.71050101958492
 21
 26.243244249648416
  0
LINE
  8
0
  6
CONTINUOUS
 62
     7
 10
 120.93404388427736
 20
 20.641027450561523
 11
 121.71050101958492
 21
 23.538804929428728
  0
LINE
  8
0
  6
CONTINUOUS
 62
     7
 10
 120.93404388427736
 20
 20.641027450561523
 11
 120.15758674896979
 21
 23.538804929428728
  0
TEXT
  8
0
  6
CONTINUOUS
 62
     7
 10
 119.97405246416832
 20
 21.991029020151824
 11
 119.97405221064226
 21
 27.791029020151814
 40
 2
 41
 0.8
  1
8.5
 50
 90.000004039712707
 72
  5
  0
ENDSEC
  0
EOF
