  0
SECTION
  2
HEADER
  9
$INSBASE
 10
0.0
20
0.0
  9
$REGENMODE
 70
     1
  9
$DRAGMODE
 70
     1
  9
$DIMTAD
 70
     1
  9
$EXTMIN
 10
-210.000000
 20
-148.500000
 30
 0.0
  9
$EXTMAX
 10
210.000000
 20
148.500000
 30
 0.0
  9
$LUPREC
 70
    3
  9
$AUPREC
 70
    3
  9
$LTSCALE
 40
26.250000
  0
ENDSEC
  0
SECTION
  2
TABLES
  0
TABLE
  2
LTYPE
 70
     6
  0
LTYPE
  2
CONTINUOUS
 70
    64
  3
SOLID
 72
    65
 73
     0
 40
0.0
  0
LTYPE
  2
DASHED2
 70
    64
  3
_ _ _ _ _ _ _ _ _ _ _ _ _ _ _ _ _ _ _ _ _ _ 
 72
    65
 73
     2
 40
0.5
 49
0.25
 49
-0.25
  0
LTYPE
  2
DASHED
 70
    64
  3
__ __ __ __ __ __ __ __ __ __ __ __ __ __ __
 72
    65
 73
     2
 40
0.75
 49
0.5
 49
-0.25
  0
LTYPE
  2
DASHEDX2
 70
    64
  3
____  ____  ____  ____  ____  ____  ____  __
 72
    65
 73
     2
 40
1.5
 49
1.0
 49
-0.5
  0
LTYPE
  2
DOT
 70
    64
  3
............................................
 72
    65
 73
     2
 40
0.25
 49
0
 49
-0.25
  0
LTYPE
  2
DASHDOT
 70
    64
  3
__ . __ . __ . __ . __ . __ . __ . __ . __ .
 72
    65
 73
     4
 40
1.0
 49
0.5
 49
-0.25
 49
0.0
 49
-0.25
  0
LTYPE
  2
CENTER
 70
    64
  3
____ _ ____ _ ____ _ ____ _ ____ _ ____ _ __
 72
    65
 73
     4
 40
2.0
 49
1.25
 49
-0.25
 49
0.25
 49
-0.25
  0
LTYPE
  2
DIVIDE
 70
    64
  3
__ . . __ . . __ . . __ . . __ . . __ . . __
 72
    65
 73
     6
 40
1.25
 49
0.5
 49
-0.25
 49
0.0
 49
-0.25
 49
0.0
 49
-0.25
  0
LTYPE
  2
PHANTOM2
 70
    64
  3
___ _ _ ___ _ _ ___ _ _ ___ _ _ ___ _ _ ___ 
 72
    65
 73
     6
 40
1.25
 49
0.625
 49
-0.125
 49
0.125
 49
-0.125
 49
0.125
 49
-0.125
  0
LTYPE
  2
DOTX2
 70
    64
  3
. . . . . . . . . . . . . . . . . . . . . . 
 72
    65
 73
     2
 40
0.5
 49
0
 49
-0.5
  0
ENDTAB
  0
TABLE
  2
LAYER
 70
   255
  0
LAYER
  2
0
 70
    64
 62
     7
  6
CONTINUOUS
  0
LAYER
  2
1
 70
    64
 62
     7
  6
CONTINUOUS
  0
LAYER
  2
2
 70
    64
 62
     7
  6
CONTINUOUS
  0
LAYER
  2
3
 70
    64
 62
     7
  6
CONTINUOUS
  0
LAYER
  2
4
 70
    64
 62
     7
  6
CONTINUOUS
  0
LAYER
  2
5
 70
    64
 62
     7
  6
CONTINUOUS
  0
LAYER
  2
6
 70
    64
 62
     7
  6
CONTINUOUS
  0
LAYER
  2
7
 70
    64
 62
     7
  6
CONTINUOUS
  0
LAYER
  2
8
 70
    64
 62
     7
  6
CONTINUOUS
  0
LAYER
  2
9
 70
    64
 62
     7
  6
CONTINUOUS
  0
LAYER
  2
10
 70
    64
 62
     7
  6
CONTINUOUS
  0
LAYER
  2
11
 70
    64
 62
     7
  6
CONTINUOUS
  0
LAYER
  2
12
 70
    64
 62
     7
  6
CONTINUOUS
  0
LAYER
  2
13
 70
    64
 62
     7
  6
CONTINUOUS
  0
LAYER
  2
14
 70
    64
 62
     7
  6
CONTINUOUS
  0
LAYER
  2
15
 70
    64
 62
     7
  6
CONTINUOUS
  0
LAYER
  2
16
 70
    64
 62
     7
  6
CONTINUOUS
  0
LAYER
  2
17
 70
    64
 62
     7
  6
CONTINUOUS
  0
LAYER
  2
18
 70
    64
 62
     7
  6
CONTINUOUS
  0
LAYER
  2
19
 70
    64
 62
     7
  6
CONTINUOUS
  0
LAYER
  2
20
 70
    64
 62
     7
  6
CONTINUOUS
  0
LAYER
  2
21
 70
    64
 62
     7
  6
CONTINUOUS
  0
LAYER
  2
22
 70
    64
 62
     7
  6
CONTINUOUS
  0
LAYER
  2
23
 70
    64
 62
     7
  6
CONTINUOUS
  0
LAYER
  2
24
 70
    64
 62
     7
  6
CONTINUOUS
  0
LAYER
  2
25
 70
    64
 62
     7
  6
CONTINUOUS
  0
LAYER
  2
26
 70
    64
 62
     7
  6
CONTINUOUS
  0
LAYER
  2
27
 70
    64
 62
     7
  6
CONTINUOUS
  0
LAYER
  2
28
 70
    64
 62
     7
  6
CONTINUOUS
  0
LAYER
  2
29
 70
    64
 62
     7
  6
CONTINUOUS
  0
LAYER
  2
30
 70
    64
 62
     7
  6
CONTINUOUS
  0
LAYER
  2
31
 70
    64
 62
     7
  6
CONTINUOUS
  0
LAYER
  2
32
 70
    64
 62
     7
  6
CONTINUOUS
  0
LAYER
  2
33
 70
    64
 62
     7
  6
CONTINUOUS
  0
LAYER
  2
34
 70
    64
 62
     7
  6
CONTINUOUS
  0
LAYER
  2
35
 70
    64
 62
     7
  6
CONTINUOUS
  0
LAYER
  2
36
 70
    64
 62
     7
  6
CONTINUOUS
  0
LAYER
  2
37
 70
    64
 62
     7
  6
CONTINUOUS
  0
LAYER
  2
38
 70
    64
 62
     7
  6
CONTINUOUS
  0
LAYER
  2
39
 70
    64
 62
     7
  6
CONTINUOUS
  0
LAYER
  2
40
 70
    64
 62
     7
  6
CONTINUOUS
  0
LAYER
  2
41
 70
    64
 62
     7
  6
CONTINUOUS
  0
LAYER
  2
42
 70
    64
 62
     7
  6
CONTINUOUS
  0
LAYER
  2
43
 70
    64
 62
     7
  6
CONTINUOUS
  0
LAYER
  2
44
 70
    64
 62
     7
  6
CONTINUOUS
  0
LAYER
  2
45
 70
    64
 62
     7
  6
CONTINUOUS
  0
LAYER
  2
46
 70
    64
 62
     7
  6
CONTINUOUS
  0
LAYER
  2
47
 70
    64
 62
     7
  6
CONTINUOUS
  0
LAYER
  2
48
 70
    64
 62
     7
  6
CONTINUOUS
  0
LAYER
  2
49
 70
    64
 62
     7
  6
CONTINUOUS
  0
LAYER
  2
50
 70
    64
 62
     7
  6
CONTINUOUS
  0
LAYER
  2
51
 70
    64
 62
     7
  6
CONTINUOUS
  0
LAYER
  2
52
 70
    64
 62
     7
  6
CONTINUOUS
  0
LAYER
  2
53
 70
    64
 62
     7
  6
CONTINUOUS
  0
LAYER
  2
54
 70
    64
 62
     7
  6
CONTINUOUS
  0
LAYER
  2
55
 70
    64
 62
     7
  6
CONTINUOUS
  0
LAYER
  2
56
 70
    64
 62
     7
  6
CONTINUOUS
  0
LAYER
  2
57
 70
    64
 62
     7
  6
CONTINUOUS
  0
LAYER
  2
58
 70
    64
 62
     7
  6
CONTINUOUS
  0
LAYER
  2
59
 70
    64
 62
     7
  6
CONTINUOUS
  0
LAYER
  2
60
 70
    64
 62
     7
  6
CONTINUOUS
  0
LAYER
  2
61
 70
    64
 62
     7
  6
CONTINUOUS
  0
LAYER
  2
62
 70
    64
 62
     7
  6
CONTINUOUS
  0
LAYER
  2
63
 70
    64
 62
     7
  6
CONTINUOUS
  0
LAYER
  2
64
 70
    64
 62
     7
  6
CONTINUOUS
  0
LAYER
  2
65
 70
    64
 62
     7
  6
CONTINUOUS
  0
LAYER
  2
66
 70
    64
 62
     7
  6
CONTINUOUS
  0
LAYER
  2
67
 70
    64
 62
     7
  6
CONTINUOUS
  0
LAYER
  2
68
 70
    64
 62
     7
  6
CONTINUOUS
  0
LAYER
  2
69
 70
    64
 62
     7
  6
CONTINUOUS
  0
LAYER
  2
70
 70
    64
 62
     7
  6
CONTINUOUS
  0
LAYER
  2
71
 70
    64
 62
     7
  6
CONTINUOUS
  0
LAYER
  2
72
 70
    64
 62
     7
  6
CONTINUOUS
  0
LAYER
  2
73
 70
    64
 62
     7
  6
CONTINUOUS
  0
LAYER
  2
74
 70
    64
 62
     7
  6
CONTINUOUS
  0
LAYER
  2
75
 70
    64
 62
     7
  6
CONTINUOUS
  0
LAYER
  2
76
 70
    64
 62
     7
  6
CONTINUOUS
  0
LAYER
  2
77
 70
    64
 62
     7
  6
CONTINUOUS
  0
LAYER
  2
78
 70
    64
 62
     7
  6
CONTINUOUS
  0
LAYER
  2
79
 70
    64
 62
     7
  6
CONTINUOUS
  0
LAYER
  2
80
 70
    64
 62
     7
  6
CONTINUOUS
  0
LAYER
  2
81
 70
    64
 62
     7
  6
CONTINUOUS
  0
LAYER
  2
82
 70
    64
 62
     7
  6
CONTINUOUS
  0
LAYER
  2
83
 70
    64
 62
     7
  6
CONTINUOUS
  0
LAYER
  2
84
 70
    64
 62
     7
  6
CONTINUOUS
  0
LAYER
  2
85
 70
    64
 62
     7
  6
CONTINUOUS
  0
LAYER
  2
86
 70
    64
 62
     7
  6
CONTINUOUS
  0
LAYER
  2
87
 70
    64
 62
     7
  6
CONTINUOUS
  0
LAYER
  2
88
 70
    64
 62
     7
  6
CONTINUOUS
  0
LAYER
  2
89
 70
    64
 62
     7
  6
CONTINUOUS
  0
LAYER
  2
90
 70
    64
 62
     7
  6
CONTINUOUS
  0
LAYER
  2
91
 70
    64
 62
     7
  6
CONTINUOUS
  0
LAYER
  2
92
 70
    64
 62
     7
  6
CONTINUOUS
  0
LAYER
  2
93
 70
    64
 62
     7
  6
CONTINUOUS
  0
LAYER
  2
94
 70
    64
 62
     7
  6
CONTINUOUS
  0
LAYER
  2
95
 70
    64
 62
     7
  6
CONTINUOUS
  0
LAYER
  2
96
 70
    64
 62
     7
  6
CONTINUOUS
  0
LAYER
  2
97
 70
    64
 62
     7
  6
CONTINUOUS
  0
LAYER
  2
98
 70
    64
 62
     7
  6
CONTINUOUS
  0
LAYER
  2
99
 70
    64
 62
     7
  6
CONTINUOUS
  0
LAYER
  2
100
 70
    64
 62
     7
  6
CONTINUOUS
  0
LAYER
  2
101
 70
    64
 62
     7
  6
CONTINUOUS
  0
LAYER
  2
102
 70
    64
 62
     7
  6
CONTINUOUS
  0
LAYER
  2
103
 70
    64
 62
     7
  6
CONTINUOUS
  0
LAYER
  2
104
 70
    64
 62
     7
  6
CONTINUOUS
  0
LAYER
  2
105
 70
    64
 62
     7
  6
CONTINUOUS
  0
LAYER
  2
106
 70
    64
 62
     7
  6
CONTINUOUS
  0
LAYER
  2
107
 70
    64
 62
     7
  6
CONTINUOUS
  0
LAYER
  2
108
 70
    64
 62
     7
  6
CONTINUOUS
  0
LAYER
  2
109
 70
    64
 62
     7
  6
CONTINUOUS
  0
LAYER
  2
110
 70
    64
 62
     7
  6
CONTINUOUS
  0
LAYER
  2
111
 70
    64
 62
     7
  6
CONTINUOUS
  0
LAYER
  2
112
 70
    64
 62
     7
  6
CONTINUOUS
  0
LAYER
  2
113
 70
    64
 62
     7
  6
CONTINUOUS
  0
LAYER
  2
114
 70
    64
 62
     7
  6
CONTINUOUS
  0
LAYER
  2
115
 70
    64
 62
     7
  6
CONTINUOUS
  0
LAYER
  2
116
 70
    64
 62
     7
  6
CONTINUOUS
  0
LAYER
  2
117
 70
    64
 62
     7
  6
CONTINUOUS
  0
LAYER
  2
118
 70
    64
 62
     7
  6
CONTINUOUS
  0
LAYER
  2
119
 70
    64
 62
     7
  6
CONTINUOUS
  0
LAYER
  2
120
 70
    64
 62
     7
  6
CONTINUOUS
  0
LAYER
  2
121
 70
    64
 62
     7
  6
CONTINUOUS
  0
LAYER
  2
122
 70
    64
 62
     7
  6
CONTINUOUS
  0
LAYER
  2
123
 70
    64
 62
     7
  6
CONTINUOUS
  0
LAYER
  2
124
 70
    64
 62
     7
  6
CONTINUOUS
  0
LAYER
  2
125
 70
    64
 62
     7
  6
CONTINUOUS
  0
LAYER
  2
126
 70
    64
 62
     7
  6
CONTINUOUS
  0
LAYER
  2
127
 70
    64
 62
     7
  6
CONTINUOUS
  0
LAYER
  2
128
 70
    64
 62
     7
  6
CONTINUOUS
  0
LAYER
  2
129
 70
    64
 62
     7
  6
CONTINUOUS
  0
LAYER
  2
130
 70
    64
 62
     7
  6
CONTINUOUS
  0
LAYER
  2
131
 70
    64
 62
     7
  6
CONTINUOUS
  0
LAYER
  2
132
 70
    64
 62
     7
  6
CONTINUOUS
  0
LAYER
  2
133
 70
    64
 62
     7
  6
CONTINUOUS
  0
LAYER
  2
134
 70
    64
 62
     7
  6
CONTINUOUS
  0
LAYER
  2
135
 70
    64
 62
     7
  6
CONTINUOUS
  0
LAYER
  2
136
 70
    64
 62
     7
  6
CONTINUOUS
  0
LAYER
  2
137
 70
    64
 62
     7
  6
CONTINUOUS
  0
LAYER
  2
138
 70
    64
 62
     7
  6
CONTINUOUS
  0
LAYER
  2
139
 70
    64
 62
     7
  6
CONTINUOUS
  0
LAYER
  2
140
 70
    64
 62
     7
  6
CONTINUOUS
  0
LAYER
  2
141
 70
    64
 62
     7
  6
CONTINUOUS
  0
LAYER
  2
142
 70
    64
 62
     7
  6
CONTINUOUS
  0
LAYER
  2
143
 70
    64
 62
     7
  6
CONTINUOUS
  0
LAYER
  2
144
 70
    64
 62
     7
  6
CONTINUOUS
  0
LAYER
  2
145
 70
    64
 62
     7
  6
CONTINUOUS
  0
LAYER
  2
146
 70
    64
 62
     7
  6
CONTINUOUS
  0
LAYER
  2
147
 70
    64
 62
     7
  6
CONTINUOUS
  0
LAYER
  2
148
 70
    64
 62
     7
  6
CONTINUOUS
  0
LAYER
  2
149
 70
    64
 62
     7
  6
CONTINUOUS
  0
LAYER
  2
150
 70
    64
 62
     7
  6
CONTINUOUS
  0
LAYER
  2
151
 70
    64
 62
     7
  6
CONTINUOUS
  0
LAYER
  2
152
 70
    64
 62
     7
  6
CONTINUOUS
  0
LAYER
  2
153
 70
    64
 62
     7
  6
CONTINUOUS
  0
LAYER
  2
154
 70
    64
 62
     7
  6
CONTINUOUS
  0
LAYER
  2
155
 70
    64
 62
     7
  6
CONTINUOUS
  0
LAYER
  2
156
 70
    64
 62
     7
  6
CONTINUOUS
  0
LAYER
  2
157
 70
    64
 62
     7
  6
CONTINUOUS
  0
LAYER
  2
158
 70
    64
 62
     7
  6
CONTINUOUS
  0
LAYER
  2
159
 70
    64
 62
     7
  6
CONTINUOUS
  0
LAYER
  2
160
 70
    64
 62
     7
  6
CONTINUOUS
  0
LAYER
  2
161
 70
    64
 62
     7
  6
CONTINUOUS
  0
LAYER
  2
162
 70
    64
 62
     7
  6
CONTINUOUS
  0
LAYER
  2
163
 70
    64
 62
     7
  6
CONTINUOUS
  0
LAYER
  2
164
 70
    64
 62
     7
  6
CONTINUOUS
  0
LAYER
  2
165
 70
    64
 62
     7
  6
CONTINUOUS
  0
LAYER
  2
166
 70
    64
 62
     7
  6
CONTINUOUS
  0
LAYER
  2
167
 70
    64
 62
     7
  6
CONTINUOUS
  0
LAYER
  2
168
 70
    64
 62
     7
  6
CONTINUOUS
  0
LAYER
  2
169
 70
    64
 62
     7
  6
CONTINUOUS
  0
LAYER
  2
170
 70
    64
 62
     7
  6
CONTINUOUS
  0
LAYER
  2
171
 70
    64
 62
     7
  6
CONTINUOUS
  0
LAYER
  2
172
 70
    64
 62
     7
  6
CONTINUOUS
  0
LAYER
  2
173
 70
    64
 62
     7
  6
CONTINUOUS
  0
LAYER
  2
174
 70
    64
 62
     7
  6
CONTINUOUS
  0
LAYER
  2
175
 70
    64
 62
     7
  6
CONTINUOUS
  0
LAYER
  2
176
 70
    64
 62
     7
  6
CONTINUOUS
  0
LAYER
  2
177
 70
    64
 62
     7
  6
CONTINUOUS
  0
LAYER
  2
178
 70
    64
 62
     7
  6
CONTINUOUS
  0
LAYER
  2
179
 70
    64
 62
     7
  6
CONTINUOUS
  0
LAYER
  2
180
 70
    64
 62
     7
  6
CONTINUOUS
  0
LAYER
  2
181
 70
    64
 62
     7
  6
CONTINUOUS
  0
LAYER
  2
182
 70
    64
 62
     7
  6
CONTINUOUS
  0
LAYER
  2
183
 70
    64
 62
     7
  6
CONTINUOUS
  0
LAYER
  2
184
 70
    64
 62
     7
  6
CONTINUOUS
  0
LAYER
  2
185
 70
    64
 62
     7
  6
CONTINUOUS
  0
LAYER
  2
186
 70
    64
 62
     7
  6
CONTINUOUS
  0
LAYER
  2
187
 70
    64
 62
     7
  6
CONTINUOUS
  0
LAYER
  2
188
 70
    64
 62
     7
  6
CONTINUOUS
  0
LAYER
  2
189
 70
    64
 62
     7
  6
CONTINUOUS
  0
LAYER
  2
190
 70
    64
 62
     7
  6
CONTINUOUS
  0
LAYER
  2
191
 70
    64
 62
     7
  6
CONTINUOUS
  0
LAYER
  2
192
 70
    64
 62
     7
  6
CONTINUOUS
  0
LAYER
  2
193
 70
    64
 62
     7
  6
CONTINUOUS
  0
LAYER
  2
194
 70
    64
 62
     7
  6
CONTINUOUS
  0
LAYER
  2
195
 70
    64
 62
     7
  6
CONTINUOUS
  0
LAYER
  2
196
 70
    64
 62
     7
  6
CONTINUOUS
  0
LAYER
  2
197
 70
    64
 62
     7
  6
CONTINUOUS
  0
LAYER
  2
198
 70
    64
 62
     7
  6
CONTINUOUS
  0
LAYER
  2
199
 70
    64
 62
     7
  6
CONTINUOUS
  0
LAYER
  2
200
 70
    64
 62
     7
  6
CONTINUOUS
  0
LAYER
  2
201
 70
    64
 62
     7
  6
CONTINUOUS
  0
LAYER
  2
202
 70
    64
 62
     7
  6
CONTINUOUS
  0
LAYER
  2
203
 70
    64
 62
     7
  6
CONTINUOUS
  0
LAYER
  2
204
 70
    64
 62
     7
  6
CONTINUOUS
  0
LAYER
  2
205
 70
    64
 62
     7
  6
CONTINUOUS
  0
LAYER
  2
206
 70
    64
 62
     7
  6
CONTINUOUS
  0
LAYER
  2
207
 70
    64
 62
     7
  6
CONTINUOUS
  0
LAYER
  2
208
 70
    64
 62
     7
  6
CONTINUOUS
  0
LAYER
  2
209
 70
    64
 62
     7
  6
CONTINUOUS
  0
LAYER
  2
210
 70
    64
 62
     7
  6
CONTINUOUS
  0
LAYER
  2
211
 70
    64
 62
     7
  6
CONTINUOUS
  0
LAYER
  2
212
 70
    64
 62
     7
  6
CONTINUOUS
  0
LAYER
  2
213
 70
    64
 62
     7
  6
CONTINUOUS
  0
LAYER
  2
214
 70
    64
 62
     7
  6
CONTINUOUS
  0
LAYER
  2
215
 70
    64
 62
     7
  6
CONTINUOUS
  0
LAYER
  2
216
 70
    64
 62
     7
  6
CONTINUOUS
  0
LAYER
  2
217
 70
    64
 62
     7
  6
CONTINUOUS
  0
LAYER
  2
218
 70
    64
 62
     7
  6
CONTINUOUS
  0
LAYER
  2
219
 70
    64
 62
     7
  6
CONTINUOUS
  0
LAYER
  2
220
 70
    64
 62
     7
  6
CONTINUOUS
  0
LAYER
  2
221
 70
    64
 62
     7
  6
CONTINUOUS
  0
LAYER
  2
222
 70
    64
 62
     7
  6
CONTINUOUS
  0
LAYER
  2
223
 70
    64
 62
     7
  6
CONTINUOUS
  0
LAYER
  2
224
 70
    64
 62
     7
  6
CONTINUOUS
  0
LAYER
  2
225
 70
    64
 62
     7
  6
CONTINUOUS
  0
LAYER
  2
226
 70
    64
 62
     7
  6
CONTINUOUS
  0
LAYER
  2
227
 70
    64
 62
     7
  6
CONTINUOUS
  0
LAYER
  2
228
 70
    64
 62
     7
  6
CONTINUOUS
  0
LAYER
  2
229
 70
    64
 62
     7
  6
CONTINUOUS
  0
LAYER
  2
230
 70
    64
 62
     7
  6
CONTINUOUS
  0
LAYER
  2
231
 70
    64
 62
     7
  6
CONTINUOUS
  0
LAYER
  2
232
 70
    64
 62
     7
  6
CONTINUOUS
  0
LAYER
  2
233
 70
    64
 62
     7
  6
CONTINUOUS
  0
LAYER
  2
234
 70
    64
 62
     7
  6
CONTINUOUS
  0
LAYER
  2
235
 70
    64
 62
     7
  6
CONTINUOUS
  0
LAYER
  2
236
 70
    64
 62
     7
  6
CONTINUOUS
  0
LAYER
  2
237
 70
    64
 62
     7
  6
CONTINUOUS
  0
LAYER
  2
238
 70
    64
 62
     7
  6
CONTINUOUS
  0
LAYER
  2
239
 70
    64
 62
     7
  6
CONTINUOUS
  0
LAYER
  2
240
 70
    64
 62
     7
  6
CONTINUOUS
  0
LAYER
  2
241
 70
    64
 62
     7
  6
CONTINUOUS
  0
LAYER
  2
242
 70
    64
 62
     7
  6
CONTINUOUS
  0
LAYER
  2
243
 70
    64
 62
     7
  6
CONTINUOUS
  0
LAYER
  2
244
 70
    64
 62
     7
  6
CONTINUOUS
  0
LAYER
  2
245
 70
    64
 62
     7
  6
CONTINUOUS
  0
LAYER
  2
246
 70
    64
 62
     7
  6
CONTINUOUS
  0
LAYER
  2
247
 70
    64
 62
     7
  6
CONTINUOUS
  0
LAYER
  2
248
 70
    64
 62
     7
  6
CONTINUOUS
  0
LAYER
  2
249
 70
    64
 62
     7
  6
CONTINUOUS
  0
LAYER
  2
250
 70
    64
 62
     7
  6
CONTINUOUS
  0
LAYER
  2
251
 70
    64
 62
     7
  6
CONTINUOUS
  0
LAYER
  2
252
 70
    64
 62
     7
  6
CONTINUOUS
  0
LAYER
  2
253
 70
    64
 62
     7
  6
CONTINUOUS
  0
LAYER
  2
254
 70
    64
 62
     7
  6
CONTINUOUS
  0
LAYER
  2
255
 70
    64
 62
     7
  6
CONTINUOUS
  0
ENDTAB
  0
TABLE
  2
STYLE
 70
     2
  0
STYLE
  2
STANDARD
 70
    64
 40
0.0
 41
1.0
 50
0.0
 71
     0
 42
3.000000
  3
TXT
  4
BIGFONT
  0
ENDTAB
  0
ENDSEC
  0
SECTION
  2
ENTITIES
  0
LINE
  8
0
  6
CONTINUOUS
 62
     7
 10
 20.960006932424136
 20
-3.8500022888183452
 11
 40.959999303029598
 21
-3.8500022888183452
  0
LINE
  8
0
  6
CONTINUOUS
 62
     7
 10
 27.959991673635074
 20
 0.1499977111816548
 11
 40.959999303029598
 21
 0.1499977111816548
  0
LINE
  8
0
  6
CONTINUOUS
 62
     7
 10
 33.960006932424136
 20
-4.8499870300292827
 11
 33.960006932424136
 21
 1.1499977111816548
  0
LINE
  8
0
  6
CONTINUOUS
 62
     7
 10
 33.960006932424136
 20
 1.1499977111816548
 11
 40.959999303029598
 21
 1.1499977111816548
  0
LINE
  8
0
  6
CONTINUOUS
 62
     7
 10
 40.959999303029598
 20
 1.1499977111816548
 11
 40.959999303029598
 21
-4.8499870300292827
  0
LINE
  8
0
  6
CONTINUOUS
 62
     7
 10
 40.959999303029598
 20
-4.8499870300292827
 11
 33.960006932424136
 21
-4.8499870300292827
  0
LINE
  8
0
  6
CONTINUOUS
 62
     7
 10
 40.959999303029598
 20
-4.8499870300292827
 11
 42.959999303029598
 21
-1.8500022888183452
  0
LINE
  8
0
  6
CONTINUOUS
 62
     7
 10
 42.959999303029598
 20
-1.8500022888183452
 11
 40.959999303029598
 21
 1.1499977111816548
  0
LINE
  8
0
  6
DASHDOT
 62
     3
 10
-43.89098336298602
 20
-1.8499946594238139
 11
-13.826873560739926
 21
-1.8499946594238139
  0
LINE
  8
0
  6
DASHDOT
 62
     3
 10
 14.429992894338199
 20
-1.8499946594238139
 11
 47.142696599172183
 21
-1.8499946594238139
  0
LINE
  8
0
  6
CONTINUOUS
 62
     3
 10
 19.418472508596011
 20
 7.688224792480483
 11
 24.960006932424136
 21
 8.1500091552734517
  0
ARC
  8
0
  6
CONTINUOUS
 62
     3
 10
 19.459991673635074
 20
 7.1899490356445455
 40
 0.5
 50
 94.763562463244753
 51
-179.9999980615126
  0
LINE
  8
0
  6
CONTINUOUS
 62
     3
 10
 24.960006932424136
 20
 8.1500091552734517
 11
 24.960006932424136
 21
-1.8499946594238139
  0
LINE
  8
0
  6
CONTINUOUS
 62
     3
 10
 24.960006932424136
 20
-6.8499946594238139
 11
 24.960006932424136
 21
-11.849994659423814
  0
LINE
  8
0
  6
CONTINUOUS
 62
     3
 10
 24.960006932424136
 20
-11.849994659423814
 11
 19.418472508596011
 21
-11.388202667236314
  0
ARC
  8
0
  6
CONTINUOUS
 62
     3
 10
 19.459991673635074
 20
-10.889930725097642
 40
 0.5
 50
-179.9999980615126
 51
-94.763648067981933
  0
LINE
  8
0
  6
CONTINUOUS
 62
     3
 10
 18.959991673635074
 20
-10.889930725097642
 11
 18.959991673635074
 21
-9.8499984741210795
  0
LINE
  8
0
  6
CONTINUOUS
 62
     3
 10
 18.959991673635074
 20
-1.8499946594238139
 11
 18.959991673635074
 21
 7.1899490356445455
  0
LINE
  8
0
  6
DASHDOT
 62
     3
 10
-30.068824549509458
 20
 10.88238906860353
 11
-30.068824549509458
 21
-15.816337585449205
  0
CIRCLE
  8
0
  6
CONTINUOUS
 62
     3
 10
-30.068824549509458
 20
-1.8499946594238139
 40
 10
  0
CIRCLE
  8
0
  6
CONTINUOUS
 62
     3
 10
-30.068824549509458
 20
-1.8499946594238139
 40
 9.5
  0
CIRCLE
  8
0
  6
CONTINUOUS
 62
     3
 10
-30.068824549509458
 20
-1.8499946594238139
 40
 8
  0
ARC
  8
0
  6
CONTINUOUS
 62
     3
 10
 33.960052708791324
 20
-1.8499984741210795
 40
 17.000049591064453
 50
 151.92761592310782
 51
-151.92760590519501
  0
LINE
  8
0
  6
CONTINUOUS
 62
     3
 10
 24.960006932424136
 20
 3.1500053405761861
 11
 27.459991673635074
 21
 3.1500053405761861
  0
ARC
  8
0
  6
CONTINUOUS
 62
     3
 10
 27.459991673635074
 20
 2.6500053405761861
 40
 0.5
 50
 0
 51
 90.000004039712721
  0
LINE
  8
0
  6
CONTINUOUS
 62
     3
 10
 27.959991673635074
 20
 2.6500053405761861
 11
 27.959991673635074
 21
-1.8499946594238139
  0
LINE
  8
0
  6
CONTINUOUS
 62
     3
 10
 27.959991673635074
 20
-3.8500022888183452
 11
 27.959991673635074
 21
-6.3499946594238139
  0
ARC
  8
0
  6
CONTINUOUS
 62
     3
 10
 27.459991673635074
 20
-6.3499946594238139
 40
 0.5
 50
-90.000000851989171
 51
 0
  0
LINE
  8
0
  6
CONTINUOUS
 62
     3
 10
 27.459991673635074
 20
-6.8499946594238139
 11
 20.960006932424136
 21
-6.8499946594238139
  0
LINE
  8
0
  6
CONTINUOUS
 62
     3
 10
 20.960006932424136
 20
-6.8499946594238139
 11
 20.960006932424136
 21
-9.8499946594238139
  0
LINE
  8
0
  6
CONTINUOUS
 62
     3
 10
 20.959991673635074
 20
-9.8499946594238139
 11
 24.960006932424136
 21
-9.8499946594238139
  0
LINE
  8
0
  6
CONTINUOUS
 62
     3
 10
 19.036911229299136
 20
 7.456413269042983
 11
 24.960006932424136
 21
 7.950004577636733
  0
LINE
  8
0
  6
CONTINUOUS
 62
     3
 10
 18.959991673635074
 20
 7.1500091552734517
 11
 24.960006932424136
 21
 7.6500091552734517
  0
LINE
  8
0
  6
CONTINUOUS
 62
     3
 10
 18.959991673635074
 20
 6.7500076293945455
 11
 24.960006932424136
 21
 7.2500076293945455
  0
LINE
  8
0
  6
CONTINUOUS
 62
     3
 10
 18.959991673635074
 20
 6.2500076293945455
 11
 24.960006932424136
 21
 6.7500076293945455
  0
LINE
  8
0
  6
CONTINUOUS
 62
     3
 10
 18.959991673635074
 20
 5.6500015258789205
 11
 24.960006932424136
 21
 6.1500015258789205
  0
LINE
  8
0
  6
CONTINUOUS
 62
     3
 10
 18.959991673635074
 20
 4.950004577636733
 11
 24.960006932424136
 21
 5.450004577636733
  0
LINE
  8
0
  6
CONTINUOUS
 62
     3
 10
 18.959991673635074
 20
 4.1500053405761861
 11
 24.962539891408511
 21
 4.618583679199233
  0
LINE
  8
0
  6
CONTINUOUS
 62
     3
 10
 18.959991673635074
 20
 3.2500076293945455
 11
 24.964126805471011
 21
 3.6976318359375142
  0
LINE
  8
0
  6
CONTINUOUS
 62
     3
 10
 18.959991673635074
 20
 2.2500076293945455
 11
 24.964126805471011
 21
 2.6976318359375142
  0
LINE
  8
0
  6
CONTINUOUS
 62
     3
 10
 18.959991673635074
 20
 1.1500053405761861
 11
 24.960006932424136
 21
 1.5446968078613423
  0
LINE
  8
0
  6
CONTINUOUS
 62
     3
 10
 18.959991673635074
 20
-0.049995422363267
 11
 24.960006932424136
 21
 0.2396354675293111
  0
LINE
  8
0
  6
CONTINUOUS
 62
     3
 10
 18.959991673635074
 20
-1.3499946594238139
 11
 24.960006932424136
 21
-1.1652526855468608
  0
ARC
  8
0
  6
CONTINUOUS
 62
     3
 10
-21.039977808786816
 20
-1.8499946594238139
 40
 40
 50
-9.7842907765459781
 51
 0
  0
ARC
  8
0
  6
DOT
 62
     3
 10
-21.039977808786816
 20
-1.8499946594238139
 40
 40
 50
 0
 51
 9.7842803038909452
  0
LINE
  8
0
  6
CONTINUOUS
 62
     7
 10
 20.960006932424136
 20
-3.8500022888183452
 11
 20.960006932424136
 21
-1.8500022888183452
  0
LINE
  8
0
  6
CONTINUOUS
 62
     3
 10
-31.068824549509458
 20
 4.9475708007812642
 11
-31.068824549509458
 21
-8.6475677490234233
  0
LINE
  8
0
  6
CONTINUOUS
 62
     3
 10
-29.068824549509458
 20
 4.9475708007812642
 11
-29.068824549509458
 21
-8.6475677490234233
  0
LINE
  8
0
  6
CONTINUOUS
 62
     3
 10
-29.068824549509458
 20
 4.9475708007812642
 11
-31.068824549509458
 21
 4.9475708007812642
  0
LINE
  8
0
  6
CONTINUOUS
 62
     3
 10
-29.068824549509458
 20
-8.6475677490234233
 11
-31.068824549509458
 21
-8.6475677490234233
  0
LINE
  8
0
  6
CONTINUOUS
 62
     6
 10
 25.106445531056949
 20
-1.8499946594238139
 11
 23.106430272267886
 21
-3.8500022888183452
  0
LINE
  8
0
  6
CONTINUOUS
 62
     6
 10
 22.985122899221011
 20
-1.8499946594238139
 11
 20.985122899221011
 21
-3.8500022888183452
  0
LINE
  8
0
  6
CONTINUOUS
 62
     6
 10
 22.278015355275699
 20
-1.8499946594238139
 11
 20.960006932424136
 21
-3.1680145263671733
  0
LINE
  8
0
  6
CONTINUOUS
 62
     6
 10
 21.570907811330386
 20
-1.8499946594238139
 11
 20.960006932424136
 21
-2.4609107971191264
  0
LINE
  8
0
  6
CONTINUOUS
 62
     6
 10
 25.813553075002261
 20
-1.8499946594238139
 11
 23.813553075002261
 21
-3.8500022888183452
  0
LINE
  8
0
  6
CONTINUOUS
 62
     6
 10
 26.520660618947574
 20
-1.8499946594238139
 11
 24.520645360158511
 21
-3.8500022888183452
  0
LINE
  8
0
  6
CONTINUOUS
 62
     6
 10
 27.227768162892886
 20
-1.8499946594238139
 11
 25.227768162892886
 21
-3.8500022888183452
  0
LINE
  8
0
  6
CONTINUOUS
 62
     6
 10
 27.934875706838199
 20
-1.8499946594238139
 11
 25.934860448049136
 21
-3.8500022888183452
  0
LINE
  8
0
  6
CONTINUOUS
 62
     6
 10
 27.959991673635074
 20
-2.5319824218749858
 11
 26.641983250783511
 21
-3.8500022888183452
  0
LINE
  8
0
  6
CONTINUOUS
 62
     6
 10
 27.959991673635074
 20
-3.2390861511230327
 11
 27.349075535939761
 21
-3.8500022888183452
  0
LINE
  8
0
  6
CONTINUOUS
 62
     6
 10
 25.106445531056949
 20
-3.8500022888183452
 11
 23.106430272267886
 21
-1.8499946594238139
  0
LINE
  8
0
  6
CONTINUOUS
 62
     6
 10
 23.692230443166324
 20
-3.8500022888183452
 11
 21.692215184377261
 21
-1.8499946594238139
  0
LINE
  8
0
  6
CONTINUOUS
 62
     6
 10
 22.985122899221011
 20
-3.8500022888183452
 11
 20.985122899221011
 21
-1.8499946594238139
  0
LINE
  8
0
  6
CONTINUOUS
 62
     6
 10
 22.278015355275699
 20
-3.8500022888183452
 11
 20.960006932424136
 21
-2.5319824218749858
  0
LINE
  8
0
  6
CONTINUOUS
 62
     6
 10
 21.570907811330386
 20
-3.8500022888183452
 11
 20.960006932424136
 21
-3.2390861511230327
  0
LINE
  8
0
  6
CONTINUOUS
 62
     6
 10
 25.813553075002261
 20
-3.8500022888183452
 11
 23.813553075002261
 21
-1.8499946594238139
  0
LINE
  8
0
  6
CONTINUOUS
 62
     6
 10
 26.520660618947574
 20
-3.8500022888183452
 11
 24.520645360158511
 21
-1.8499946594238139
  0
LINE
  8
0
  6
CONTINUOUS
 62
     6
 10
 27.227768162892886
 20
-3.8500022888183452
 11
 25.227768162892886
 21
-1.8499946594238139
  0
LINE
  8
0
  6
CONTINUOUS
 62
     6
 10
 27.934875706838199
 20
-3.8500022888183452
 11
 25.934860448049136
 21
-1.8499946594238139
  0
LINE
  8
0
  6
CONTINUOUS
 62
     6
 10
 27.959991673635074
 20
-3.1680145263671733
 11
 26.641983250783511
 21
-1.8499946594238139
  0
LINE
  8
0
  6
CONTINUOUS
 62
     6
 10
 27.959991673635074
 20
-2.4609107971191264
 11
 27.349075535939761
 21
-1.8499946594238139
  0
LINE
  8
0
  6
CONTINUOUS
 62
     2
 10
 25.461960057424136
 20
-3.8500022888183452
 11
 22.461975316213199
 21
-6.8499946594238139
  0
LINE
  8
0
  6
CONTINUOUS
 62
     2
 10
 20.960006932424136
 20
-8.3519706726074077
 11
 18.959991673635074
 21
-10.351974487304673
  0
LINE
  8
0
  6
CONTINUOUS
 62
     2
 10
 24.047744969533511
 20
-3.8500022888183452
 11
 21.047760228322574
 21
-6.8499946594238139
  0
LINE
  8
0
  6
CONTINUOUS
 62
     2
 10
 20.960006932424136
 20
-6.9377555847167827
 11
 18.652694920705386
 21
-9.2450485229492045
  0
LINE
  8
0
  6
CONTINUOUS
 62
     2
 10
 22.633545140431949
 20
-3.8500022888183452
 11
 18.484543065236636
 21
-7.999000549316392
  0
LINE
  8
0
  6
CONTINUOUS
 62
     2
 10
 21.219345311330386
 20
-3.8500022888183452
 11
 18.704361180471011
 21
-6.3649635314941264
  0
LINE
  8
0
  6
CONTINUOUS
 62
     2
 10
 20.960006932424136
 20
-2.6951217651367045
 11
 18.850754002736636
 21
-4.8043746948242045
  0
LINE
  8
0
  6
CONTINUOUS
 62
     2
 10
 20.390915135549136
 20
-1.8499946594238139
 11
 18.933441380666324
 21
-3.3074684143066264
  0
LINE
  8
0
  6
CONTINUOUS
 62
     2
 10
 18.976700047658511
 20
-1.8499946594238139
 11
 18.960006932424136
 21
-1.8666954040527202
  0
LINE
  8
0
  6
CONTINUOUS
 62
     2
 10
 26.876175145314761
 20
-3.8500022888183452
 11
 23.876190404103824
 21
-6.8499946594238139
  0
LINE
  8
0
  6
CONTINUOUS
 62
     2
 10
 20.960006932424136
 20
-9.766181945800767
 11
 19.348770360158511
 21
-11.37740325927733
  0
LINE
  8
0
  6
CONTINUOUS
 62
     2
 10
 27.959991673635074
 20
-4.1804122924804545
 11
 25.290405491994449
 21
-6.8499946594238139
  0
LINE
  8
0
  6
CONTINUOUS
 62
     2
 10
 22.290405491994449
 20
-9.8499946594238139
 11
 20.649597386525699
 21
-11.490795135498033
  0
LINE
  8
0
  6
CONTINUOUS
 62
     2
 10
 27.959991673635074
 20
-5.5946273803710795
 11
 26.704620579885074
 21
-6.8499946594238139
  0
LINE
  8
0
  6
CONTINUOUS
 62
     2
 10
 23.704620579885074
 20
-9.8499946594238139
 11
 21.955032567189761
 21
-11.599582672119126
  0
LINE
  8
0
  6
CONTINUOUS
 62
     2
 10
 24.960006932424136
 20
-10.008827209472642
 11
 23.260452489064761
 21
-11.708366394042955
  0
LINE
  8
0
  6
CONTINUOUS
 62
     2
 10
 24.960006932424136
 20
-11.423042297363267
 11
 24.565887669728824
 21
-11.817153930664048
  0
LINE
  8
0
  6
CONTINUOUS
 62
     7
 10
 40.959999303029598
 20
 4.8527297973632955
 11
 40.959999303029598
 21
 19.110004425048842
  0
LINE
  8
0
  6
CONTINUOUS
 62
     7
 10
 40.959999303029598
 20
 18.149997711181655
 11
 42.959999303029598
 21
 18.149997711181655
  0
TEXT
  8
0
  6
CONTINUOUS
 62
     7
 10
 44.56000464360578
 20
 19.110004425048842
 11
 46.160004643605781
 21
 19.110004425048842
 40
 2
 41
 0.8
  1
２
 50
 0
 72
  5
  0
LINE
  8
0
  6
CONTINUOUS
 62
     7
 10
 47.759998540090152
 20
 18.149997711181655
 11
 42.959999303029598
 21
 18.149997711181655
  0
LINE
  8
0
  6
CONTINUOUS
 62
     7
 10
 42.959999303029598
 20
 18.149997711181655
 11
 45.857776781896803
 21
 17.373540575874092
  0
LINE
  8
0
  6
CONTINUOUS
 62
     7
 10
 42.959999303029598
 20
 18.149997711181655
 11
 45.857776781896803
 21
 18.926454846489218
  0
LINE
  8
0
  6
CONTINUOUS
 62
     7
 10
 26.810165623830386
 20
-9.8499946594238139
 11
 62.161209325002261
 21
-9.8499946594238139
  0
LINE
  8
0
  6
CONTINUOUS
 62
     7
 10
 45.488060216115535
 20
 6.1500091552734517
 11
 62.161209325002261
 21
 6.1500091552734517
  0
LINE
  8
0
  6
CONTINUOUS
 62
     7
 10
 61.20121405522687
 20
-9.8499946594238139
 11
 61.20121405522687
 21
 6.1500091552734517
  0
LINE
  8
0
  6
CONTINUOUS
 62
     7
 10
 61.20121405522687
 20
-9.8499946594238139
 11
 61.97767119053443
 21
-6.9522171805566089
  0
LINE
  8
0
  6
CONTINUOUS
 62
     7
 10
 61.20121405522687
 20
-9.8499946594238139
 11
 60.424756919919311
 21
-6.9522171805566089
  0
LINE
  8
0
  6
CONTINUOUS
 62
     7
 10
 61.20121405522687
 20
 6.1500091552734517
 11
 60.424756919919311
 21
 3.2522316764062467
  0
LINE
  8
0
  6
CONTINUOUS
 62
     7
 10
 61.20121405522687
 20
 6.1500091552734517
 11
 61.97767119053443
 21
 3.2522316764062467
  0
TEXT
  8
0
  6
CONTINUOUS
 62
     7
 10
 60.241218820420592
 20
-3.6999938527729674
 11
 60.241218566894531
 21
 2.1000061472270239
 40
 2
 41
 0.8
  1
φ１６
 50
 90.000004039712707
 72
  5
  0
LINE
  8
0
  6
CONTINUOUS
 62
     7
 10
 31.960006932424136
 20
-7.1504745483398295
 11
 31.960006932424136
 21
-3.8500022888183452
  0
LINE
  8
0
  6
CONTINUOUS
 62
     7
 10
 31.960006932424136
 20
-3.8500022888183452
 11
 31.183549797116573
 21
-6.7477797676855502
  0
LINE
  8
0
  6
CONTINUOUS
 62
     7
 10
 31.960006932424136
 20
-3.8500022888183452
 11
 32.736464067731696
 21
-6.7477797676855502
  0
LINE
  8
0
  6
CONTINUOUS
 62
     7
 10
 31.960006932424136
 20
 0.1499977111816548
 11
 31.960006932424136
 21
-3.8500022888183452
  0
TEXT
  8
0
  6
CONTINUOUS
 62
     7
 10
 31.000000253526057
 20
 3.7499954660746853
 11
 31.000000091793918
 21
 7.4499954660746877
 40
 2
 41
 0.8
  1
φ４
 50
 90.000004039712707
 72
  5
  0
LINE
  8
0
  6
CONTINUOUS
 62
     7
 10
 31.960006932424136
 20
 9.2698059082031392
 11
 31.960006932424136
 21
 0.1499977111816548
  0
LINE
  8
0
  6
CONTINUOUS
 62
     7
 10
 31.960006932424136
 20
 0.1499977111816548
 11
 32.736464067731696
 21
 3.0477751900488599
  0
LINE
  8
0
  6
CONTINUOUS
 62
     7
 10
 31.960006932424136
 20
 0.1499977111816548
 11
 31.183549797116573
 21
 3.0477751900488599
  0
LINE
  8
0
  6
CONTINUOUS
 62
     7
 10
-31.068824549509458
 20
 6.900016784667983
 11
-31.068824549509458
 21
 19.109996795654311
  0
LINE
  8
0
  6
CONTINUOUS
 62
     7
 10
-29.068824549509458
 20
 6.900016784667983
 11
-29.068824549509458
 21
 19.109996795654311
  0
LINE
  8
0
  6
CONTINUOUS
 62
     7
 10
-35.589683314157895
 20
 18.149997711181655
 11
-31.068824549509458
 21
 18.149997711181655
  0
LINE
  8
0
  6
CONTINUOUS
 62
     7
 10
-31.068824549509458
 20
 18.149997711181655
 11
-33.966602028376663
 21
 18.926454846489218
  0
LINE
  8
0
  6
CONTINUOUS
 62
     7
 10
-31.068824549509458
 20
 18.149997711181655
 11
-33.966602028376663
 21
 17.373540575874092
  0
LINE
  8
0
  6
CONTINUOUS
 62
     7
 10
-31.068824549509458
 20
 18.149997711181655
 11
-29.068824549509458
 21
 18.149997711181655
  0
TEXT
  8
0
  6
CONTINUOUS
 62
     7
 10
-26.153301783396163
 20
 19.109996795654311
 11
-24.553301783396162
 21
 19.109996795654311
 40
 2
 41
 0.8
  1
２
 50
 0
 72
  5
  0
LINE
  8
0
  6
CONTINUOUS
 62
     7
 10
-22.953292628122753
 20
 18.149997711181655
 11
-29.068824549509458
 21
 18.149997711181655
  0
LINE
  8
0
  6
CONTINUOUS
 62
     7
 10
-29.068824549509458
 20
 18.149997711181655
 11
-26.171047070642253
 21
 17.373540575874092
  0
LINE
  8
0
  6
CONTINUOUS
 62
     7
 10
-29.068824549509458
 20
 18.149997711181655
 11
-26.171047070642253
 21
 18.926454846489218
  0
LINE
  8
256
  6
CONTINUOUS
 62
     7
 10
-193.30000000000001
 20
 124.99999645625348
 11
-93.300000000000011
 21
 124.99999645625348
  0
LINE
  8
256
  6
CONTINUOUS
 62
     7
 10
-93.300000000000011
 20
 124.9999964562535
 11
-93.300000000000011
 21
 136.99999721136808
  0
TEXT
  8
256
  6
CONTINUOUS
 62
     7
 10
-188.30000000000001
 20
 127.99999604817611
 11
-140.30000000000001
 21
 127.99999604817611
 40
 6
 41
 1
  1
ＬＢ－Ｄ９３８０
 50
 0
 72
  5
  0
LINE
  8
256
  6
CONTINUOUS
 62
     7
 10
 104.99998474121094
 20
-121.5
 11
 200
 21
-121.5
  0
LINE
  8
256
  6
CONTINUOUS
 62
     7
 10
 170.99998474121094
 20
-109.5
 11
 170.99998474121094
 21
-121.5
  0
TEXT
  8
256
  6
CONTINUOUS
 62
     7
 10
 112.5
 20
-134.25
 11
 148.5
 21
-134.25
 40
 6
 41
 1
  1
ＲＢ－１Ｍ６
 50
 0
 72
  5
  0
TEXT
  8
256
  6
CONTINUOUS
 62
     7
 10
 123.99998474121094
 20
-119.75
 11
 151.99998474121094
 21
-119.75
 40
 5
 41
 0.8
  1
ローレットビス
 50
 0
 72
  5
  0
TEXT
  8
256
  6
CONTINUOUS
 62
     7
 10
 106.29998779296875
 20
-112.4499633789062
 11
 111.29998779296875
 21
-112.4499633789062
 40
 2.5
 41
 0.8
  1
品名
 50
 0
 72
  5
  0
TEXT
  8
256
  6
CONTINUOUS
 62
     7
 10
 106.29998779296875
 20
-124.45003051757811
 11
 111.29998779296875
 21
-124.45003051757811
 40
 2.5
 41
 0.8
  1
品番
 50
 0
 72
  5
  0
LINE
  8
256
  6
CONTINUOUS
 62
     7
 10
 104.99998474121094
 20
-139.5
 11
 104.99998474121094
 21
-109.5
  0
LINE
  8
256
  6
CONTINUOUS
 62
     7
 10
 104.99998474121094
 20
-109.5
 11
 200
 21
-109.5
  0
LINE
  8
256
  6
CONTINUOUS
 62
     7
 10
-193.30000000000001
 20
 136.99999721136808
 11
-193.30000000000001
 21
-139.49999999999994
  0
LINE
  8
256
  6
CONTINUOUS
 62
     7
 10
-193.30000000000001
 20
 136.99999721136808
 11
 200
 21
 136.99999721136808
  0
LINE
  8
256
  6
CONTINUOUS
 62
     7
 10
 200
 20
-139.5
 11
-193.30000000000001
 21
-139.49999999999994
  0
LINE
  8
256
  6
CONTINUOUS
 62
     7
 10
 200
 20
 136.99999721136808
 11
 200
 21
-139.5
  0
LINE
  8
0
  6
CONTINUOUS
 62
     7
 10
 42.959999303029598
 20
 4.8527297973632955
 11
 42.959999303029598
 21
 24.110004425048842
  0
LINE
  8
0
  6
CONTINUOUS
 62
     7
 10
 16.960006932424136
 20
 3.4645156860351705
 11
 16.960006932424136
 21
 24.110004425048842
  0
LINE
  8
0
  6
CONTINUOUS
 62
     7
 10
 42.959999303029598
 20
 23.149997711181655
 11
 16.960006932424136
 21
 23.149997711181655
  0
LINE
  8
0
  6
CONTINUOUS
 62
     7
 10
 42.959999303029598
 20
 23.149997711181655
 11
 40.062221824162393
 21
 23.926454846489218
  0
LINE
  8
0
  6
CONTINUOUS
 62
     7
 10
 42.959999303029598
 20
 23.149997711181655
 11
 40.062221824162393
 21
 22.373540575874092
  0
LINE
  8
0
  6
CONTINUOUS
 62
     7
 10
 16.960006932424136
 20
 23.149997711181655
 11
 19.857784411291341
 21
 22.373540575874092
  0
LINE
  8
0
  6
CONTINUOUS
 62
     7
 10
 16.960006932424136
 20
 23.149997711181655
 11
 19.857784411291341
 21
 23.926454846489218
  0
TEXT
  8
0
  6
CONTINUOUS
 62
     7
 10
 28.110003880666323
 20
 24.110004425048842
 11
 31.810003880666326
 21
 24.110004425048842
 40
 2
 41
 0.8
  1
26
 50
 0
 72
  5
  0
LINE
  8
0
  6
CONTINUOUS
 62
     7
 10
 33.960006932424136
 20
 4.8527297973632955
 11
 33.960006932424136
 21
 19.110004425048842
  0
LINE
  8
0
  6
CONTINUOUS
 62
     7
 10
 33.960006932424136
 20
 18.149997711181655
 11
 40.959999303029598
 21
 18.149997711181655
  0
LINE
  8
0
  6
CONTINUOUS
 62
     7
 10
 33.960006932424136
 20
 18.149997711181655
 11
 36.857784411291341
 21
 17.373540575874092
  0
LINE
  8
0
  6
CONTINUOUS
 62
     7
 10
 33.960006932424136
 20
 18.149997711181655
 11
 36.857784411291341
 21
 18.926454846489218
  0
LINE
  8
0
  6
CONTINUOUS
 62
     7
 10
 40.959999303029598
 20
 18.149997711181655
 11
 38.062221824162393
 21
 18.926454846489218
  0
LINE
  8
0
  6
CONTINUOUS
 62
     7
 10
 40.959999303029598
 20
 18.149997711181655
 11
 38.062221824162393
 21
 17.373540575874092
  0
TEXT
  8
0
  6
CONTINUOUS
 62
     7
 10
 36.659991673635083
 20
 19.110004425048842
 11
 38.259991673635085
 21
 19.110004425048842
 40
 2
 41
 0.8
  1
7
 50
 0
 72
  5
  0
LINE
  8
0
  6
CONTINUOUS
 62
     7
 10
 27.959991673635074
 20
 5.203300476074233
 11
 27.959991673635074
 21
 19.110004425048842
  0
LINE
  8
0
  6
CONTINUOUS
 62
     7
 10
 27.959991673635074
 20
 18.149997711181655
 11
 33.960006932424136
 21
 18.149997711181655
  0
LINE
  8
0
  6
CONTINUOUS
 62
     7
 10
 27.959991673635074
 20
 18.149997711181655
 11
 30.857769152502279
 21
 17.373540575874092
  0
LINE
  8
0
  6
CONTINUOUS
 62
     7
 10
 27.959991673635074
 20
 18.149997711181655
 11
 30.857769152502279
 21
 18.926454846489218
  0
LINE
  8
0
  6
CONTINUOUS
 62
     7
 10
 33.960006932424136
 20
 18.149997711181655
 11
 31.062229453556931
 21
 18.926454846489218
  0
LINE
  8
0
  6
CONTINUOUS
 62
     7
 10
 33.960006932424136
 20
 18.149997711181655
 11
 31.062229453556931
 21
 17.373540575874092
  0
TEXT
  8
0
  6
CONTINUOUS
 62
     7
 10
 30.160006932424135
 20
 19.110004425048842
 11
 31.760006932424137
 21
 19.110004425048842
 40
 2
 41
 0.8
  1
6
 50
 0
 72
  5
  0
LINE
  8
0
  6
CONTINUOUS
 62
     7
 10
 29.264129857228824
 20
 3.1500053405761861
 11
 57.161205510304995
 21
 3.1500053405761861
  0
LINE
  8
0
  6
CONTINUOUS
 62
     7
 10
 34.788955907033511
 20
-6.8499946594238139
 11
 57.161205510304995
 21
-6.8499946594238139
  0
LINE
  8
0
  6
CONTINUOUS
 62
     7
 10
 56.201221684621402
 20
 3.1500053405761861
 11
 56.201221684621402
 21
-6.8499946594238139
  0
LINE
  8
0
  6
CONTINUOUS
 62
     7
 10
 56.201221684621402
 20
 3.1500053405761861
 11
 55.424764549313842
 21
 0.252227861708981
  0
LINE
  8
0
  6
CONTINUOUS
 62
     7
 10
 56.201221684621402
 20
 3.1500053405761861
 11
 56.977678819928961
 21
 0.252227861708981
  0
LINE
  8
0
  6
CONTINUOUS
 62
     7
 10
 56.201221684621402
 20
-6.8499946594238139
 11
 56.977678819928961
 21
-3.9522171805566089
  0
LINE
  8
0
  6
CONTINUOUS
 62
     7
 10
 56.201221684621402
 20
-6.8499946594238139
 11
 55.424764549313842
 21
-3.9522171805566089
  0
TEXT
  8
0
  6
CONTINUOUS
 62
     7
 10
 55.241218820420592
 20
-3.6999938527729674
 11
 55.241218566894531
 21
 2.1000061472270239
 40
 2
 41
 0.8
  1
φ10
 50
 90.000004039712707
 72
  5
  0
LINE
  8
0
  6
CONTINUOUS
 62
     7
 10
 16.25128958623273
 20
 8.1500091552734517
 11
-4.0000074108375827
 21
 8.1500091552734517
  0
LINE
  8
0
  6
CONTINUOUS
 62
     7
 10
 16.53174612920148
 20
-11.849994659423814
 11
-4.0000074108375827
 21
-11.849994659423814
  0
LINE
  8
0
  6
CONTINUOUS
 62
     7
 10
-3.039993067575864
 20
 8.1500091552734517
 11
-3.039993067575864
 21
-11.849994659423814
  0
LINE
  8
0
  6
CONTINUOUS
 62
     7
 10
-3.039993067575864
 20
 8.1500091552734517
 11
-3.8164502028834262
 21
 5.2522316764062467
  0
LINE
  8
0
  6
CONTINUOUS
 62
     7
 10
-3.039993067575864
 20
 8.1500091552734517
 11
-2.2635359322683017
 21
 5.2522316764062467
  0
LINE
  8
0
  6
CONTINUOUS
 62
     7
 10
-3.039993067575864
 20
-11.849994659423814
 11
-2.2635359322683017
 21
-8.9522171805566089
  0
LINE
  8
0
  6
CONTINUOUS
 62
     7
 10
-3.039993067575864
 20
-11.849994659423814
 11
-3.8164502028834262
 21
-8.9522171805566089
  0
TEXT
  8
0
  6
CONTINUOUS
 62
     7
 10
-4.0000073758684715
 20
-5.7999999562885955
 11
-4.000007629394533
 21
 0.0000000437113998
 40
 2
 41
 0.8
  1
φ20
 50
 90.000004039712707
 72
  5
  0
LINE
  8
0
  6
CONTINUOUS
 62
     7
 10
 16.53174612920148
 20
-9.8499984741210795
 11
 5.9999925891624173
 21
-9.8499984741210795
  0
LINE
  8
0
  6
CONTINUOUS
 62
     7
 10
 16.25128958623273
 20
 6.1499977111816548
 11
 5.9999925891624173
 21
 6.1499977111816548
  0
LINE
  8
0
  6
CONTINUOUS
 62
     7
 10
 6.9599916736350735
 20
-9.8499984741210795
 11
 6.9599916736350735
 21
 6.1499977111816548
  0
LINE
  8
0
  6
CONTINUOUS
 62
     7
 10
 6.9599916736350735
 20
-9.8499984741210795
 11
 7.7364488089426358
 21
-6.9522209952538745
  0
LINE
  8
0
  6
CONTINUOUS
 62
     7
 10
 6.9599916736350735
 20
-9.8499984741210795
 11
 6.1835345383275113
 21
-6.9522209952538745
  0
LINE
  8
0
  6
CONTINUOUS
 62
     7
 10
 6.9599916736350735
 20
 6.1499977111816548
 11
 6.1835345383275113
 21
 3.2522202323144498
  0
LINE
  8
0
  6
CONTINUOUS
 62
     7
 10
 6.9599916736350735
 20
 6.1499977111816548
 11
 7.7364488089426358
 21
 3.2522202323144498
  0
TEXT
  8
0
  6
CONTINUOUS
 62
     7
 10
 5.9999926241315285
 20
-5.7999999562885955
 11
 5.999992370605467
 21
 0.0000000437113989
 40
 2
 41
 0.8
  1
φ16
 50
 90.000004039712707
 72
  5
  0
LINE
  8
0
  6
CONTINUOUS
 62
     7
 10
 16.25128958623273
 20
 7.6500091552734517
 11
 1.0000002185569485
 21
 7.6500091552734517
  0
LINE
  8
0
  6
CONTINUOUS
 62
     7
 10
 16.53174612920148
 20
-11.349994659423814
 11
 1.0000002185569485
 21
-11.349994659423814
  0
LINE
  8
0
  6
CONTINUOUS
 62
     7
 10
 1.9599993030296048
 20
 7.6500091552734517
 11
 1.9599993030296048
 21
-11.349994659423814
  0
LINE
  8
0
  6
CONTINUOUS
 62
     7
 10
 1.9599993030296048
 20
 7.6500091552734517
 11
 1.1835421677220426
 21
 4.7522316764062467
  0
LINE
  8
0
  6
CONTINUOUS
 62
     7
 10
 1.9599993030296048
 20
 7.6500091552734517
 11
 2.736456438337167
 21
 4.7522316764062467
  0
LINE
  8
0
  6
CONTINUOUS
 62
     7
 10
 1.9599993030296048
 20
-11.349994659423814
 11
 2.736456438337167
 21
-8.4522171805566089
  0
LINE
  8
0
  6
CONTINUOUS
 62
     7
 10
 1.9599993030296048
 20
-11.349994659423814
 11
 1.1835421677220426
 21
-8.4522171805566089
  0
TEXT
  8
0
  6
CONTINUOUS
 62
     7
 10
 1.0000002535260593
 20
-5.7999999562885955
 11
 0.9999999999999987
 21
 0.0000000437113998
 40
 2
 41
 0.8
  1
φ19
 50
 90.000004039712707
 72
  5
  0
LINE
  8
0
  6
CONTINUOUS
 62
     7
 10
 46.581814030812808
 20
 9.2557830810547017
 11
 37.46000311772687
 21
 1.1499977111816548
  0
LINE
  8
0
  6
CONTINUOUS
 62
     7
 10
 37.46000311772687
 20
 1.1499977111816548
 11
 40.141884203645944
 21
 2.4944358246660761
  0
LINE
  8
0
  6
CONTINUOUS
 62
     7
 10
 37.46000311772687
 20
 1.1499977111816548
 11
 39.110361211319571
 21
 3.6552558142347245
  0
TEXT
  8
0
  6
CONTINUOUS
 62
     7
 10
 48.581814030812808
 20
 10.215782165527358
 11
 68.081814030812808
 21
 10.215782165527358
 40
 2.5
 41
 0.8
  1
Ｍ６　Ｐ＝１．０
 50
 0
 72
  5
  0
LINE
  8
0
  6
CONTINUOUS
 62
     7
 10
 46.581814030812808
 20
 9.2557830810547017
 11
 70.581815938161441
 21
 9.2557830810547017
  0
ENDSEC
  0
EOF
