  0
SECTION
  2
HEADER
  9
$INSBASE
 10
0.0
20
0.0
  9
$REGENMODE
 70
     1
  9
$DRAGMODE
 70
     1
  9
$DIMTAD
 70
     1
  9
$EXTMIN
 10
-210.000000
 20
-148.500000
 30
 0.0
  9
$EXTMAX
 10
210.000000
 20
148.500000
 30
 0.0
  9
$LUPREC
 70
    3
  9
$AUPREC
 70
    3
  9
$LTSCALE
 40
26.250000
  0
ENDSEC
  0
SECTION
  2
TABLES
  0
TABLE
  2
LTYPE
 70
     6
  0
LTYPE
  2
CONTINUOUS
 70
    64
  3
SOLID
 72
    65
 73
     0
 40
0.0
  0
LTYPE
  2
DASHED2
 70
    64
  3
_ _ _ _ _ _ _ _ _ _ _ _ _ _ _ _ _ _ _ _ _ _ 
 72
    65
 73
     2
 40
0.5
 49
0.25
 49
-0.25
  0
LTYPE
  2
DASHED
 70
    64
  3
__ __ __ __ __ __ __ __ __ __ __ __ __ __ __
 72
    65
 73
     2
 40
0.75
 49
0.5
 49
-0.25
  0
LTYPE
  2
DASHEDX2
 70
    64
  3
____  ____  ____  ____  ____  ____  ____  __
 72
    65
 73
     2
 40
1.5
 49
1.0
 49
-0.5
  0
LTYPE
  2
DOT
 70
    64
  3
............................................
 72
    65
 73
     2
 40
0.25
 49
0
 49
-0.25
  0
LTYPE
  2
DASHDOT
 70
    64
  3
__ . __ . __ . __ . __ . __ . __ . __ . __ .
 72
    65
 73
     4
 40
1.0
 49
0.5
 49
-0.25
 49
0.0
 49
-0.25
  0
LTYPE
  2
CENTER
 70
    64
  3
____ _ ____ _ ____ _ ____ _ ____ _ ____ _ __
 72
    65
 73
     4
 40
2.0
 49
1.25
 49
-0.25
 49
0.25
 49
-0.25
  0
LTYPE
  2
DIVIDE
 70
    64
  3
__ . . __ . . __ . . __ . . __ . . __ . . __
 72
    65
 73
     6
 40
1.25
 49
0.5
 49
-0.25
 49
0.0
 49
-0.25
 49
0.0
 49
-0.25
  0
LTYPE
  2
PHANTOM2
 70
    64
  3
___ _ _ ___ _ _ ___ _ _ ___ _ _ ___ _ _ ___ 
 72
    65
 73
     6
 40
1.25
 49
0.625
 49
-0.125
 49
0.125
 49
-0.125
 49
0.125
 49
-0.125
  0
LTYPE
  2
DOTX2
 70
    64
  3
. . . . . . . . . . . . . . . . . . . . . . 
 72
    65
 73
     2
 40
0.5
 49
0
 49
-0.5
  0
ENDTAB
  0
TABLE
  2
LAYER
 70
   255
  0
LAYER
  2
0
 70
    64
 62
     7
  6
CONTINUOUS
  0
LAYER
  2
1
 70
    64
 62
     7
  6
CONTINUOUS
  0
LAYER
  2
2
 70
    64
 62
     7
  6
CONTINUOUS
  0
LAYER
  2
3
 70
    64
 62
     7
  6
CONTINUOUS
  0
LAYER
  2
4
 70
    64
 62
     7
  6
CONTINUOUS
  0
LAYER
  2
5
 70
    64
 62
     7
  6
CONTINUOUS
  0
LAYER
  2
6
 70
    64
 62
     7
  6
CONTINUOUS
  0
LAYER
  2
7
 70
    64
 62
     7
  6
CONTINUOUS
  0
LAYER
  2
8
 70
    64
 62
     7
  6
CONTINUOUS
  0
LAYER
  2
9
 70
    64
 62
     7
  6
CONTINUOUS
  0
LAYER
  2
10
 70
    64
 62
     7
  6
CONTINUOUS
  0
LAYER
  2
11
 70
    64
 62
     7
  6
CONTINUOUS
  0
LAYER
  2
12
 70
    64
 62
     7
  6
CONTINUOUS
  0
LAYER
  2
13
 70
    64
 62
     7
  6
CONTINUOUS
  0
LAYER
  2
14
 70
    64
 62
     7
  6
CONTINUOUS
  0
LAYER
  2
15
 70
    64
 62
     7
  6
CONTINUOUS
  0
LAYER
  2
16
 70
    64
 62
     7
  6
CONTINUOUS
  0
LAYER
  2
17
 70
    64
 62
     7
  6
CONTINUOUS
  0
LAYER
  2
18
 70
    64
 62
     7
  6
CONTINUOUS
  0
LAYER
  2
19
 70
    64
 62
     7
  6
CONTINUOUS
  0
LAYER
  2
20
 70
    64
 62
     7
  6
CONTINUOUS
  0
LAYER
  2
21
 70
    64
 62
     7
  6
CONTINUOUS
  0
LAYER
  2
22
 70
    64
 62
     7
  6
CONTINUOUS
  0
LAYER
  2
23
 70
    64
 62
     7
  6
CONTINUOUS
  0
LAYER
  2
24
 70
    64
 62
     7
  6
CONTINUOUS
  0
LAYER
  2
25
 70
    64
 62
     7
  6
CONTINUOUS
  0
LAYER
  2
26
 70
    64
 62
     7
  6
CONTINUOUS
  0
LAYER
  2
27
 70
    64
 62
     7
  6
CONTINUOUS
  0
LAYER
  2
28
 70
    64
 62
     7
  6
CONTINUOUS
  0
LAYER
  2
29
 70
    64
 62
     7
  6
CONTINUOUS
  0
LAYER
  2
30
 70
    64
 62
     7
  6
CONTINUOUS
  0
LAYER
  2
31
 70
    64
 62
     7
  6
CONTINUOUS
  0
LAYER
  2
32
 70
    64
 62
     7
  6
CONTINUOUS
  0
LAYER
  2
33
 70
    64
 62
     7
  6
CONTINUOUS
  0
LAYER
  2
34
 70
    64
 62
     7
  6
CONTINUOUS
  0
LAYER
  2
35
 70
    64
 62
     7
  6
CONTINUOUS
  0
LAYER
  2
36
 70
    64
 62
     7
  6
CONTINUOUS
  0
LAYER
  2
37
 70
    64
 62
     7
  6
CONTINUOUS
  0
LAYER
  2
38
 70
    64
 62
     7
  6
CONTINUOUS
  0
LAYER
  2
39
 70
    64
 62
     7
  6
CONTINUOUS
  0
LAYER
  2
40
 70
    64
 62
     7
  6
CONTINUOUS
  0
LAYER
  2
41
 70
    64
 62
     7
  6
CONTINUOUS
  0
LAYER
  2
42
 70
    64
 62
     7
  6
CONTINUOUS
  0
LAYER
  2
43
 70
    64
 62
     7
  6
CONTINUOUS
  0
LAYER
  2
44
 70
    64
 62
     7
  6
CONTINUOUS
  0
LAYER
  2
45
 70
    64
 62
     7
  6
CONTINUOUS
  0
LAYER
  2
46
 70
    64
 62
     7
  6
CONTINUOUS
  0
LAYER
  2
47
 70
    64
 62
     7
  6
CONTINUOUS
  0
LAYER
  2
48
 70
    64
 62
     7
  6
CONTINUOUS
  0
LAYER
  2
49
 70
    64
 62
     7
  6
CONTINUOUS
  0
LAYER
  2
50
 70
    64
 62
     7
  6
CONTINUOUS
  0
LAYER
  2
51
 70
    64
 62
     7
  6
CONTINUOUS
  0
LAYER
  2
52
 70
    64
 62
     7
  6
CONTINUOUS
  0
LAYER
  2
53
 70
    64
 62
     7
  6
CONTINUOUS
  0
LAYER
  2
54
 70
    64
 62
     7
  6
CONTINUOUS
  0
LAYER
  2
55
 70
    64
 62
     7
  6
CONTINUOUS
  0
LAYER
  2
56
 70
    64
 62
     7
  6
CONTINUOUS
  0
LAYER
  2
57
 70
    64
 62
     7
  6
CONTINUOUS
  0
LAYER
  2
58
 70
    64
 62
     7
  6
CONTINUOUS
  0
LAYER
  2
59
 70
    64
 62
     7
  6
CONTINUOUS
  0
LAYER
  2
60
 70
    64
 62
     7
  6
CONTINUOUS
  0
LAYER
  2
61
 70
    64
 62
     7
  6
CONTINUOUS
  0
LAYER
  2
62
 70
    64
 62
     7
  6
CONTINUOUS
  0
LAYER
  2
63
 70
    64
 62
     7
  6
CONTINUOUS
  0
LAYER
  2
64
 70
    64
 62
     7
  6
CONTINUOUS
  0
LAYER
  2
65
 70
    64
 62
     7
  6
CONTINUOUS
  0
LAYER
  2
66
 70
    64
 62
     7
  6
CONTINUOUS
  0
LAYER
  2
67
 70
    64
 62
     7
  6
CONTINUOUS
  0
LAYER
  2
68
 70
    64
 62
     7
  6
CONTINUOUS
  0
LAYER
  2
69
 70
    64
 62
     7
  6
CONTINUOUS
  0
LAYER
  2
70
 70
    64
 62
     7
  6
CONTINUOUS
  0
LAYER
  2
71
 70
    64
 62
     7
  6
CONTINUOUS
  0
LAYER
  2
72
 70
    64
 62
     7
  6
CONTINUOUS
  0
LAYER
  2
73
 70
    64
 62
     7
  6
CONTINUOUS
  0
LAYER
  2
74
 70
    64
 62
     7
  6
CONTINUOUS
  0
LAYER
  2
75
 70
    64
 62
     7
  6
CONTINUOUS
  0
LAYER
  2
76
 70
    64
 62
     7
  6
CONTINUOUS
  0
LAYER
  2
77
 70
    64
 62
     7
  6
CONTINUOUS
  0
LAYER
  2
78
 70
    64
 62
     7
  6
CONTINUOUS
  0
LAYER
  2
79
 70
    64
 62
     7
  6
CONTINUOUS
  0
LAYER
  2
80
 70
    64
 62
     7
  6
CONTINUOUS
  0
LAYER
  2
81
 70
    64
 62
     7
  6
CONTINUOUS
  0
LAYER
  2
82
 70
    64
 62
     7
  6
CONTINUOUS
  0
LAYER
  2
83
 70
    64
 62
     7
  6
CONTINUOUS
  0
LAYER
  2
84
 70
    64
 62
     7
  6
CONTINUOUS
  0
LAYER
  2
85
 70
    64
 62
     7
  6
CONTINUOUS
  0
LAYER
  2
86
 70
    64
 62
     7
  6
CONTINUOUS
  0
LAYER
  2
87
 70
    64
 62
     7
  6
CONTINUOUS
  0
LAYER
  2
88
 70
    64
 62
     7
  6
CONTINUOUS
  0
LAYER
  2
89
 70
    64
 62
     7
  6
CONTINUOUS
  0
LAYER
  2
90
 70
    64
 62
     7
  6
CONTINUOUS
  0
LAYER
  2
91
 70
    64
 62
     7
  6
CONTINUOUS
  0
LAYER
  2
92
 70
    64
 62
     7
  6
CONTINUOUS
  0
LAYER
  2
93
 70
    64
 62
     7
  6
CONTINUOUS
  0
LAYER
  2
94
 70
    64
 62
     7
  6
CONTINUOUS
  0
LAYER
  2
95
 70
    64
 62
     7
  6
CONTINUOUS
  0
LAYER
  2
96
 70
    64
 62
     7
  6
CONTINUOUS
  0
LAYER
  2
97
 70
    64
 62
     7
  6
CONTINUOUS
  0
LAYER
  2
98
 70
    64
 62
     7
  6
CONTINUOUS
  0
LAYER
  2
99
 70
    64
 62
     7
  6
CONTINUOUS
  0
LAYER
  2
100
 70
    64
 62
     7
  6
CONTINUOUS
  0
LAYER
  2
101
 70
    64
 62
     7
  6
CONTINUOUS
  0
LAYER
  2
102
 70
    64
 62
     7
  6
CONTINUOUS
  0
LAYER
  2
103
 70
    64
 62
     7
  6
CONTINUOUS
  0
LAYER
  2
104
 70
    64
 62
     7
  6
CONTINUOUS
  0
LAYER
  2
105
 70
    64
 62
     7
  6
CONTINUOUS
  0
LAYER
  2
106
 70
    64
 62
     7
  6
CONTINUOUS
  0
LAYER
  2
107
 70
    64
 62
     7
  6
CONTINUOUS
  0
LAYER
  2
108
 70
    64
 62
     7
  6
CONTINUOUS
  0
LAYER
  2
109
 70
    64
 62
     7
  6
CONTINUOUS
  0
LAYER
  2
110
 70
    64
 62
     7
  6
CONTINUOUS
  0
LAYER
  2
111
 70
    64
 62
     7
  6
CONTINUOUS
  0
LAYER
  2
112
 70
    64
 62
     7
  6
CONTINUOUS
  0
LAYER
  2
113
 70
    64
 62
     7
  6
CONTINUOUS
  0
LAYER
  2
114
 70
    64
 62
     7
  6
CONTINUOUS
  0
LAYER
  2
115
 70
    64
 62
     7
  6
CONTINUOUS
  0
LAYER
  2
116
 70
    64
 62
     7
  6
CONTINUOUS
  0
LAYER
  2
117
 70
    64
 62
     7
  6
CONTINUOUS
  0
LAYER
  2
118
 70
    64
 62
     7
  6
CONTINUOUS
  0
LAYER
  2
119
 70
    64
 62
     7
  6
CONTINUOUS
  0
LAYER
  2
120
 70
    64
 62
     7
  6
CONTINUOUS
  0
LAYER
  2
121
 70
    64
 62
     7
  6
CONTINUOUS
  0
LAYER
  2
122
 70
    64
 62
     7
  6
CONTINUOUS
  0
LAYER
  2
123
 70
    64
 62
     7
  6
CONTINUOUS
  0
LAYER
  2
124
 70
    64
 62
     7
  6
CONTINUOUS
  0
LAYER
  2
125
 70
    64
 62
     7
  6
CONTINUOUS
  0
LAYER
  2
126
 70
    64
 62
     7
  6
CONTINUOUS
  0
LAYER
  2
127
 70
    64
 62
     7
  6
CONTINUOUS
  0
LAYER
  2
128
 70
    64
 62
     7
  6
CONTINUOUS
  0
LAYER
  2
129
 70
    64
 62
     7
  6
CONTINUOUS
  0
LAYER
  2
130
 70
    64
 62
     7
  6
CONTINUOUS
  0
LAYER
  2
131
 70
    64
 62
     7
  6
CONTINUOUS
  0
LAYER
  2
132
 70
    64
 62
     7
  6
CONTINUOUS
  0
LAYER
  2
133
 70
    64
 62
     7
  6
CONTINUOUS
  0
LAYER
  2
134
 70
    64
 62
     7
  6
CONTINUOUS
  0
LAYER
  2
135
 70
    64
 62
     7
  6
CONTINUOUS
  0
LAYER
  2
136
 70
    64
 62
     7
  6
CONTINUOUS
  0
LAYER
  2
137
 70
    64
 62
     7
  6
CONTINUOUS
  0
LAYER
  2
138
 70
    64
 62
     7
  6
CONTINUOUS
  0
LAYER
  2
139
 70
    64
 62
     7
  6
CONTINUOUS
  0
LAYER
  2
140
 70
    64
 62
     7
  6
CONTINUOUS
  0
LAYER
  2
141
 70
    64
 62
     7
  6
CONTINUOUS
  0
LAYER
  2
142
 70
    64
 62
     7
  6
CONTINUOUS
  0
LAYER
  2
143
 70
    64
 62
     7
  6
CONTINUOUS
  0
LAYER
  2
144
 70
    64
 62
     7
  6
CONTINUOUS
  0
LAYER
  2
145
 70
    64
 62
     7
  6
CONTINUOUS
  0
LAYER
  2
146
 70
    64
 62
     7
  6
CONTINUOUS
  0
LAYER
  2
147
 70
    64
 62
     7
  6
CONTINUOUS
  0
LAYER
  2
148
 70
    64
 62
     7
  6
CONTINUOUS
  0
LAYER
  2
149
 70
    64
 62
     7
  6
CONTINUOUS
  0
LAYER
  2
150
 70
    64
 62
     7
  6
CONTINUOUS
  0
LAYER
  2
151
 70
    64
 62
     7
  6
CONTINUOUS
  0
LAYER
  2
152
 70
    64
 62
     7
  6
CONTINUOUS
  0
LAYER
  2
153
 70
    64
 62
     7
  6
CONTINUOUS
  0
LAYER
  2
154
 70
    64
 62
     7
  6
CONTINUOUS
  0
LAYER
  2
155
 70
    64
 62
     7
  6
CONTINUOUS
  0
LAYER
  2
156
 70
    64
 62
     7
  6
CONTINUOUS
  0
LAYER
  2
157
 70
    64
 62
     7
  6
CONTINUOUS
  0
LAYER
  2
158
 70
    64
 62
     7
  6
CONTINUOUS
  0
LAYER
  2
159
 70
    64
 62
     7
  6
CONTINUOUS
  0
LAYER
  2
160
 70
    64
 62
     7
  6
CONTINUOUS
  0
LAYER
  2
161
 70
    64
 62
     7
  6
CONTINUOUS
  0
LAYER
  2
162
 70
    64
 62
     7
  6
CONTINUOUS
  0
LAYER
  2
163
 70
    64
 62
     7
  6
CONTINUOUS
  0
LAYER
  2
164
 70
    64
 62
     7
  6
CONTINUOUS
  0
LAYER
  2
165
 70
    64
 62
     7
  6
CONTINUOUS
  0
LAYER
  2
166
 70
    64
 62
     7
  6
CONTINUOUS
  0
LAYER
  2
167
 70
    64
 62
     7
  6
CONTINUOUS
  0
LAYER
  2
168
 70
    64
 62
     7
  6
CONTINUOUS
  0
LAYER
  2
169
 70
    64
 62
     7
  6
CONTINUOUS
  0
LAYER
  2
170
 70
    64
 62
     7
  6
CONTINUOUS
  0
LAYER
  2
171
 70
    64
 62
     7
  6
CONTINUOUS
  0
LAYER
  2
172
 70
    64
 62
     7
  6
CONTINUOUS
  0
LAYER
  2
173
 70
    64
 62
     7
  6
CONTINUOUS
  0
LAYER
  2
174
 70
    64
 62
     7
  6
CONTINUOUS
  0
LAYER
  2
175
 70
    64
 62
     7
  6
CONTINUOUS
  0
LAYER
  2
176
 70
    64
 62
     7
  6
CONTINUOUS
  0
LAYER
  2
177
 70
    64
 62
     7
  6
CONTINUOUS
  0
LAYER
  2
178
 70
    64
 62
     7
  6
CONTINUOUS
  0
LAYER
  2
179
 70
    64
 62
     7
  6
CONTINUOUS
  0
LAYER
  2
180
 70
    64
 62
     7
  6
CONTINUOUS
  0
LAYER
  2
181
 70
    64
 62
     7
  6
CONTINUOUS
  0
LAYER
  2
182
 70
    64
 62
     7
  6
CONTINUOUS
  0
LAYER
  2
183
 70
    64
 62
     7
  6
CONTINUOUS
  0
LAYER
  2
184
 70
    64
 62
     7
  6
CONTINUOUS
  0
LAYER
  2
185
 70
    64
 62
     7
  6
CONTINUOUS
  0
LAYER
  2
186
 70
    64
 62
     7
  6
CONTINUOUS
  0
LAYER
  2
187
 70
    64
 62
     7
  6
CONTINUOUS
  0
LAYER
  2
188
 70
    64
 62
     7
  6
CONTINUOUS
  0
LAYER
  2
189
 70
    64
 62
     7
  6
CONTINUOUS
  0
LAYER
  2
190
 70
    64
 62
     7
  6
CONTINUOUS
  0
LAYER
  2
191
 70
    64
 62
     7
  6
CONTINUOUS
  0
LAYER
  2
192
 70
    64
 62
     7
  6
CONTINUOUS
  0
LAYER
  2
193
 70
    64
 62
     7
  6
CONTINUOUS
  0
LAYER
  2
194
 70
    64
 62
     7
  6
CONTINUOUS
  0
LAYER
  2
195
 70
    64
 62
     7
  6
CONTINUOUS
  0
LAYER
  2
196
 70
    64
 62
     7
  6
CONTINUOUS
  0
LAYER
  2
197
 70
    64
 62
     7
  6
CONTINUOUS
  0
LAYER
  2
198
 70
    64
 62
     7
  6
CONTINUOUS
  0
LAYER
  2
199
 70
    64
 62
     7
  6
CONTINUOUS
  0
LAYER
  2
200
 70
    64
 62
     7
  6
CONTINUOUS
  0
LAYER
  2
201
 70
    64
 62
     7
  6
CONTINUOUS
  0
LAYER
  2
202
 70
    64
 62
     7
  6
CONTINUOUS
  0
LAYER
  2
203
 70
    64
 62
     7
  6
CONTINUOUS
  0
LAYER
  2
204
 70
    64
 62
     7
  6
CONTINUOUS
  0
LAYER
  2
205
 70
    64
 62
     7
  6
CONTINUOUS
  0
LAYER
  2
206
 70
    64
 62
     7
  6
CONTINUOUS
  0
LAYER
  2
207
 70
    64
 62
     7
  6
CONTINUOUS
  0
LAYER
  2
208
 70
    64
 62
     7
  6
CONTINUOUS
  0
LAYER
  2
209
 70
    64
 62
     7
  6
CONTINUOUS
  0
LAYER
  2
210
 70
    64
 62
     7
  6
CONTINUOUS
  0
LAYER
  2
211
 70
    64
 62
     7
  6
CONTINUOUS
  0
LAYER
  2
212
 70
    64
 62
     7
  6
CONTINUOUS
  0
LAYER
  2
213
 70
    64
 62
     7
  6
CONTINUOUS
  0
LAYER
  2
214
 70
    64
 62
     7
  6
CONTINUOUS
  0
LAYER
  2
215
 70
    64
 62
     7
  6
CONTINUOUS
  0
LAYER
  2
216
 70
    64
 62
     7
  6
CONTINUOUS
  0
LAYER
  2
217
 70
    64
 62
     7
  6
CONTINUOUS
  0
LAYER
  2
218
 70
    64
 62
     7
  6
CONTINUOUS
  0
LAYER
  2
219
 70
    64
 62
     7
  6
CONTINUOUS
  0
LAYER
  2
220
 70
    64
 62
     7
  6
CONTINUOUS
  0
LAYER
  2
221
 70
    64
 62
     7
  6
CONTINUOUS
  0
LAYER
  2
222
 70
    64
 62
     7
  6
CONTINUOUS
  0
LAYER
  2
223
 70
    64
 62
     7
  6
CONTINUOUS
  0
LAYER
  2
224
 70
    64
 62
     7
  6
CONTINUOUS
  0
LAYER
  2
225
 70
    64
 62
     7
  6
CONTINUOUS
  0
LAYER
  2
226
 70
    64
 62
     7
  6
CONTINUOUS
  0
LAYER
  2
227
 70
    64
 62
     7
  6
CONTINUOUS
  0
LAYER
  2
228
 70
    64
 62
     7
  6
CONTINUOUS
  0
LAYER
  2
229
 70
    64
 62
     7
  6
CONTINUOUS
  0
LAYER
  2
230
 70
    64
 62
     7
  6
CONTINUOUS
  0
LAYER
  2
231
 70
    64
 62
     7
  6
CONTINUOUS
  0
LAYER
  2
232
 70
    64
 62
     7
  6
CONTINUOUS
  0
LAYER
  2
233
 70
    64
 62
     7
  6
CONTINUOUS
  0
LAYER
  2
234
 70
    64
 62
     7
  6
CONTINUOUS
  0
LAYER
  2
235
 70
    64
 62
     7
  6
CONTINUOUS
  0
LAYER
  2
236
 70
    64
 62
     7
  6
CONTINUOUS
  0
LAYER
  2
237
 70
    64
 62
     7
  6
CONTINUOUS
  0
LAYER
  2
238
 70
    64
 62
     7
  6
CONTINUOUS
  0
LAYER
  2
239
 70
    64
 62
     7
  6
CONTINUOUS
  0
LAYER
  2
240
 70
    64
 62
     7
  6
CONTINUOUS
  0
LAYER
  2
241
 70
    64
 62
     7
  6
CONTINUOUS
  0
LAYER
  2
242
 70
    64
 62
     7
  6
CONTINUOUS
  0
LAYER
  2
243
 70
    64
 62
     7
  6
CONTINUOUS
  0
LAYER
  2
244
 70
    64
 62
     7
  6
CONTINUOUS
  0
LAYER
  2
245
 70
    64
 62
     7
  6
CONTINUOUS
  0
LAYER
  2
246
 70
    64
 62
     7
  6
CONTINUOUS
  0
LAYER
  2
247
 70
    64
 62
     7
  6
CONTINUOUS
  0
LAYER
  2
248
 70
    64
 62
     7
  6
CONTINUOUS
  0
LAYER
  2
249
 70
    64
 62
     7
  6
CONTINUOUS
  0
LAYER
  2
250
 70
    64
 62
     7
  6
CONTINUOUS
  0
LAYER
  2
251
 70
    64
 62
     7
  6
CONTINUOUS
  0
LAYER
  2
252
 70
    64
 62
     7
  6
CONTINUOUS
  0
LAYER
  2
253
 70
    64
 62
     7
  6
CONTINUOUS
  0
LAYER
  2
254
 70
    64
 62
     7
  6
CONTINUOUS
  0
LAYER
  2
255
 70
    64
 62
     7
  6
CONTINUOUS
  0
ENDTAB
  0
TABLE
  2
STYLE
 70
     2
  0
STYLE
  2
STANDARD
 70
    64
 40
0.0
 41
1.0
 50
0.0
 71
     0
 42
3.000000
  3
TXT
  4
BIGFONT
  0
ENDTAB
  0
ENDSEC
  0
SECTION
  2
ENTITIES
  0
LINE
  8
0
  6
DASHDOT
 62
     7
 10
 0
 20
 52.752628326416009
 11
 0
 21
-52.752628326416016
  0
LINE
  8
0
  6
CONTINUOUS
 62
     2
 10
 2.5
 20
 47.112400054931634
 11
 2.5
 21
-14.887599736452112
  0
LINE
  8
0
  6
CONTINUOUS
 62
     2
 10
 2.5
 20
-14.887599736452112
 11
 1.5
 21
-15.887599170207984
  0
LINE
  8
0
  6
CONTINUOUS
 62
     2
 10
 1.5
 20
-15.887599170207984
 11
-1.5
 21
-15.887599170207984
  0
LINE
  8
0
  6
CONTINUOUS
 62
     2
 10
-1.5
 20
-15.887599170207984
 11
-2.5
 21
-14.887599736452112
  0
LINE
  8
0
  6
CONTINUOUS
 62
     2
 10
-2.5
 20
 47.112400054931634
 11
-2.5
 21
-14.887599736452112
  0
LINE
  8
0
  6
CONTINUOUS
 62
     2
 10
-2.7499923706054687
 20
 49.612400054931634
 11
 2.7499923706054687
 21
 49.612400054931634
  0
LINE
  8
0
  6
CONTINUOUS
 62
     2
 10
 2.7499923706054687
 20
 47.112400054931634
 11
-2.7499923706054687
 21
 47.112400054931634
  0
ARC
  8
0
  6
CONTINUOUS
 62
     2
 10
-2.7499923706054687
 20
 48.362400054931634
 40
 1.25
 50
 90.000004039712721
 51
-90.000000851989171
  0
ARC
  8
0
  6
CONTINUOUS
 62
     2
 10
 2.7499923706054687
 20
 48.362400054931634
 40
 1.25
 50
-90.000000851989171
 51
 89.999997209523428
  0
LINE
  8
0
  6
CONTINUOUS
 62
     2
 10
-2.5
 20
-14.887599736452112
 11
 2.5
 21
-14.887599736452112
  0
LINE
  8
0
  6
DASHDOT
 62
     7
 10
-9.3389053344726562
 20
-42.552114486694336
 11
 9.9560470581054545
 21
-42.552114486694336
  0
CIRCLE
  8
0
  6
CONTINUOUS
 62
     2
 10
 0
 20
-42.552114486694336
 40
 4
  0
CIRCLE
  8
0
  6
CONTINUOUS
 62
     2
 10
 0
 20
-42.552114486694336
 40
 2.5
  0
CIRCLE
  8
0
  6
CONTINUOUS
 62
     2
 10
 0
 20
-42.552114486694336
 40
 1.5
  0
LINE
  8
0
  6
CONTINUOUS
 62
     7
 10
 5.9456024169921875
 20
 47.112400054931634
 11
 15.959991455078125
 21
 47.112400054931634
  0
LINE
  8
0
  6
CONTINUOUS
 62
     7
 10
 14.999999999999986
 20
 47.112400054931634
 11
 14.999999999999986
 21
 49.612400054931634
  0
TEXT
  8
0
  6
CONTINUOUS
 62
     7
 10
 14.040000950496454
 20
 51.212401624521924
 11
 14.040000696970393
 21
 57.012401624521928
 40
 2
 41
 0.8
  1
２．５
 50
 90.000004039712707
 72
  5
  0
LINE
  8
0
  6
CONTINUOUS
 62
     7
 10
 14.999999999999986
 20
 58.612400054931634
 11
 14.999999999999986
 21
 49.612400054931634
  0
LINE
  8
0
  6
CONTINUOUS
 62
     7
 10
 14.999999999999986
 20
 49.612400054931634
 11
 15.776457135307549
 21
 52.510177533798839
  0
LINE
  8
0
  6
CONTINUOUS
 62
     7
 10
 14.999999999999986
 20
 49.612400054931634
 11
 14.223542864692423
 21
 52.510177533798839
  0
LINE
  8
0
  6
CONTINUOUS
 62
     7
 10
-1.5
 20
-18.145118474960327
 11
-1.5
 21
-26.847601890563979
  0
LINE
  8
0
  6
CONTINUOUS
 62
     7
 10
 1.5
 20
-18.145118474960327
 11
 1.5
 21
-26.847601890563979
  0
LINE
  8
0
  6
CONTINUOUS
 62
     7
 10
-5.5247879028320313
 20
-25.887599945068374
 11
-1.5
 21
-25.887599945068374
  0
LINE
  8
0
  6
CONTINUOUS
 62
     7
 10
-1.5
 20
-25.887599945068374
 11
-4.397777478867205
 21
-25.11114280976081
  0
LINE
  8
0
  6
CONTINUOUS
 62
     7
 10
-1.5
 20
-25.887599945068374
 11
-4.397777478867205
 21
-26.664057080375937
  0
LINE
  8
0
  6
CONTINUOUS
 62
     7
 10
-1.5
 20
-25.887599945068374
 11
 1.5
 21
-25.887599945068374
  0
TEXT
  8
0
  6
CONTINUOUS
 62
     7
 10
 3.1000015258789064
 20
-24.927597045898448
 11
 6.8000015258789066
 21
-24.927597045898448
 40
 2
 41
 0.8
  1
φ３
 50
 0
 72
  5
  0
LINE
  8
0
  6
CONTINUOUS
 62
     7
 10
 9.8438720703125
 20
-25.887599945068374
 11
 1.5
 21
-25.887599945068374
  0
LINE
  8
0
  6
CONTINUOUS
 62
     7
 10
 1.5
 20
-25.887599945068374
 11
 4.397777478867205
 21
-26.664057080375937
  0
LINE
  8
0
  6
CONTINUOUS
 62
     7
 10
 1.5
 20
-25.887599945068374
 11
 4.397777478867205
 21
-25.11114280976081
  0
LINE
  8
0
  6
CONTINUOUS
 62
     7
 10
-2.5
 20
-17.135499596595768
 11
-2.5
 21
-31.847606658935547
  0
LINE
  8
0
  6
CONTINUOUS
 62
     7
 10
 2.5
 20
-17.135499596595768
 11
 2.5
 21
-31.847606658935547
  0
LINE
  8
0
  6
CONTINUOUS
 62
     7
 10
-6.5904922485351562
 20
-30.887602806091326
 11
-2.5
 21
-30.887602806091326
  0
LINE
  8
0
  6
CONTINUOUS
 62
     7
 10
-2.5
 20
-30.887602806091326
 11
-5.397777478867205
 21
-30.111145670783763
  0
LINE
  8
0
  6
CONTINUOUS
 62
     7
 10
-2.5
 20
-30.887602806091326
 11
-5.397777478867205
 21
-31.664059941398889
  0
LINE
  8
0
  6
CONTINUOUS
 62
     7
 10
-2.5
 20
-30.887602806091326
 11
 2.5
 21
-30.887602806091326
  0
TEXT
  8
0
  6
CONTINUOUS
 62
     7
 10
 4.2762252807617189
 20
-29.92760086059571
 11
 7.9762252807617182
 21
-29.92760086059571
 40
 2
 41
 0.8
  1
φ５
 50
 0
 72
  5
  0
LINE
  8
0
  6
CONTINUOUS
 62
     7
 10
 11.077850341796875
 20
-30.887602806091326
 11
 2.5
 21
-30.887602806091326
  0
LINE
  8
0
  6
CONTINUOUS
 62
     7
 10
 2.5
 20
-30.887602806091326
 11
 5.397777478867205
 21
-31.664059941398889
  0
LINE
  8
0
  6
CONTINUOUS
 62
     7
 10
 2.5
 20
-30.887602806091326
 11
 5.397777478867205
 21
-30.111145670783763
  0
LINE
  8
0
  6
CONTINUOUS
 62
     7
 10
 4.6274948120117188
 20
-14.887599736452112
 11
 10.95999908447267
 21
-14.887599736452112
  0
LINE
  8
0
  6
CONTINUOUS
 62
     7
 10
 10
 20
-20.676070690155033
 11
 10
 21
-15.887599170207984
  0
LINE
  8
0
  6
CONTINUOUS
 62
     7
 10
 10
 20
-15.887599170207984
 11
 9.2235428646924369
 21
-18.785376649075189
  0
LINE
  8
0
  6
CONTINUOUS
 62
     7
 10
 10
 20
-15.887599170207984
 11
 10.776457135307563
 21
-18.785376649075189
  0
LINE
  8
0
  6
CONTINUOUS
 62
     7
 10
 10
 20
-14.887599736452112
 11
 10
 21
-15.887599170207984
  0
TEXT
  8
0
  6
CONTINUOUS
 62
     7
 10
 9.0400085798909711
 20
-13.287602428593908
 11
 9.0400085099527487
 21
-11.687602428593912
 40
 2
 41
 0.8
  1
１
 50
 90.000004039712707
 72
  5
  0
LINE
  8
0
  6
CONTINUOUS
 62
     7
 10
 10
 20
-10.087598800659183
 11
 10
 21
-14.887599736452112
  0
LINE
  8
0
  6
CONTINUOUS
 62
     7
 10
 10
 20
-14.887599736452112
 11
 10.776457135307563
 21
-11.989822257584906
  0
LINE
  8
0
  6
CONTINUOUS
 62
     7
 10
 10
 20
-14.887599736452112
 11
 9.2235428646924369
 21
-11.989822257584906
  0
LINE
  8
256
  6
CONTINUOUS
 62
     7
 10
-193.30000000000001
 20
 124.99999645625348
 11
-93.300000000000011
 21
 124.99999645625348
  0
LINE
  8
256
  6
CONTINUOUS
 62
     7
 10
-93.300000000000011
 20
 124.9999964562535
 11
-93.300000000000011
 21
 136.99999721136808
  0
TEXT
  8
256
  6
CONTINUOUS
 62
     7
 10
-188.30000000000001
 20
 127.99999604817611
 11
-134.30000000000001
 21
 127.99999604817611
 40
 6
 41
 1
  1
ＬＢ－Ｄ９３１０Ｂ
 50
 0
 72
  5
  0
LINE
  8
256
  6
CONTINUOUS
 62
     7
 10
 104.99998474121094
 20
-121.5
 11
 200
 21
-121.5
  0
LINE
  8
256
  6
CONTINUOUS
 62
     7
 10
 170.99998474121094
 20
-109.5
 11
 170.99998474121094
 21
-121.5
  0
TEXT
  8
256
  6
CONTINUOUS
 62
     7
 10
 112.5
 20
-134.25
 11
 142.5
 21
-134.25
 40
 6
 41
 1
  1
ＡＥ－１Ｐ
 50
 0
 72
  5
  0
TEXT
  8
256
  6
CONTINUOUS
 62
     7
 10
 121.99998474121094
 20
-119.75
 11
 153.99998474121094
 21
-119.75
 40
 5
 41
 0.8
  1
保護板用蝶番ピン
 50
 0
 72
  5
  0
TEXT
  8
256
  6
CONTINUOUS
 62
     7
 10
 106.29998779296875
 20
-112.4499633789062
 11
 111.29998779296875
 21
-112.4499633789062
 40
 2.5
 41
 0.8
  1
品名
 50
 0
 72
  5
  0
TEXT
  8
256
  6
CONTINUOUS
 62
     7
 10
 106.29998779296875
 20
-124.45003051757811
 11
 111.29998779296875
 21
-124.45003051757811
 40
 2.5
 41
 0.8
  1
品番
 50
 0
 72
  5
  0
LINE
  8
256
  6
CONTINUOUS
 62
     7
 10
 104.99998474121094
 20
-139.5
 11
 104.99998474121094
 21
-109.5
  0
LINE
  8
256
  6
CONTINUOUS
 62
     7
 10
 104.99998474121094
 20
-109.5
 11
 200
 21
-109.5
  0
LINE
  8
256
  6
CONTINUOUS
 62
     7
 10
-193.30000000000001
 20
 136.99999721136808
 11
-193.30000000000001
 21
-139.49999999999994
  0
LINE
  8
256
  6
CONTINUOUS
 62
     7
 10
-193.30000000000001
 20
 136.99999721136808
 11
 200
 21
 136.99999721136808
  0
LINE
  8
256
  6
CONTINUOUS
 62
     7
 10
 200
 20
-139.5
 11
-193.30000000000001
 21
-139.49999999999994
  0
LINE
  8
256
  6
CONTINUOUS
 62
     7
 10
 200
 20
 136.99999721136808
 11
 200
 21
-139.5
  0
LINE
  8
0
  6
CONTINUOUS
 62
     7
 10
 4.6274948120117188
 20
-15.887599170207984
 11
 20.959991455078125
 21
-15.887599170207984
  0
LINE
  8
0
  6
CONTINUOUS
 62
     7
 10
 5.9456024169921875
 20
 49.612400054931634
 11
 20.959991455078125
 21
 49.612400054931634
  0
LINE
  8
0
  6
CONTINUOUS
 62
     7
 10
 19.999992370605469
 20
-15.887599170207984
 11
 19.999992370605469
 21
 49.612400054931634
  0
LINE
  8
0
  6
CONTINUOUS
 62
     7
 10
 19.999992370605469
 20
-15.887599170207984
 11
 20.776449505913032
 21
-12.989821691340779
  0
LINE
  8
0
  6
CONTINUOUS
 62
     7
 10
 19.999992370605469
 20
-15.887599170207984
 11
 19.223535235297906
 21
-12.989821691340779
  0
LINE
  8
0
  6
CONTINUOUS
 62
     7
 10
 19.999992370605469
 20
 49.612400054931634
 11
 19.223535235297906
 21
 46.714622576064428
  0
LINE
  8
0
  6
CONTINUOUS
 62
     7
 10
 19.999992370605469
 20
 49.612400054931634
 11
 20.776449505913032
 21
 46.714622576064428
  0
TEXT
  8
0
  6
CONTINUOUS
 62
     7
 10
 19.040000950496452
 20
 12.912400480112751
 11
 19.040000605176477
 21
 20.812400480112743
 40
 2
 41
 0.8
  1
65.5
 50
 90.000004039712707
 72
  5
  0
LINE
  8
0
  6
CONTINUOUS
 62
     7
 10
 14.999999999999986
 20
 47.112400054931634
 11
 14.999999999999986
 21
-15.887599170207984
  0
LINE
  8
0
  6
CONTINUOUS
 62
     7
 10
 14.999999999999986
 20
 47.112400054931634
 11
 14.223542864692423
 21
 44.214622576064428
  0
LINE
  8
0
  6
CONTINUOUS
 62
     7
 10
 14.999999999999986
 20
 47.112400054931634
 11
 15.776457135307549
 21
 44.214622576064428
  0
LINE
  8
0
  6
CONTINUOUS
 62
     7
 10
 14.999999999999986
 20
-15.887599170207984
 11
 15.776457135307549
 21
-12.989821691340779
  0
LINE
  8
0
  6
CONTINUOUS
 62
     7
 10
 14.999999999999986
 20
-15.887599170207984
 11
 14.223542864692423
 21
-12.989821691340779
  0
TEXT
  8
0
  6
CONTINUOUS
 62
     7
 10
 14.040000950496454
 20
 13.762400861582478
 11
 14.040000788764312
 21
 17.462400861582474
 40
 2
 41
 0.8
  1
63
 50
 90.000004039712707
 72
  5
  0
LINE
  8
0
  6
CONTINUOUS
 62
     7
 10
-4
 20
 51.238193511962884
 11
-4
 21
 60.57239913940429
  0
LINE
  8
0
  6
CONTINUOUS
 62
     7
 10
 4
 20
 51.238193511962884
 11
 4
 21
 60.57239913940429
  0
LINE
  8
0
  6
CONTINUOUS
 62
     7
 10
-4
 20
 59.612400054931634
 11
 4
 21
 59.612400054931634
  0
LINE
  8
0
  6
CONTINUOUS
 62
     7
 10
-4
 20
 59.612400054931634
 11
-1.102222521132795
 21
 58.835942919624074
  0
LINE
  8
0
  6
CONTINUOUS
 62
     7
 10
-4
 20
 59.612400054931634
 11
-1.102222521132795
 21
 60.388857190239193
  0
LINE
  8
0
  6
CONTINUOUS
 62
     7
 10
 4
 20
 59.612400054931634
 11
 1.102222521132795
 21
 60.388857190239193
  0
LINE
  8
0
  6
CONTINUOUS
 62
     7
 10
 4
 20
 59.612400054931634
 11
 1.102222521132795
 21
 58.835942919624074
  0
TEXT
  8
0
  6
CONTINUOUS
 62
     7
 10
-0.8
 20
 60.57239913940429
 11
 0.8
 21
 60.57239913940429
 40
 2
 41
 0.8
  1
8
 50
 0
 72
  5
  0
ENDSEC
  0
EOF
