  0
SECTION
  2
HEADER
  9
$INSBASE
 10
0.0
20
0.0
  9
$REGENMODE
 70
     1
  9
$DRAGMODE
 70
     1
  9
$DIMTAD
 70
     1
  9
$EXTMIN
 10
-210.000000
 20
-148.500000
 30
 0.0
  9
$EXTMAX
 10
210.000000
 20
148.500000
 30
 0.0
  9
$LUPREC
 70
    3
  9
$AUPREC
 70
    3
  9
$LTSCALE
 40
26.250000
  0
ENDSEC
  0
SECTION
  2
TABLES
  0
TABLE
  2
LTYPE
 70
     6
  0
LTYPE
  2
CONTINUOUS
 70
    64
  3
SOLID
 72
    65
 73
     0
 40
0.0
  0
LTYPE
  2
DASHED2
 70
    64
  3
_ _ _ _ _ _ _ _ _ _ _ _ _ _ _ _ _ _ _ _ _ _ 
 72
    65
 73
     2
 40
0.5
 49
0.25
 49
-0.25
  0
LTYPE
  2
DASHED
 70
    64
  3
__ __ __ __ __ __ __ __ __ __ __ __ __ __ __
 72
    65
 73
     2
 40
0.75
 49
0.5
 49
-0.25
  0
LTYPE
  2
DASHEDX2
 70
    64
  3
____  ____  ____  ____  ____  ____  ____  __
 72
    65
 73
     2
 40
1.5
 49
1.0
 49
-0.5
  0
LTYPE
  2
DOT
 70
    64
  3
............................................
 72
    65
 73
     2
 40
0.25
 49
0
 49
-0.25
  0
LTYPE
  2
DASHDOT
 70
    64
  3
__ . __ . __ . __ . __ . __ . __ . __ . __ .
 72
    65
 73
     4
 40
1.0
 49
0.5
 49
-0.25
 49
0.0
 49
-0.25
  0
LTYPE
  2
CENTER
 70
    64
  3
____ _ ____ _ ____ _ ____ _ ____ _ ____ _ __
 72
    65
 73
     4
 40
2.0
 49
1.25
 49
-0.25
 49
0.25
 49
-0.25
  0
LTYPE
  2
DIVIDE
 70
    64
  3
__ . . __ . . __ . . __ . . __ . . __ . . __
 72
    65
 73
     6
 40
1.25
 49
0.5
 49
-0.25
 49
0.0
 49
-0.25
 49
0.0
 49
-0.25
  0
LTYPE
  2
PHANTOM2
 70
    64
  3
___ _ _ ___ _ _ ___ _ _ ___ _ _ ___ _ _ ___ 
 72
    65
 73
     6
 40
1.25
 49
0.625
 49
-0.125
 49
0.125
 49
-0.125
 49
0.125
 49
-0.125
  0
LTYPE
  2
DOTX2
 70
    64
  3
. . . . . . . . . . . . . . . . . . . . . . 
 72
    65
 73
     2
 40
0.5
 49
0
 49
-0.5
  0
ENDTAB
  0
TABLE
  2
LAYER
 70
   255
  0
LAYER
  2
0
 70
    64
 62
     7
  6
CONTINUOUS
  0
LAYER
  2
1
 70
    64
 62
     7
  6
CONTINUOUS
  0
LAYER
  2
2
 70
    64
 62
     7
  6
CONTINUOUS
  0
LAYER
  2
3
 70
    64
 62
     7
  6
CONTINUOUS
  0
LAYER
  2
4
 70
    64
 62
     7
  6
CONTINUOUS
  0
LAYER
  2
5
 70
    64
 62
     7
  6
CONTINUOUS
  0
LAYER
  2
6
 70
    64
 62
     7
  6
CONTINUOUS
  0
LAYER
  2
7
 70
    64
 62
     7
  6
CONTINUOUS
  0
LAYER
  2
8
 70
    64
 62
     7
  6
CONTINUOUS
  0
LAYER
  2
9
 70
    64
 62
     7
  6
CONTINUOUS
  0
LAYER
  2
10
 70
    64
 62
     7
  6
CONTINUOUS
  0
LAYER
  2
11
 70
    64
 62
     7
  6
CONTINUOUS
  0
LAYER
  2
12
 70
    64
 62
     7
  6
CONTINUOUS
  0
LAYER
  2
13
 70
    64
 62
     7
  6
CONTINUOUS
  0
LAYER
  2
14
 70
    64
 62
     7
  6
CONTINUOUS
  0
LAYER
  2
15
 70
    64
 62
     7
  6
CONTINUOUS
  0
LAYER
  2
16
 70
    64
 62
     7
  6
CONTINUOUS
  0
LAYER
  2
17
 70
    64
 62
     7
  6
CONTINUOUS
  0
LAYER
  2
18
 70
    64
 62
     7
  6
CONTINUOUS
  0
LAYER
  2
19
 70
    64
 62
     7
  6
CONTINUOUS
  0
LAYER
  2
20
 70
    64
 62
     7
  6
CONTINUOUS
  0
LAYER
  2
21
 70
    64
 62
     7
  6
CONTINUOUS
  0
LAYER
  2
22
 70
    64
 62
     7
  6
CONTINUOUS
  0
LAYER
  2
23
 70
    64
 62
     7
  6
CONTINUOUS
  0
LAYER
  2
24
 70
    64
 62
     7
  6
CONTINUOUS
  0
LAYER
  2
25
 70
    64
 62
     7
  6
CONTINUOUS
  0
LAYER
  2
26
 70
    64
 62
     7
  6
CONTINUOUS
  0
LAYER
  2
27
 70
    64
 62
     7
  6
CONTINUOUS
  0
LAYER
  2
28
 70
    64
 62
     7
  6
CONTINUOUS
  0
LAYER
  2
29
 70
    64
 62
     7
  6
CONTINUOUS
  0
LAYER
  2
30
 70
    64
 62
     7
  6
CONTINUOUS
  0
LAYER
  2
31
 70
    64
 62
     7
  6
CONTINUOUS
  0
LAYER
  2
32
 70
    64
 62
     7
  6
CONTINUOUS
  0
LAYER
  2
33
 70
    64
 62
     7
  6
CONTINUOUS
  0
LAYER
  2
34
 70
    64
 62
     7
  6
CONTINUOUS
  0
LAYER
  2
35
 70
    64
 62
     7
  6
CONTINUOUS
  0
LAYER
  2
36
 70
    64
 62
     7
  6
CONTINUOUS
  0
LAYER
  2
37
 70
    64
 62
     7
  6
CONTINUOUS
  0
LAYER
  2
38
 70
    64
 62
     7
  6
CONTINUOUS
  0
LAYER
  2
39
 70
    64
 62
     7
  6
CONTINUOUS
  0
LAYER
  2
40
 70
    64
 62
     7
  6
CONTINUOUS
  0
LAYER
  2
41
 70
    64
 62
     7
  6
CONTINUOUS
  0
LAYER
  2
42
 70
    64
 62
     7
  6
CONTINUOUS
  0
LAYER
  2
43
 70
    64
 62
     7
  6
CONTINUOUS
  0
LAYER
  2
44
 70
    64
 62
     7
  6
CONTINUOUS
  0
LAYER
  2
45
 70
    64
 62
     7
  6
CONTINUOUS
  0
LAYER
  2
46
 70
    64
 62
     7
  6
CONTINUOUS
  0
LAYER
  2
47
 70
    64
 62
     7
  6
CONTINUOUS
  0
LAYER
  2
48
 70
    64
 62
     7
  6
CONTINUOUS
  0
LAYER
  2
49
 70
    64
 62
     7
  6
CONTINUOUS
  0
LAYER
  2
50
 70
    64
 62
     7
  6
CONTINUOUS
  0
LAYER
  2
51
 70
    64
 62
     7
  6
CONTINUOUS
  0
LAYER
  2
52
 70
    64
 62
     7
  6
CONTINUOUS
  0
LAYER
  2
53
 70
    64
 62
     7
  6
CONTINUOUS
  0
LAYER
  2
54
 70
    64
 62
     7
  6
CONTINUOUS
  0
LAYER
  2
55
 70
    64
 62
     7
  6
CONTINUOUS
  0
LAYER
  2
56
 70
    64
 62
     7
  6
CONTINUOUS
  0
LAYER
  2
57
 70
    64
 62
     7
  6
CONTINUOUS
  0
LAYER
  2
58
 70
    64
 62
     7
  6
CONTINUOUS
  0
LAYER
  2
59
 70
    64
 62
     7
  6
CONTINUOUS
  0
LAYER
  2
60
 70
    64
 62
     7
  6
CONTINUOUS
  0
LAYER
  2
61
 70
    64
 62
     7
  6
CONTINUOUS
  0
LAYER
  2
62
 70
    64
 62
     7
  6
CONTINUOUS
  0
LAYER
  2
63
 70
    64
 62
     7
  6
CONTINUOUS
  0
LAYER
  2
64
 70
    64
 62
     7
  6
CONTINUOUS
  0
LAYER
  2
65
 70
    64
 62
     7
  6
CONTINUOUS
  0
LAYER
  2
66
 70
    64
 62
     7
  6
CONTINUOUS
  0
LAYER
  2
67
 70
    64
 62
     7
  6
CONTINUOUS
  0
LAYER
  2
68
 70
    64
 62
     7
  6
CONTINUOUS
  0
LAYER
  2
69
 70
    64
 62
     7
  6
CONTINUOUS
  0
LAYER
  2
70
 70
    64
 62
     7
  6
CONTINUOUS
  0
LAYER
  2
71
 70
    64
 62
     7
  6
CONTINUOUS
  0
LAYER
  2
72
 70
    64
 62
     7
  6
CONTINUOUS
  0
LAYER
  2
73
 70
    64
 62
     7
  6
CONTINUOUS
  0
LAYER
  2
74
 70
    64
 62
     7
  6
CONTINUOUS
  0
LAYER
  2
75
 70
    64
 62
     7
  6
CONTINUOUS
  0
LAYER
  2
76
 70
    64
 62
     7
  6
CONTINUOUS
  0
LAYER
  2
77
 70
    64
 62
     7
  6
CONTINUOUS
  0
LAYER
  2
78
 70
    64
 62
     7
  6
CONTINUOUS
  0
LAYER
  2
79
 70
    64
 62
     7
  6
CONTINUOUS
  0
LAYER
  2
80
 70
    64
 62
     7
  6
CONTINUOUS
  0
LAYER
  2
81
 70
    64
 62
     7
  6
CONTINUOUS
  0
LAYER
  2
82
 70
    64
 62
     7
  6
CONTINUOUS
  0
LAYER
  2
83
 70
    64
 62
     7
  6
CONTINUOUS
  0
LAYER
  2
84
 70
    64
 62
     7
  6
CONTINUOUS
  0
LAYER
  2
85
 70
    64
 62
     7
  6
CONTINUOUS
  0
LAYER
  2
86
 70
    64
 62
     7
  6
CONTINUOUS
  0
LAYER
  2
87
 70
    64
 62
     7
  6
CONTINUOUS
  0
LAYER
  2
88
 70
    64
 62
     7
  6
CONTINUOUS
  0
LAYER
  2
89
 70
    64
 62
     7
  6
CONTINUOUS
  0
LAYER
  2
90
 70
    64
 62
     7
  6
CONTINUOUS
  0
LAYER
  2
91
 70
    64
 62
     7
  6
CONTINUOUS
  0
LAYER
  2
92
 70
    64
 62
     7
  6
CONTINUOUS
  0
LAYER
  2
93
 70
    64
 62
     7
  6
CONTINUOUS
  0
LAYER
  2
94
 70
    64
 62
     7
  6
CONTINUOUS
  0
LAYER
  2
95
 70
    64
 62
     7
  6
CONTINUOUS
  0
LAYER
  2
96
 70
    64
 62
     7
  6
CONTINUOUS
  0
LAYER
  2
97
 70
    64
 62
     7
  6
CONTINUOUS
  0
LAYER
  2
98
 70
    64
 62
     7
  6
CONTINUOUS
  0
LAYER
  2
99
 70
    64
 62
     7
  6
CONTINUOUS
  0
LAYER
  2
100
 70
    64
 62
     7
  6
CONTINUOUS
  0
LAYER
  2
101
 70
    64
 62
     7
  6
CONTINUOUS
  0
LAYER
  2
102
 70
    64
 62
     7
  6
CONTINUOUS
  0
LAYER
  2
103
 70
    64
 62
     7
  6
CONTINUOUS
  0
LAYER
  2
104
 70
    64
 62
     7
  6
CONTINUOUS
  0
LAYER
  2
105
 70
    64
 62
     7
  6
CONTINUOUS
  0
LAYER
  2
106
 70
    64
 62
     7
  6
CONTINUOUS
  0
LAYER
  2
107
 70
    64
 62
     7
  6
CONTINUOUS
  0
LAYER
  2
108
 70
    64
 62
     7
  6
CONTINUOUS
  0
LAYER
  2
109
 70
    64
 62
     7
  6
CONTINUOUS
  0
LAYER
  2
110
 70
    64
 62
     7
  6
CONTINUOUS
  0
LAYER
  2
111
 70
    64
 62
     7
  6
CONTINUOUS
  0
LAYER
  2
112
 70
    64
 62
     7
  6
CONTINUOUS
  0
LAYER
  2
113
 70
    64
 62
     7
  6
CONTINUOUS
  0
LAYER
  2
114
 70
    64
 62
     7
  6
CONTINUOUS
  0
LAYER
  2
115
 70
    64
 62
     7
  6
CONTINUOUS
  0
LAYER
  2
116
 70
    64
 62
     7
  6
CONTINUOUS
  0
LAYER
  2
117
 70
    64
 62
     7
  6
CONTINUOUS
  0
LAYER
  2
118
 70
    64
 62
     7
  6
CONTINUOUS
  0
LAYER
  2
119
 70
    64
 62
     7
  6
CONTINUOUS
  0
LAYER
  2
120
 70
    64
 62
     7
  6
CONTINUOUS
  0
LAYER
  2
121
 70
    64
 62
     7
  6
CONTINUOUS
  0
LAYER
  2
122
 70
    64
 62
     7
  6
CONTINUOUS
  0
LAYER
  2
123
 70
    64
 62
     7
  6
CONTINUOUS
  0
LAYER
  2
124
 70
    64
 62
     7
  6
CONTINUOUS
  0
LAYER
  2
125
 70
    64
 62
     7
  6
CONTINUOUS
  0
LAYER
  2
126
 70
    64
 62
     7
  6
CONTINUOUS
  0
LAYER
  2
127
 70
    64
 62
     7
  6
CONTINUOUS
  0
LAYER
  2
128
 70
    64
 62
     7
  6
CONTINUOUS
  0
LAYER
  2
129
 70
    64
 62
     7
  6
CONTINUOUS
  0
LAYER
  2
130
 70
    64
 62
     7
  6
CONTINUOUS
  0
LAYER
  2
131
 70
    64
 62
     7
  6
CONTINUOUS
  0
LAYER
  2
132
 70
    64
 62
     7
  6
CONTINUOUS
  0
LAYER
  2
133
 70
    64
 62
     7
  6
CONTINUOUS
  0
LAYER
  2
134
 70
    64
 62
     7
  6
CONTINUOUS
  0
LAYER
  2
135
 70
    64
 62
     7
  6
CONTINUOUS
  0
LAYER
  2
136
 70
    64
 62
     7
  6
CONTINUOUS
  0
LAYER
  2
137
 70
    64
 62
     7
  6
CONTINUOUS
  0
LAYER
  2
138
 70
    64
 62
     7
  6
CONTINUOUS
  0
LAYER
  2
139
 70
    64
 62
     7
  6
CONTINUOUS
  0
LAYER
  2
140
 70
    64
 62
     7
  6
CONTINUOUS
  0
LAYER
  2
141
 70
    64
 62
     7
  6
CONTINUOUS
  0
LAYER
  2
142
 70
    64
 62
     7
  6
CONTINUOUS
  0
LAYER
  2
143
 70
    64
 62
     7
  6
CONTINUOUS
  0
LAYER
  2
144
 70
    64
 62
     7
  6
CONTINUOUS
  0
LAYER
  2
145
 70
    64
 62
     7
  6
CONTINUOUS
  0
LAYER
  2
146
 70
    64
 62
     7
  6
CONTINUOUS
  0
LAYER
  2
147
 70
    64
 62
     7
  6
CONTINUOUS
  0
LAYER
  2
148
 70
    64
 62
     7
  6
CONTINUOUS
  0
LAYER
  2
149
 70
    64
 62
     7
  6
CONTINUOUS
  0
LAYER
  2
150
 70
    64
 62
     7
  6
CONTINUOUS
  0
LAYER
  2
151
 70
    64
 62
     7
  6
CONTINUOUS
  0
LAYER
  2
152
 70
    64
 62
     7
  6
CONTINUOUS
  0
LAYER
  2
153
 70
    64
 62
     7
  6
CONTINUOUS
  0
LAYER
  2
154
 70
    64
 62
     7
  6
CONTINUOUS
  0
LAYER
  2
155
 70
    64
 62
     7
  6
CONTINUOUS
  0
LAYER
  2
156
 70
    64
 62
     7
  6
CONTINUOUS
  0
LAYER
  2
157
 70
    64
 62
     7
  6
CONTINUOUS
  0
LAYER
  2
158
 70
    64
 62
     7
  6
CONTINUOUS
  0
LAYER
  2
159
 70
    64
 62
     7
  6
CONTINUOUS
  0
LAYER
  2
160
 70
    64
 62
     7
  6
CONTINUOUS
  0
LAYER
  2
161
 70
    64
 62
     7
  6
CONTINUOUS
  0
LAYER
  2
162
 70
    64
 62
     7
  6
CONTINUOUS
  0
LAYER
  2
163
 70
    64
 62
     7
  6
CONTINUOUS
  0
LAYER
  2
164
 70
    64
 62
     7
  6
CONTINUOUS
  0
LAYER
  2
165
 70
    64
 62
     7
  6
CONTINUOUS
  0
LAYER
  2
166
 70
    64
 62
     7
  6
CONTINUOUS
  0
LAYER
  2
167
 70
    64
 62
     7
  6
CONTINUOUS
  0
LAYER
  2
168
 70
    64
 62
     7
  6
CONTINUOUS
  0
LAYER
  2
169
 70
    64
 62
     7
  6
CONTINUOUS
  0
LAYER
  2
170
 70
    64
 62
     7
  6
CONTINUOUS
  0
LAYER
  2
171
 70
    64
 62
     7
  6
CONTINUOUS
  0
LAYER
  2
172
 70
    64
 62
     7
  6
CONTINUOUS
  0
LAYER
  2
173
 70
    64
 62
     7
  6
CONTINUOUS
  0
LAYER
  2
174
 70
    64
 62
     7
  6
CONTINUOUS
  0
LAYER
  2
175
 70
    64
 62
     7
  6
CONTINUOUS
  0
LAYER
  2
176
 70
    64
 62
     7
  6
CONTINUOUS
  0
LAYER
  2
177
 70
    64
 62
     7
  6
CONTINUOUS
  0
LAYER
  2
178
 70
    64
 62
     7
  6
CONTINUOUS
  0
LAYER
  2
179
 70
    64
 62
     7
  6
CONTINUOUS
  0
LAYER
  2
180
 70
    64
 62
     7
  6
CONTINUOUS
  0
LAYER
  2
181
 70
    64
 62
     7
  6
CONTINUOUS
  0
LAYER
  2
182
 70
    64
 62
     7
  6
CONTINUOUS
  0
LAYER
  2
183
 70
    64
 62
     7
  6
CONTINUOUS
  0
LAYER
  2
184
 70
    64
 62
     7
  6
CONTINUOUS
  0
LAYER
  2
185
 70
    64
 62
     7
  6
CONTINUOUS
  0
LAYER
  2
186
 70
    64
 62
     7
  6
CONTINUOUS
  0
LAYER
  2
187
 70
    64
 62
     7
  6
CONTINUOUS
  0
LAYER
  2
188
 70
    64
 62
     7
  6
CONTINUOUS
  0
LAYER
  2
189
 70
    64
 62
     7
  6
CONTINUOUS
  0
LAYER
  2
190
 70
    64
 62
     7
  6
CONTINUOUS
  0
LAYER
  2
191
 70
    64
 62
     7
  6
CONTINUOUS
  0
LAYER
  2
192
 70
    64
 62
     7
  6
CONTINUOUS
  0
LAYER
  2
193
 70
    64
 62
     7
  6
CONTINUOUS
  0
LAYER
  2
194
 70
    64
 62
     7
  6
CONTINUOUS
  0
LAYER
  2
195
 70
    64
 62
     7
  6
CONTINUOUS
  0
LAYER
  2
196
 70
    64
 62
     7
  6
CONTINUOUS
  0
LAYER
  2
197
 70
    64
 62
     7
  6
CONTINUOUS
  0
LAYER
  2
198
 70
    64
 62
     7
  6
CONTINUOUS
  0
LAYER
  2
199
 70
    64
 62
     7
  6
CONTINUOUS
  0
LAYER
  2
200
 70
    64
 62
     7
  6
CONTINUOUS
  0
LAYER
  2
201
 70
    64
 62
     7
  6
CONTINUOUS
  0
LAYER
  2
202
 70
    64
 62
     7
  6
CONTINUOUS
  0
LAYER
  2
203
 70
    64
 62
     7
  6
CONTINUOUS
  0
LAYER
  2
204
 70
    64
 62
     7
  6
CONTINUOUS
  0
LAYER
  2
205
 70
    64
 62
     7
  6
CONTINUOUS
  0
LAYER
  2
206
 70
    64
 62
     7
  6
CONTINUOUS
  0
LAYER
  2
207
 70
    64
 62
     7
  6
CONTINUOUS
  0
LAYER
  2
208
 70
    64
 62
     7
  6
CONTINUOUS
  0
LAYER
  2
209
 70
    64
 62
     7
  6
CONTINUOUS
  0
LAYER
  2
210
 70
    64
 62
     7
  6
CONTINUOUS
  0
LAYER
  2
211
 70
    64
 62
     7
  6
CONTINUOUS
  0
LAYER
  2
212
 70
    64
 62
     7
  6
CONTINUOUS
  0
LAYER
  2
213
 70
    64
 62
     7
  6
CONTINUOUS
  0
LAYER
  2
214
 70
    64
 62
     7
  6
CONTINUOUS
  0
LAYER
  2
215
 70
    64
 62
     7
  6
CONTINUOUS
  0
LAYER
  2
216
 70
    64
 62
     7
  6
CONTINUOUS
  0
LAYER
  2
217
 70
    64
 62
     7
  6
CONTINUOUS
  0
LAYER
  2
218
 70
    64
 62
     7
  6
CONTINUOUS
  0
LAYER
  2
219
 70
    64
 62
     7
  6
CONTINUOUS
  0
LAYER
  2
220
 70
    64
 62
     7
  6
CONTINUOUS
  0
LAYER
  2
221
 70
    64
 62
     7
  6
CONTINUOUS
  0
LAYER
  2
222
 70
    64
 62
     7
  6
CONTINUOUS
  0
LAYER
  2
223
 70
    64
 62
     7
  6
CONTINUOUS
  0
LAYER
  2
224
 70
    64
 62
     7
  6
CONTINUOUS
  0
LAYER
  2
225
 70
    64
 62
     7
  6
CONTINUOUS
  0
LAYER
  2
226
 70
    64
 62
     7
  6
CONTINUOUS
  0
LAYER
  2
227
 70
    64
 62
     7
  6
CONTINUOUS
  0
LAYER
  2
228
 70
    64
 62
     7
  6
CONTINUOUS
  0
LAYER
  2
229
 70
    64
 62
     7
  6
CONTINUOUS
  0
LAYER
  2
230
 70
    64
 62
     7
  6
CONTINUOUS
  0
LAYER
  2
231
 70
    64
 62
     7
  6
CONTINUOUS
  0
LAYER
  2
232
 70
    64
 62
     7
  6
CONTINUOUS
  0
LAYER
  2
233
 70
    64
 62
     7
  6
CONTINUOUS
  0
LAYER
  2
234
 70
    64
 62
     7
  6
CONTINUOUS
  0
LAYER
  2
235
 70
    64
 62
     7
  6
CONTINUOUS
  0
LAYER
  2
236
 70
    64
 62
     7
  6
CONTINUOUS
  0
LAYER
  2
237
 70
    64
 62
     7
  6
CONTINUOUS
  0
LAYER
  2
238
 70
    64
 62
     7
  6
CONTINUOUS
  0
LAYER
  2
239
 70
    64
 62
     7
  6
CONTINUOUS
  0
LAYER
  2
240
 70
    64
 62
     7
  6
CONTINUOUS
  0
LAYER
  2
241
 70
    64
 62
     7
  6
CONTINUOUS
  0
LAYER
  2
242
 70
    64
 62
     7
  6
CONTINUOUS
  0
LAYER
  2
243
 70
    64
 62
     7
  6
CONTINUOUS
  0
LAYER
  2
244
 70
    64
 62
     7
  6
CONTINUOUS
  0
LAYER
  2
245
 70
    64
 62
     7
  6
CONTINUOUS
  0
LAYER
  2
246
 70
    64
 62
     7
  6
CONTINUOUS
  0
LAYER
  2
247
 70
    64
 62
     7
  6
CONTINUOUS
  0
LAYER
  2
248
 70
    64
 62
     7
  6
CONTINUOUS
  0
LAYER
  2
249
 70
    64
 62
     7
  6
CONTINUOUS
  0
LAYER
  2
250
 70
    64
 62
     7
  6
CONTINUOUS
  0
LAYER
  2
251
 70
    64
 62
     7
  6
CONTINUOUS
  0
LAYER
  2
252
 70
    64
 62
     7
  6
CONTINUOUS
  0
LAYER
  2
253
 70
    64
 62
     7
  6
CONTINUOUS
  0
LAYER
  2
254
 70
    64
 62
     7
  6
CONTINUOUS
  0
LAYER
  2
255
 70
    64
 62
     7
  6
CONTINUOUS
  0
ENDTAB
  0
TABLE
  2
STYLE
 70
     2
  0
STYLE
  2
STANDARD
 70
    64
 40
0.0
 41
1.0
 50
0.0
 71
     0
 42
3.000000
  3
TXT
  4
BIGFONT
  0
ENDTAB
  0
ENDSEC
  0
SECTION
  2
ENTITIES
  0
LINE
  8
99
  6
CONTINUOUS
 62
     3
 10
-1.79998779296875
 20
-85.399996019899845
 11
 25.000028610229492
 21
-85.399996019899845
  0
ARC
  8
99
  6
CONTINUOUS
 62
     3
 10
-1.79998779296875
 20
-83.80000326782465
 40
 1.6000000238418579
 50
-179.9999980615126
 51
-90.000000851989171
  0
LINE
  8
99
  6
CONTINUOUS
 62
     3
 10
 25.000028610229492
 20
-85.399996019899845
 11
 25.000028610229492
 21
-86.999996401369572
  0
LINE
  8
99
  6
CONTINUOUS
 62
     3
 10
 25.000028610229492
 20
-86.999996401369572
 11
-1.79998779296875
 21
-86.999996401369572
  0
ARC
  8
99
  6
CONTINUOUS
 62
     3
 10
-1.79998779296875
 20
-83.80000326782465
 40
 3.2000000476837158
 50
-179.9999980615126
 51
-90.000000851989171
  0
LINE
  8
99
  6
CONTINUOUS
 62
     3
 10
-3.399993896484375
 20
-33.19999644905328
 11
-3.399993896484375
 21
-83.80000326782465
  0
ARC
  8
99
  6
CONTINUOUS
 62
     3
 10
-6.5999879837036151
 20
-33.19999644905328
 40
 3.2000000476837158
 50
 0
 51
 90.000004039712721
  0
LINE
  8
99
  6
CONTINUOUS
 62
     3
 10
-24.972793579101563
 20
-29.999995708465576
 11
-6.5999879837036151
 21
-29.999995708465576
  0
LINE
  8
99
  6
CONTINUOUS
 62
     3
 10
-6.5999879837036151
 20
-31.599996089935299
 11
-25
 21
-31.599996089935299
  0
LINE
  8
99
  6
CONTINUOUS
 62
     3
 10
-25
 20
-31.599996089935299
 11
-25
 21
-29.999995708465576
  0
LINE
  8
99
  6
CONTINUOUS
 62
     3
 10
-4.9999847412109375
 20
-33.19999644905328
 11
-4.9999847412109375
 21
-83.80000326782465
  0
ARC
  8
99
  6
CONTINUOUS
 62
     3
 10
-6.5999879837036151
 20
-33.19999644905328
 40
 1.6000000238418579
 50
 0
 51
 90.000004039712721
  0
POINT
  8
99
  6
CONTINUOUS
 62
     3
 10
 15.000028610229492
 20
-86.999996401369572
  0
POINT
  8
99
  6
CONTINUOUS
 62
     3
 10
-14.999998092651367
 20
-29.999995708465576
  0
LINE
  8
99
  6
DOT
 62
     3
 10
-16.599996566772461
 20
-29.999995708465576
 11
-16.599996566772461
 21
-31.599996089935299
  0
LINE
  8
99
  6
DOT
 62
     3
 10
-13.400001525878906
 20
-29.999995708465576
 11
-13.400001525878906
 21
-31.599996089935299
  0
LINE
  8
99
  6
DOT
 62
     3
 10
 12.900032043457031
 20
-85.399996019899845
 11
 12.900032043457031
 21
-86.999996401369572
  0
LINE
  8
99
  6
DOT
 62
     3
 10
 17.100046157836914
 20
-85.399996019899845
 11
 17.100046157836914
 21
-86.999996401369572
  0
LINE
  8
99
  6
DASHDOT
 62
     7
 10
-27.608985900878906
 20
 35
 11
 28.705123901367187
 21
 35
  0
LINE
  8
99
  6
CONTINUOUS
 62
     3
 10
-25
 20
 70
 11
 25
 21
 70
  0
LINE
  8
99
  6
CONTINUOUS
 62
     3
 10
 25
 20
 70
 11
 25
 21
 0
  0
LINE
  8
99
  6
CONTINUOUS
 62
     3
 10
 25
 20
 0
 11
-25
 21
 0
  0
LINE
  8
99
  6
CONTINUOUS
 62
     3
 10
-25
 20
 0
 11
-25
 21
 70
  0
CIRCLE
  8
99
  6
CONTINUOUS
 62
     3
 10
-14.999998092651367
 20
 52.5
 40
 1.6000000238418579
  0
CIRCLE
  8
99
  6
CONTINUOUS
 62
     3
 10
-14.999998092651367
 20
 17.5
 40
 1.6000000238418579
  0
CIRCLE
  8
99
  6
CONTINUOUS
 62
     3
 10
 15.000003337860107
 20
 60
 40
 2
  0
CIRCLE
  8
99
  6
CONTINUOUS
 62
     3
 10
 15.000003337860107
 20
 10.000003814697266
 40
 2
  0
LINE
  8
99
  6
DOT
 62
     3
 10
-5
 20
 0
 11
-5
 21
 70
  0
LINE
  8
99
  6
CONTINUOUS
 62
     3
 10
-3.3999996185302734
 20
 0
 11
-3.3999996185302734
 21
 70
  0
CIRCLE
  8
99
  6
CONTINUOUS
 62
     3
 10
-14.999998092651367
 20
 35
 40
 1.6000000238418579
  0
LINE
  8
99
  6
DASHDOT
 62
     2
 10
-14.999998092651367
 20
-27.167463302612305
 11
-14.999998092651367
 21
-36.254000663757331
  0
LINE
  8
99
  6
DASHDOT
 62
     2
 10
 15.000028610229492
 20
-81.090555407106876
 11
 15.000028610229492
 21
-91.635429598391056
  0
LINE
  8
99
  6
CONTINUOUS
 62
     7
 10
 26.85417366027832
 20
-85.399996019899845
 11
 35.960029602050781
 21
-85.399996019899845
  0
LINE
  8
99
  6
CONTINUOUS
 62
     7
 10
 35.000028610229492
 20
-93.362980104982853
 11
 35.000028610229492
 21
-86.999996401369572
  0
LINE
  8
99
  6
CONTINUOUS
 62
     7
 10
 35.000028610229492
 20
-86.999996401369572
 11
 34.223571474921933
 21
-89.89777388023677
  0
LINE
  8
99
  6
CONTINUOUS
 62
     7
 10
 35.000028610229492
 20
-86.999996401369572
 11
 35.776485745537052
 21
-89.89777388023677
  0
LINE
  8
99
  6
CONTINUOUS
 62
     7
 10
 35.000028610229492
 20
-85.399996019899845
 11
 35.000028610229492
 21
-86.999996401369572
  0
TEXT
  8
99
  6
CONTINUOUS
 62
     7
 10
 34.040029560725948
 20
-83.799992542960922
 11
 34.040029307199887
 21
-77.999992542960925
 40
 2
 41
 0.8
  1
１．６
 50
 90.000004039712707
 72
  5
  0
LINE
  8
99
  6
CONTINUOUS
 62
     7
 10
 35.000028610229492
 20
-77.994375444948673
 11
 35.000028610229492
 21
-85.399996019899845
  0
LINE
  8
99
  6
CONTINUOUS
 62
     7
 10
 35.000028610229492
 20
-85.399996019899845
 11
 35.776485745537052
 21
-82.502218541032647
  0
LINE
  8
99
  6
CONTINUOUS
 62
     7
 10
 35.000028610229492
 20
-85.399996019899845
 11
 34.223571474921933
 21
-82.502218541032647
  0
TEXT
  8
99
  6
CONTINUOUS
 62
     7
 10
 35.990364074707031
 20
 67.856727600097656
 11
 45.490364074707031
 21
 67.856727600097656
 40
 2.5
 41
 0.8
  1
２－φ４
 50
 0
 72
  5
  0
LINE
  8
99
  6
CONTINUOUS
 62
     7
 10
 18.833283424377441
 20
 67.106727600097656
 11
 49.554489135742188
 21
 67.106727600097656
  0
LINE
  8
99
  6
CONTINUOUS
 62
     7
 10
 18.833283424377441
 20
 67.106727600097656
 11
 15.949466705322266
 21
 61.760261535644531
  0
LINE
  8
99
  6
CONTINUOUS
 62
     7
 10
 15.949466705322266
 20
 61.760261535644531
 11
 18.008516587529215
 21
 63.942075822558877
  0
LINE
  8
99
  6
CONTINUOUS
 62
     7
 10
 15.949466705322266
 20
 61.760261535644531
 11
 16.641749067515665
 21
 64.679293075555663
  0
TEXT
  8
99
  6
CONTINUOUS
 62
     7
 10
-57.58013916015625
 20
 63.958335876464844
 11
-43.08013916015625
 21
 63.958335876464844
 40
 2.5
 41
 0.8
  1
３－φ３．２
 50
 0
 72
  5
  0
LINE
  8
99
  6
CONTINUOUS
 62
     7
 10
-58.458351135253906
 20
 63.208335876464844
 11
-18.971160888671875
 21
 63.208335876464844
  0
LINE
  8
99
  6
CONTINUOUS
 62
     7
 10
-18.971160888671875
 20
 63.208335876464844
 11
-15.556329727172852
 21
 54.000160217285156
  0
LINE
  8
99
  6
CONTINUOUS
 62
     7
 10
-15.556329727172852
 20
 54.000160217285156
 11
-15.83590144413369
 21
 56.987105087060222
  0
LINE
  8
99
  6
CONTINUOUS
 62
     7
 10
-15.556329727172852
 20
 54.000160217285156
 11
-17.291918371128101
 21
 56.447144495733546
  0
LINE
  8
256
  6
CONTINUOUS
 62
     7
 10
 104.99998474121094
 20
-121.5
 11
 200
 21
-121.5
  0
LINE
  8
256
  6
CONTINUOUS
 62
     7
 10
 170.99998474121094
 20
-109.5
 11
 170.99998474121094
 21
-121.5
  0
TEXT
  8
256
  6
CONTINUOUS
 62
     7
 10
 112.5
 20
-134.25
 11
 160.5
 21
-134.25
 40
 6
 41
 1
  1
ＮＦ２０Ｍ－５７
 50
 0
 72
  5
  0
TEXT
  8
256
  6
CONTINUOUS
 62
     7
 10
 117.99998474121094
 20
-119.75
 11
 157.99998474121094
 21
-119.75
 40
 5
 41
 0.8
  1
主幹ＭＣＣＢ取付金具
 50
 0
 72
  5
  0
TEXT
  8
256
  6
CONTINUOUS
 62
     7
 10
 106.29998779296875
 20
-112.4499633789062
 11
 111.29998779296875
 21
-112.4499633789062
 40
 2.5
 41
 0.8
  1
品名
 50
 0
 72
  5
  0
TEXT
  8
256
  6
CONTINUOUS
 62
     7
 10
 106.29998779296875
 20
-124.45003051757811
 11
 111.29998779296875
 21
-124.45003051757811
 40
 2.5
 41
 0.8
  1
品番
 50
 0
 72
  5
  0
LINE
  8
256
  6
CONTINUOUS
 62
     7
 10
 104.99998474121094
 20
-139.5
 11
 104.99998474121094
 21
-109.5
  0
LINE
  8
256
  6
CONTINUOUS
 62
     7
 10
 104.99998474121094
 20
-109.5
 11
 200
 21
-109.5
  0
LINE
  8
256
  6
CONTINUOUS
 62
     7
 10
 200
 20
-139.5
 11
-193.30000000000001
 21
-139.49999999999994
  0
LINE
  8
256
  6
CONTINUOUS
 62
     7
 10
 200
 20
 136.99999721136808
 11
 200
 21
-139.5
  0
LINE
  8
256
  6
CONTINUOUS
 62
     7
 10
-193.30000000000001
 20
 124.99999645625348
 11
-93.300000000000011
 21
 124.99999645625348
  0
TEXT
  8
256
  6
CONTINUOUS
 62
     7
 10
-188.30000000000001
 20
 127.99999604817611
 11
-134.30000000000001
 21
 127.99999604817611
 40
 6
 41
 1
  1
ＬＢ－Ｄ５１３０Ｄ
 50
 0
 72
  5
  0
LINE
  8
256
  6
CONTINUOUS
 62
     7
 10
-193.30000000000001
 20
 136.99999721136808
 11
-193.30000000000001
 21
-139.49999999999994
  0
LINE
  8
256
  6
CONTINUOUS
 62
     7
 10
-193.30000000000001
 20
 136.99999721136808
 11
 200
 21
 136.99999721136808
  0
LINE
  8
256
  6
CONTINUOUS
 62
     7
 10
-93.300000000000011
 20
 124.9999964562535
 11
-93.300000000000011
 21
 136.99999721136808
  0
LINE
  8
99
  6
CONTINUOUS
 62
     7
 10
-25
 20
-2.0801239013671839
 11
-25
 21
-10.960000991821289
  0
LINE
  8
99
  6
CONTINUOUS
 62
     7
 10
-14.999998092651367
 20
 55.916671752929688
 11
-14.999998092651367
 21
-10.960000991821289
  0
LINE
  8
99
  6
CONTINUOUS
 62
     7
 10
-25
 20
-10.000001907348633
 11
-14.999998092651367
 21
-10.000001907348633
  0
LINE
  8
99
  6
CONTINUOUS
 62
     7
 10
-25
 20
-10.000001907348633
 11
-22.102222521132795
 21
-10.776459042656196
  0
LINE
  8
99
  6
CONTINUOUS
 62
     7
 10
-25
 20
-10.000001907348633
 11
-22.102222521132795
 21
-9.2235447720410697
  0
LINE
  8
99
  6
CONTINUOUS
 62
     7
 10
-14.999998092651367
 20
-10.000001907348633
 11
-17.897775571518572
 21
-9.2235447720410697
  0
LINE
  8
99
  6
CONTINUOUS
 62
     7
 10
-14.999998092651367
 20
-10.000001907348633
 11
-17.897775571518572
 21
-10.776459042656196
  0
TEXT
  8
99
  6
CONTINUOUS
 62
     7
 10
-21.849999237060548
 20
-9.0400028228759766
 11
-18.149999237060548
 21
-9.0400028228759766
 40
 2
 41
 0.8
  1
10
 50
 0
 72
  5
  0
LINE
  8
99
  6
CONTINUOUS
 62
     7
 10
 15.000003337860107
 20
 64.10577392578125
 11
 15.000003337860107
 21
-10.960000991821289
  0
LINE
  8
99
  6
CONTINUOUS
 62
     7
 10
-14.999998092651367
 20
-10.000001907348633
 11
 15.000003337860107
 21
-10.000001907348633
  0
LINE
  8
99
  6
CONTINUOUS
 62
     7
 10
-14.999998092651367
 20
-10.000001907348633
 11
-12.102220613784162
 21
-10.776459042656196
  0
LINE
  8
99
  6
CONTINUOUS
 62
     7
 10
-14.999998092651367
 20
-10.000001907348633
 11
-12.102220613784162
 21
-9.2235447720410697
  0
LINE
  8
99
  6
CONTINUOUS
 62
     7
 10
 15.000003337860107
 20
-10.000001907348633
 11
 12.102225858992902
 21
-9.2235447720410697
  0
LINE
  8
99
  6
CONTINUOUS
 62
     7
 10
 15.000003337860107
 20
-10.000001907348633
 11
 12.102225858992902
 21
-10.776459042656196
  0
TEXT
  8
99
  6
CONTINUOUS
 62
     7
 10
-1.8499973297119141
 20
-9.0400028228759766
 11
 1.8500026702880863
 21
-9.0400028228759766
 40
 2
 41
 0.8
  1
30
 50
 0
 72
  5
  0
LINE
  8
99
  6
CONTINUOUS
 62
     7
 10
 25
 20
-2.0801239013671839
 11
 25
 21
-10.960000991821289
  0
LINE
  8
99
  6
CONTINUOUS
 62
     7
 10
 15.000003337860107
 20
-10.000001907348633
 11
 25
 21
-10.000001907348633
  0
LINE
  8
99
  6
CONTINUOUS
 62
     7
 10
 15.000003337860107
 20
-10.000001907348633
 11
 17.897780816727312
 21
-10.776459042656196
  0
LINE
  8
99
  6
CONTINUOUS
 62
     7
 10
 15.000003337860107
 20
-10.000001907348633
 11
 17.897780816727312
 21
-9.2235447720410697
  0
LINE
  8
99
  6
CONTINUOUS
 62
     7
 10
 25
 20
-10.000001907348633
 11
 22.102222521132795
 21
-9.2235447720410697
  0
LINE
  8
99
  6
CONTINUOUS
 62
     7
 10
 25
 20
-10.000001907348633
 11
 22.102222521132795
 21
-10.776459042656196
  0
TEXT
  8
99
  6
CONTINUOUS
 62
     7
 10
 18.150001716613769
 20
-9.0400028228759766
 11
 21.850001716613768
 21
-9.0400028228759766
 40
 2
 41
 0.8
  1
10
 50
 0
 72
  5
  0
LINE
  8
99
  6
CONTINUOUS
 62
     7
 10
-25
 20
 72.070518493652344
 11
-25
 21
 80.959999084472656
  0
LINE
  8
99
  6
CONTINUOUS
 62
     7
 10
 25
 20
 72.070518493652344
 11
 25
 21
 80.959999084472656
  0
LINE
  8
99
  6
CONTINUOUS
 62
     7
 10
-25
 20
 80
 11
 25
 21
 80
  0
LINE
  8
99
  6
CONTINUOUS
 62
     7
 10
-25
 20
 80
 11
-22.102222521132795
 21
 79.223542864692433
  0
LINE
  8
99
  6
CONTINUOUS
 62
     7
 10
-25
 20
 80
 11
-22.102222521132795
 21
 80.776457135307567
  0
LINE
  8
99
  6
CONTINUOUS
 62
     7
 10
 25
 20
 80
 11
 22.102222521132795
 21
 80.776457135307567
  0
LINE
  8
99
  6
CONTINUOUS
 62
     7
 10
 25
 20
 80
 11
 22.102222521132795
 21
 79.223542864692433
  0
TEXT
  8
99
  6
CONTINUOUS
 62
     7
 10
-1.8500001907348633
 20
 80.959999084472656
 11
 1.8499998092651371
 21
 80.959999084472656
 40
 2
 41
 0.8
  1
50
 50
 0
 72
  5
  0
LINE
  8
99
  6
CONTINUOUS
 62
     7
 10
-11.455144882202148
 20
 52.5
 11
-35.959999084472656
 21
 52.5
  0
LINE
  8
99
  6
CONTINUOUS
 62
     7
 10
-27.608985900878906
 20
 35
 11
-35.959999084472656
 21
 35
  0
LINE
  8
99
  6
CONTINUOUS
 62
     7
 10
-35
 20
 52.5
 11
-35
 21
 35
  0
LINE
  8
99
  6
CONTINUOUS
 62
     7
 10
-35
 20
 52.5
 11
-35.77645713530756
 21
 49.602222521132795
  0
LINE
  8
99
  6
CONTINUOUS
 62
     7
 10
-35
 20
 52.5
 11
-34.22354286469244
 21
 49.602222521132795
  0
LINE
  8
99
  6
CONTINUOUS
 62
     7
 10
-35
 20
 35
 11
-34.22354286469244
 21
 37.897777478867205
  0
LINE
  8
99
  6
CONTINUOUS
 62
     7
 10
-35
 20
 35
 11
-35.77645713530756
 21
 37.897777478867205
  0
TEXT
  8
99
  6
CONTINUOUS
 62
     7
 10
-35.959999049503544
 20
 39.799998517832485
 11
-35.959999394823527
 21
 47.699998517832476
 40
 2
 41
 0.8
  1
17.5
 50
 90.000004039712707
 72
  5
  0
LINE
  8
99
  6
CONTINUOUS
 62
     7
 10
-11.455144882202148
 20
 17.5
 11
-35.959999084472656
 21
 17.5
  0
LINE
  8
99
  6
CONTINUOUS
 62
     7
 10
-35
 20
 35
 11
-35
 21
 17.5
  0
LINE
  8
99
  6
CONTINUOUS
 62
     7
 10
-35
 20
 35
 11
-35.77645713530756
 21
 32.102222521132795
  0
LINE
  8
99
  6
CONTINUOUS
 62
     7
 10
-35
 20
 35
 11
-34.22354286469244
 21
 32.102222521132795
  0
LINE
  8
99
  6
CONTINUOUS
 62
     7
 10
-35
 20
 17.5
 11
-34.22354286469244
 21
 20.397777478867205
  0
LINE
  8
99
  6
CONTINUOUS
 62
     7
 10
-35
 20
 17.5
 11
-35.77645713530756
 21
 20.397777478867205
  0
TEXT
  8
99
  6
CONTINUOUS
 62
     7
 10
-35.959999049503544
 20
 22.299998517832488
 11
-35.959999394823527
 21
 30.199998517832476
 40
 2
 41
 0.8
  1
17.5
 50
 90.000004039712707
 72
  5
  0
LINE
  8
99
  6
CONTINUOUS
 62
     7
 10
-27.160270690917969
 20
 70
 11
-40.959999084472656
 21
 70
  0
LINE
  8
99
  6
CONTINUOUS
 62
     7
 10
-27.160270690917969
 20
 0
 11
-40.959999084472656
 21
 0
  0
LINE
  8
99
  6
CONTINUOUS
 62
     7
 10
-40
 20
 70
 11
-40
 21
 0
  0
LINE
  8
99
  6
CONTINUOUS
 62
     7
 10
-40
 20
 70
 11
-40.77645713530756
 21
 67.102222521132802
  0
LINE
  8
99
  6
CONTINUOUS
 62
     7
 10
-40
 20
 70
 11
-39.22354286469244
 21
 67.102222521132802
  0
LINE
  8
99
  6
CONTINUOUS
 62
     7
 10
-40
 20
 0
 11
-39.22354286469244
 21
 2.897777478867205
  0
LINE
  8
99
  6
CONTINUOUS
 62
     7
 10
-40
 20
 0
 11
-40.77645713530756
 21
 2.897777478867205
  0
TEXT
  8
99
  6
CONTINUOUS
 62
     7
 10
-40.959999049503544
 20
 33.149996991953579
 11
-40.95999921123569
 21
 36.849996991953581
 40
 2
 41
 0.8
  1
70
 50
 90.000004039712707
 72
  5
  0
LINE
  8
99
  6
CONTINUOUS
 62
     7
 10
 9.5224194526672363
 20
 60
 11
 35.960000991821289
 21
 60
  0
LINE
  8
99
  6
CONTINUOUS
 62
     7
 10
 9.5224194526672363
 20
 10.000003814697266
 11
 35.960000991821289
 21
 10.000003814697266
  0
LINE
  8
99
  6
CONTINUOUS
 62
     7
 10
 35
 20
 60
 11
 35
 21
 10.000003814697266
  0
LINE
  8
99
  6
CONTINUOUS
 62
     7
 10
 35
 20
 60
 11
 34.22354286469244
 21
 57.102222521132795
  0
LINE
  8
99
  6
CONTINUOUS
 62
     7
 10
 35
 20
 60
 11
 35.77645713530756
 21
 57.102222521132795
  0
LINE
  8
99
  6
CONTINUOUS
 62
     7
 10
 35
 20
 10.000003814697266
 11
 35.77645713530756
 21
 12.897781293564471
  0
LINE
  8
99
  6
CONTINUOUS
 62
     7
 10
 35
 20
 10.000003814697266
 11
 34.22354286469244
 21
 12.897781293564471
  0
TEXT
  8
99
  6
CONTINUOUS
 62
     7
 10
 34.040000950496456
 20
 33.15000462134811
 11
 34.04000078876431
 21
 36.850004621348113
 40
 2
 41
 0.8
  1
50
 50
 90.000004039712707
 72
  5
  0
LINE
  8
99
  6
CONTINUOUS
 62
     7
 10
-4.9999847412109375
 20
-28.979129791259769
 11
-4.9999847412109375
 21
-19.039992332458493
  0
LINE
  8
99
  6
CONTINUOUS
 62
     7
 10
-25
 20
-28.137784004211426
 11
-25
 21
-19.039992332458493
  0
LINE
  8
99
  6
CONTINUOUS
 62
     7
 10
-4.9999847412109375
 20
-19.999995231628418
 11
-25
 21
-19.999995231628418
  0
LINE
  8
99
  6
CONTINUOUS
 62
     7
 10
-4.9999847412109375
 20
-19.999995231628418
 11
-7.8977622200781425
 21
-19.223538096320855
  0
LINE
  8
99
  6
CONTINUOUS
 62
     7
 10
-4.9999847412109375
 20
-19.999995231628418
 11
-7.8977622200781425
 21
-20.776452366935981
  0
LINE
  8
99
  6
CONTINUOUS
 62
     7
 10
-25
 20
-19.999995231628418
 11
-22.102222521132795
 21
-20.776452366935981
  0
LINE
  8
99
  6
CONTINUOUS
 62
     7
 10
-25
 20
-19.999995231628418
 11
-22.102222521132795
 21
-19.223538096320855
  0
TEXT
  8
99
  6
CONTINUOUS
 62
     7
 10
-16.849991607666016
 20
-19.039993286132812
 11
-13.149991607666017
 21
-19.039993286132812
 40
 2
 41
 0.8
  1
20
 50
 0
 72
  5
  0
LINE
  8
99
  6
CONTINUOUS
 62
     7
 10
 25.000028610229492
 20
-82.621784426271915
 11
 25.000028610229492
 21
-19.039992332458493
  0
LINE
  8
99
  6
CONTINUOUS
 62
     7
 10
 25.000028610229492
 20
-19.999995231628418
 11
-4.9999847412109375
 21
-19.999995231628418
  0
LINE
  8
99
  6
CONTINUOUS
 62
     7
 10
 25.000028610229492
 20
-19.999995231628418
 11
 22.102251131362287
 21
-19.223538096320855
  0
LINE
  8
99
  6
CONTINUOUS
 62
     7
 10
 25.000028610229492
 20
-19.999995231628418
 11
 22.102251131362287
 21
-20.776452366935981
  0
LINE
  8
99
  6
CONTINUOUS
 62
     7
 10
-4.9999847412109375
 20
-19.999995231628418
 11
-2.1022072623437325
 21
-20.776452366935981
  0
LINE
  8
99
  6
CONTINUOUS
 62
     7
 10
-4.9999847412109375
 20
-19.999995231628418
 11
-2.1022072623437325
 21
-19.223538096320855
  0
TEXT
  8
99
  6
CONTINUOUS
 62
     7
 10
 8.1500222206115716
 20
-19.039993286132812
 11
 11.850022220611571
 21
-19.039993286132812
 40
 2
 41
 0.8
  1
30
 50
 0
 72
  5
  0
LINE
  8
0
  6
CONTINUOUS
 62
     7
 10
-3.9999713897705078
 20
-29.999996401369565
 11
 44.016085236473472
 21
-29.999996401369565
  0
LINE
  8
0
  6
CONTINUOUS
 62
     7
 10
 26.000028610229492
 20
-86.999996401369572
 11
 44.016085236473472
 21
-86.999996401369572
  0
LINE
  8
0
  6
CONTINUOUS
 62
     7
 10
 43.016085236473472
 20
-29.999996401369565
 11
 43.016085236473472
 21
-86.999996401369572
  0
LINE
  8
0
  6
CONTINUOUS
 62
     7
 10
 43.016085236473472
 20
-29.999996401369565
 11
 42.239628101165913
 21
-32.89777388023677
  0
LINE
  8
0
  6
CONTINUOUS
 62
     7
 10
 43.016085236473472
 20
-29.999996401369565
 11
 43.792542371781032
 21
-32.89777388023677
  0
LINE
  8
0
  6
CONTINUOUS
 62
     7
 10
 43.016085236473472
 20
-86.999996401369572
 11
 43.792542371781032
 21
-84.102218922502374
  0
LINE
  8
0
  6
CONTINUOUS
 62
     7
 10
 43.016085236473472
 20
-86.999996401369572
 11
 42.239628101165913
 21
-84.102218922502374
  0
TEXT
  8
0
  6
CONTINUOUS
 62
     7
 10
 42.216085236473475
 20
-60.499996401369572
 11
 42.216085236473475
 21
-56.499996401369572
 40
 2.5
 41
 0.8
  1
57
 50
 90.000001535234517
 72
  5
  0
ENDSEC
  0
EOF
