  0
SECTION
  2
HEADER
  9
$INSBASE
 10
0.0
20
0.0
  9
$REGENMODE
 70
     1
  9
$DRAGMODE
 70
     1
  9
$DIMTAD
 70
     1
  9
$EXTMIN
 10
-210.000000
 20
-148.500000
 30
 0.0
  9
$EXTMAX
 10
210.000000
 20
148.500000
 30
 0.0
  9
$LUPREC
 70
    3
  9
$AUPREC
 70
    3
  9
$LTSCALE
 40
26.250000
  0
ENDSEC
  0
SECTION
  2
TABLES
  0
TABLE
  2
LTYPE
 70
     6
  0
LTYPE
  2
CONTINUOUS
 70
    64
  3
SOLID
 72
    65
 73
     0
 40
0.0
  0
LTYPE
  2
DASHED2
 70
    64
  3
_ _ _ _ _ _ _ _ _ _ _ _ _ _ _ _ _ _ _ _ _ _ 
 72
    65
 73
     2
 40
0.5
 49
0.25
 49
-0.25
  0
LTYPE
  2
DASHED
 70
    64
  3
__ __ __ __ __ __ __ __ __ __ __ __ __ __ __
 72
    65
 73
     2
 40
0.75
 49
0.5
 49
-0.25
  0
LTYPE
  2
DASHEDX2
 70
    64
  3
____  ____  ____  ____  ____  ____  ____  __
 72
    65
 73
     2
 40
1.5
 49
1.0
 49
-0.5
  0
LTYPE
  2
DOT
 70
    64
  3
............................................
 72
    65
 73
     2
 40
0.25
 49
0
 49
-0.25
  0
LTYPE
  2
DASHDOT
 70
    64
  3
__ . __ . __ . __ . __ . __ . __ . __ . __ .
 72
    65
 73
     4
 40
1.0
 49
0.5
 49
-0.25
 49
0.0
 49
-0.25
  0
LTYPE
  2
CENTER
 70
    64
  3
____ _ ____ _ ____ _ ____ _ ____ _ ____ _ __
 72
    65
 73
     4
 40
2.0
 49
1.25
 49
-0.25
 49
0.25
 49
-0.25
  0
LTYPE
  2
DIVIDE
 70
    64
  3
__ . . __ . . __ . . __ . . __ . . __ . . __
 72
    65
 73
     6
 40
1.25
 49
0.5
 49
-0.25
 49
0.0
 49
-0.25
 49
0.0
 49
-0.25
  0
LTYPE
  2
PHANTOM2
 70
    64
  3
___ _ _ ___ _ _ ___ _ _ ___ _ _ ___ _ _ ___ 
 72
    65
 73
     6
 40
1.25
 49
0.625
 49
-0.125
 49
0.125
 49
-0.125
 49
0.125
 49
-0.125
  0
LTYPE
  2
DOTX2
 70
    64
  3
. . . . . . . . . . . . . . . . . . . . . . 
 72
    65
 73
     2
 40
0.5
 49
0
 49
-0.5
  0
ENDTAB
  0
TABLE
  2
LAYER
 70
   255
  0
LAYER
  2
0
 70
    64
 62
     7
  6
CONTINUOUS
  0
LAYER
  2
1
 70
    64
 62
     7
  6
CONTINUOUS
  0
LAYER
  2
2
 70
    64
 62
     7
  6
CONTINUOUS
  0
LAYER
  2
3
 70
    64
 62
     7
  6
CONTINUOUS
  0
LAYER
  2
4
 70
    64
 62
     7
  6
CONTINUOUS
  0
LAYER
  2
5
 70
    64
 62
     7
  6
CONTINUOUS
  0
LAYER
  2
6
 70
    64
 62
     7
  6
CONTINUOUS
  0
LAYER
  2
7
 70
    64
 62
     7
  6
CONTINUOUS
  0
LAYER
  2
8
 70
    64
 62
     7
  6
CONTINUOUS
  0
LAYER
  2
9
 70
    64
 62
     7
  6
CONTINUOUS
  0
LAYER
  2
10
 70
    64
 62
     7
  6
CONTINUOUS
  0
LAYER
  2
11
 70
    64
 62
     7
  6
CONTINUOUS
  0
LAYER
  2
12
 70
    64
 62
     7
  6
CONTINUOUS
  0
LAYER
  2
13
 70
    64
 62
     7
  6
CONTINUOUS
  0
LAYER
  2
14
 70
    64
 62
     7
  6
CONTINUOUS
  0
LAYER
  2
15
 70
    64
 62
     7
  6
CONTINUOUS
  0
LAYER
  2
16
 70
    64
 62
     7
  6
CONTINUOUS
  0
LAYER
  2
17
 70
    64
 62
     7
  6
CONTINUOUS
  0
LAYER
  2
18
 70
    64
 62
     7
  6
CONTINUOUS
  0
LAYER
  2
19
 70
    64
 62
     7
  6
CONTINUOUS
  0
LAYER
  2
20
 70
    64
 62
     7
  6
CONTINUOUS
  0
LAYER
  2
21
 70
    64
 62
     7
  6
CONTINUOUS
  0
LAYER
  2
22
 70
    64
 62
     7
  6
CONTINUOUS
  0
LAYER
  2
23
 70
    64
 62
     7
  6
CONTINUOUS
  0
LAYER
  2
24
 70
    64
 62
     7
  6
CONTINUOUS
  0
LAYER
  2
25
 70
    64
 62
     7
  6
CONTINUOUS
  0
LAYER
  2
26
 70
    64
 62
     7
  6
CONTINUOUS
  0
LAYER
  2
27
 70
    64
 62
     7
  6
CONTINUOUS
  0
LAYER
  2
28
 70
    64
 62
     7
  6
CONTINUOUS
  0
LAYER
  2
29
 70
    64
 62
     7
  6
CONTINUOUS
  0
LAYER
  2
30
 70
    64
 62
     7
  6
CONTINUOUS
  0
LAYER
  2
31
 70
    64
 62
     7
  6
CONTINUOUS
  0
LAYER
  2
32
 70
    64
 62
     7
  6
CONTINUOUS
  0
LAYER
  2
33
 70
    64
 62
     7
  6
CONTINUOUS
  0
LAYER
  2
34
 70
    64
 62
     7
  6
CONTINUOUS
  0
LAYER
  2
35
 70
    64
 62
     7
  6
CONTINUOUS
  0
LAYER
  2
36
 70
    64
 62
     7
  6
CONTINUOUS
  0
LAYER
  2
37
 70
    64
 62
     7
  6
CONTINUOUS
  0
LAYER
  2
38
 70
    64
 62
     7
  6
CONTINUOUS
  0
LAYER
  2
39
 70
    64
 62
     7
  6
CONTINUOUS
  0
LAYER
  2
40
 70
    64
 62
     7
  6
CONTINUOUS
  0
LAYER
  2
41
 70
    64
 62
     7
  6
CONTINUOUS
  0
LAYER
  2
42
 70
    64
 62
     7
  6
CONTINUOUS
  0
LAYER
  2
43
 70
    64
 62
     7
  6
CONTINUOUS
  0
LAYER
  2
44
 70
    64
 62
     7
  6
CONTINUOUS
  0
LAYER
  2
45
 70
    64
 62
     7
  6
CONTINUOUS
  0
LAYER
  2
46
 70
    64
 62
     7
  6
CONTINUOUS
  0
LAYER
  2
47
 70
    64
 62
     7
  6
CONTINUOUS
  0
LAYER
  2
48
 70
    64
 62
     7
  6
CONTINUOUS
  0
LAYER
  2
49
 70
    64
 62
     7
  6
CONTINUOUS
  0
LAYER
  2
50
 70
    64
 62
     7
  6
CONTINUOUS
  0
LAYER
  2
51
 70
    64
 62
     7
  6
CONTINUOUS
  0
LAYER
  2
52
 70
    64
 62
     7
  6
CONTINUOUS
  0
LAYER
  2
53
 70
    64
 62
     7
  6
CONTINUOUS
  0
LAYER
  2
54
 70
    64
 62
     7
  6
CONTINUOUS
  0
LAYER
  2
55
 70
    64
 62
     7
  6
CONTINUOUS
  0
LAYER
  2
56
 70
    64
 62
     7
  6
CONTINUOUS
  0
LAYER
  2
57
 70
    64
 62
     7
  6
CONTINUOUS
  0
LAYER
  2
58
 70
    64
 62
     7
  6
CONTINUOUS
  0
LAYER
  2
59
 70
    64
 62
     7
  6
CONTINUOUS
  0
LAYER
  2
60
 70
    64
 62
     7
  6
CONTINUOUS
  0
LAYER
  2
61
 70
    64
 62
     7
  6
CONTINUOUS
  0
LAYER
  2
62
 70
    64
 62
     7
  6
CONTINUOUS
  0
LAYER
  2
63
 70
    64
 62
     7
  6
CONTINUOUS
  0
LAYER
  2
64
 70
    64
 62
     7
  6
CONTINUOUS
  0
LAYER
  2
65
 70
    64
 62
     7
  6
CONTINUOUS
  0
LAYER
  2
66
 70
    64
 62
     7
  6
CONTINUOUS
  0
LAYER
  2
67
 70
    64
 62
     7
  6
CONTINUOUS
  0
LAYER
  2
68
 70
    64
 62
     7
  6
CONTINUOUS
  0
LAYER
  2
69
 70
    64
 62
     7
  6
CONTINUOUS
  0
LAYER
  2
70
 70
    64
 62
     7
  6
CONTINUOUS
  0
LAYER
  2
71
 70
    64
 62
     7
  6
CONTINUOUS
  0
LAYER
  2
72
 70
    64
 62
     7
  6
CONTINUOUS
  0
LAYER
  2
73
 70
    64
 62
     7
  6
CONTINUOUS
  0
LAYER
  2
74
 70
    64
 62
     7
  6
CONTINUOUS
  0
LAYER
  2
75
 70
    64
 62
     7
  6
CONTINUOUS
  0
LAYER
  2
76
 70
    64
 62
     7
  6
CONTINUOUS
  0
LAYER
  2
77
 70
    64
 62
     7
  6
CONTINUOUS
  0
LAYER
  2
78
 70
    64
 62
     7
  6
CONTINUOUS
  0
LAYER
  2
79
 70
    64
 62
     7
  6
CONTINUOUS
  0
LAYER
  2
80
 70
    64
 62
     7
  6
CONTINUOUS
  0
LAYER
  2
81
 70
    64
 62
     7
  6
CONTINUOUS
  0
LAYER
  2
82
 70
    64
 62
     7
  6
CONTINUOUS
  0
LAYER
  2
83
 70
    64
 62
     7
  6
CONTINUOUS
  0
LAYER
  2
84
 70
    64
 62
     7
  6
CONTINUOUS
  0
LAYER
  2
85
 70
    64
 62
     7
  6
CONTINUOUS
  0
LAYER
  2
86
 70
    64
 62
     7
  6
CONTINUOUS
  0
LAYER
  2
87
 70
    64
 62
     7
  6
CONTINUOUS
  0
LAYER
  2
88
 70
    64
 62
     7
  6
CONTINUOUS
  0
LAYER
  2
89
 70
    64
 62
     7
  6
CONTINUOUS
  0
LAYER
  2
90
 70
    64
 62
     7
  6
CONTINUOUS
  0
LAYER
  2
91
 70
    64
 62
     7
  6
CONTINUOUS
  0
LAYER
  2
92
 70
    64
 62
     7
  6
CONTINUOUS
  0
LAYER
  2
93
 70
    64
 62
     7
  6
CONTINUOUS
  0
LAYER
  2
94
 70
    64
 62
     7
  6
CONTINUOUS
  0
LAYER
  2
95
 70
    64
 62
     7
  6
CONTINUOUS
  0
LAYER
  2
96
 70
    64
 62
     7
  6
CONTINUOUS
  0
LAYER
  2
97
 70
    64
 62
     7
  6
CONTINUOUS
  0
LAYER
  2
98
 70
    64
 62
     7
  6
CONTINUOUS
  0
LAYER
  2
99
 70
    64
 62
     7
  6
CONTINUOUS
  0
LAYER
  2
100
 70
    64
 62
     7
  6
CONTINUOUS
  0
LAYER
  2
101
 70
    64
 62
     7
  6
CONTINUOUS
  0
LAYER
  2
102
 70
    64
 62
     7
  6
CONTINUOUS
  0
LAYER
  2
103
 70
    64
 62
     7
  6
CONTINUOUS
  0
LAYER
  2
104
 70
    64
 62
     7
  6
CONTINUOUS
  0
LAYER
  2
105
 70
    64
 62
     7
  6
CONTINUOUS
  0
LAYER
  2
106
 70
    64
 62
     7
  6
CONTINUOUS
  0
LAYER
  2
107
 70
    64
 62
     7
  6
CONTINUOUS
  0
LAYER
  2
108
 70
    64
 62
     7
  6
CONTINUOUS
  0
LAYER
  2
109
 70
    64
 62
     7
  6
CONTINUOUS
  0
LAYER
  2
110
 70
    64
 62
     7
  6
CONTINUOUS
  0
LAYER
  2
111
 70
    64
 62
     7
  6
CONTINUOUS
  0
LAYER
  2
112
 70
    64
 62
     7
  6
CONTINUOUS
  0
LAYER
  2
113
 70
    64
 62
     7
  6
CONTINUOUS
  0
LAYER
  2
114
 70
    64
 62
     7
  6
CONTINUOUS
  0
LAYER
  2
115
 70
    64
 62
     7
  6
CONTINUOUS
  0
LAYER
  2
116
 70
    64
 62
     7
  6
CONTINUOUS
  0
LAYER
  2
117
 70
    64
 62
     7
  6
CONTINUOUS
  0
LAYER
  2
118
 70
    64
 62
     7
  6
CONTINUOUS
  0
LAYER
  2
119
 70
    64
 62
     7
  6
CONTINUOUS
  0
LAYER
  2
120
 70
    64
 62
     7
  6
CONTINUOUS
  0
LAYER
  2
121
 70
    64
 62
     7
  6
CONTINUOUS
  0
LAYER
  2
122
 70
    64
 62
     7
  6
CONTINUOUS
  0
LAYER
  2
123
 70
    64
 62
     7
  6
CONTINUOUS
  0
LAYER
  2
124
 70
    64
 62
     7
  6
CONTINUOUS
  0
LAYER
  2
125
 70
    64
 62
     7
  6
CONTINUOUS
  0
LAYER
  2
126
 70
    64
 62
     7
  6
CONTINUOUS
  0
LAYER
  2
127
 70
    64
 62
     7
  6
CONTINUOUS
  0
LAYER
  2
128
 70
    64
 62
     7
  6
CONTINUOUS
  0
LAYER
  2
129
 70
    64
 62
     7
  6
CONTINUOUS
  0
LAYER
  2
130
 70
    64
 62
     7
  6
CONTINUOUS
  0
LAYER
  2
131
 70
    64
 62
     7
  6
CONTINUOUS
  0
LAYER
  2
132
 70
    64
 62
     7
  6
CONTINUOUS
  0
LAYER
  2
133
 70
    64
 62
     7
  6
CONTINUOUS
  0
LAYER
  2
134
 70
    64
 62
     7
  6
CONTINUOUS
  0
LAYER
  2
135
 70
    64
 62
     7
  6
CONTINUOUS
  0
LAYER
  2
136
 70
    64
 62
     7
  6
CONTINUOUS
  0
LAYER
  2
137
 70
    64
 62
     7
  6
CONTINUOUS
  0
LAYER
  2
138
 70
    64
 62
     7
  6
CONTINUOUS
  0
LAYER
  2
139
 70
    64
 62
     7
  6
CONTINUOUS
  0
LAYER
  2
140
 70
    64
 62
     7
  6
CONTINUOUS
  0
LAYER
  2
141
 70
    64
 62
     7
  6
CONTINUOUS
  0
LAYER
  2
142
 70
    64
 62
     7
  6
CONTINUOUS
  0
LAYER
  2
143
 70
    64
 62
     7
  6
CONTINUOUS
  0
LAYER
  2
144
 70
    64
 62
     7
  6
CONTINUOUS
  0
LAYER
  2
145
 70
    64
 62
     7
  6
CONTINUOUS
  0
LAYER
  2
146
 70
    64
 62
     7
  6
CONTINUOUS
  0
LAYER
  2
147
 70
    64
 62
     7
  6
CONTINUOUS
  0
LAYER
  2
148
 70
    64
 62
     7
  6
CONTINUOUS
  0
LAYER
  2
149
 70
    64
 62
     7
  6
CONTINUOUS
  0
LAYER
  2
150
 70
    64
 62
     7
  6
CONTINUOUS
  0
LAYER
  2
151
 70
    64
 62
     7
  6
CONTINUOUS
  0
LAYER
  2
152
 70
    64
 62
     7
  6
CONTINUOUS
  0
LAYER
  2
153
 70
    64
 62
     7
  6
CONTINUOUS
  0
LAYER
  2
154
 70
    64
 62
     7
  6
CONTINUOUS
  0
LAYER
  2
155
 70
    64
 62
     7
  6
CONTINUOUS
  0
LAYER
  2
156
 70
    64
 62
     7
  6
CONTINUOUS
  0
LAYER
  2
157
 70
    64
 62
     7
  6
CONTINUOUS
  0
LAYER
  2
158
 70
    64
 62
     7
  6
CONTINUOUS
  0
LAYER
  2
159
 70
    64
 62
     7
  6
CONTINUOUS
  0
LAYER
  2
160
 70
    64
 62
     7
  6
CONTINUOUS
  0
LAYER
  2
161
 70
    64
 62
     7
  6
CONTINUOUS
  0
LAYER
  2
162
 70
    64
 62
     7
  6
CONTINUOUS
  0
LAYER
  2
163
 70
    64
 62
     7
  6
CONTINUOUS
  0
LAYER
  2
164
 70
    64
 62
     7
  6
CONTINUOUS
  0
LAYER
  2
165
 70
    64
 62
     7
  6
CONTINUOUS
  0
LAYER
  2
166
 70
    64
 62
     7
  6
CONTINUOUS
  0
LAYER
  2
167
 70
    64
 62
     7
  6
CONTINUOUS
  0
LAYER
  2
168
 70
    64
 62
     7
  6
CONTINUOUS
  0
LAYER
  2
169
 70
    64
 62
     7
  6
CONTINUOUS
  0
LAYER
  2
170
 70
    64
 62
     7
  6
CONTINUOUS
  0
LAYER
  2
171
 70
    64
 62
     7
  6
CONTINUOUS
  0
LAYER
  2
172
 70
    64
 62
     7
  6
CONTINUOUS
  0
LAYER
  2
173
 70
    64
 62
     7
  6
CONTINUOUS
  0
LAYER
  2
174
 70
    64
 62
     7
  6
CONTINUOUS
  0
LAYER
  2
175
 70
    64
 62
     7
  6
CONTINUOUS
  0
LAYER
  2
176
 70
    64
 62
     7
  6
CONTINUOUS
  0
LAYER
  2
177
 70
    64
 62
     7
  6
CONTINUOUS
  0
LAYER
  2
178
 70
    64
 62
     7
  6
CONTINUOUS
  0
LAYER
  2
179
 70
    64
 62
     7
  6
CONTINUOUS
  0
LAYER
  2
180
 70
    64
 62
     7
  6
CONTINUOUS
  0
LAYER
  2
181
 70
    64
 62
     7
  6
CONTINUOUS
  0
LAYER
  2
182
 70
    64
 62
     7
  6
CONTINUOUS
  0
LAYER
  2
183
 70
    64
 62
     7
  6
CONTINUOUS
  0
LAYER
  2
184
 70
    64
 62
     7
  6
CONTINUOUS
  0
LAYER
  2
185
 70
    64
 62
     7
  6
CONTINUOUS
  0
LAYER
  2
186
 70
    64
 62
     7
  6
CONTINUOUS
  0
LAYER
  2
187
 70
    64
 62
     7
  6
CONTINUOUS
  0
LAYER
  2
188
 70
    64
 62
     7
  6
CONTINUOUS
  0
LAYER
  2
189
 70
    64
 62
     7
  6
CONTINUOUS
  0
LAYER
  2
190
 70
    64
 62
     7
  6
CONTINUOUS
  0
LAYER
  2
191
 70
    64
 62
     7
  6
CONTINUOUS
  0
LAYER
  2
192
 70
    64
 62
     7
  6
CONTINUOUS
  0
LAYER
  2
193
 70
    64
 62
     7
  6
CONTINUOUS
  0
LAYER
  2
194
 70
    64
 62
     7
  6
CONTINUOUS
  0
LAYER
  2
195
 70
    64
 62
     7
  6
CONTINUOUS
  0
LAYER
  2
196
 70
    64
 62
     7
  6
CONTINUOUS
  0
LAYER
  2
197
 70
    64
 62
     7
  6
CONTINUOUS
  0
LAYER
  2
198
 70
    64
 62
     7
  6
CONTINUOUS
  0
LAYER
  2
199
 70
    64
 62
     7
  6
CONTINUOUS
  0
LAYER
  2
200
 70
    64
 62
     7
  6
CONTINUOUS
  0
LAYER
  2
201
 70
    64
 62
     7
  6
CONTINUOUS
  0
LAYER
  2
202
 70
    64
 62
     7
  6
CONTINUOUS
  0
LAYER
  2
203
 70
    64
 62
     7
  6
CONTINUOUS
  0
LAYER
  2
204
 70
    64
 62
     7
  6
CONTINUOUS
  0
LAYER
  2
205
 70
    64
 62
     7
  6
CONTINUOUS
  0
LAYER
  2
206
 70
    64
 62
     7
  6
CONTINUOUS
  0
LAYER
  2
207
 70
    64
 62
     7
  6
CONTINUOUS
  0
LAYER
  2
208
 70
    64
 62
     7
  6
CONTINUOUS
  0
LAYER
  2
209
 70
    64
 62
     7
  6
CONTINUOUS
  0
LAYER
  2
210
 70
    64
 62
     7
  6
CONTINUOUS
  0
LAYER
  2
211
 70
    64
 62
     7
  6
CONTINUOUS
  0
LAYER
  2
212
 70
    64
 62
     7
  6
CONTINUOUS
  0
LAYER
  2
213
 70
    64
 62
     7
  6
CONTINUOUS
  0
LAYER
  2
214
 70
    64
 62
     7
  6
CONTINUOUS
  0
LAYER
  2
215
 70
    64
 62
     7
  6
CONTINUOUS
  0
LAYER
  2
216
 70
    64
 62
     7
  6
CONTINUOUS
  0
LAYER
  2
217
 70
    64
 62
     7
  6
CONTINUOUS
  0
LAYER
  2
218
 70
    64
 62
     7
  6
CONTINUOUS
  0
LAYER
  2
219
 70
    64
 62
     7
  6
CONTINUOUS
  0
LAYER
  2
220
 70
    64
 62
     7
  6
CONTINUOUS
  0
LAYER
  2
221
 70
    64
 62
     7
  6
CONTINUOUS
  0
LAYER
  2
222
 70
    64
 62
     7
  6
CONTINUOUS
  0
LAYER
  2
223
 70
    64
 62
     7
  6
CONTINUOUS
  0
LAYER
  2
224
 70
    64
 62
     7
  6
CONTINUOUS
  0
LAYER
  2
225
 70
    64
 62
     7
  6
CONTINUOUS
  0
LAYER
  2
226
 70
    64
 62
     7
  6
CONTINUOUS
  0
LAYER
  2
227
 70
    64
 62
     7
  6
CONTINUOUS
  0
LAYER
  2
228
 70
    64
 62
     7
  6
CONTINUOUS
  0
LAYER
  2
229
 70
    64
 62
     7
  6
CONTINUOUS
  0
LAYER
  2
230
 70
    64
 62
     7
  6
CONTINUOUS
  0
LAYER
  2
231
 70
    64
 62
     7
  6
CONTINUOUS
  0
LAYER
  2
232
 70
    64
 62
     7
  6
CONTINUOUS
  0
LAYER
  2
233
 70
    64
 62
     7
  6
CONTINUOUS
  0
LAYER
  2
234
 70
    64
 62
     7
  6
CONTINUOUS
  0
LAYER
  2
235
 70
    64
 62
     7
  6
CONTINUOUS
  0
LAYER
  2
236
 70
    64
 62
     7
  6
CONTINUOUS
  0
LAYER
  2
237
 70
    64
 62
     7
  6
CONTINUOUS
  0
LAYER
  2
238
 70
    64
 62
     7
  6
CONTINUOUS
  0
LAYER
  2
239
 70
    64
 62
     7
  6
CONTINUOUS
  0
LAYER
  2
240
 70
    64
 62
     7
  6
CONTINUOUS
  0
LAYER
  2
241
 70
    64
 62
     7
  6
CONTINUOUS
  0
LAYER
  2
242
 70
    64
 62
     7
  6
CONTINUOUS
  0
LAYER
  2
243
 70
    64
 62
     7
  6
CONTINUOUS
  0
LAYER
  2
244
 70
    64
 62
     7
  6
CONTINUOUS
  0
LAYER
  2
245
 70
    64
 62
     7
  6
CONTINUOUS
  0
LAYER
  2
246
 70
    64
 62
     7
  6
CONTINUOUS
  0
LAYER
  2
247
 70
    64
 62
     7
  6
CONTINUOUS
  0
LAYER
  2
248
 70
    64
 62
     7
  6
CONTINUOUS
  0
LAYER
  2
249
 70
    64
 62
     7
  6
CONTINUOUS
  0
LAYER
  2
250
 70
    64
 62
     7
  6
CONTINUOUS
  0
LAYER
  2
251
 70
    64
 62
     7
  6
CONTINUOUS
  0
LAYER
  2
252
 70
    64
 62
     7
  6
CONTINUOUS
  0
LAYER
  2
253
 70
    64
 62
     7
  6
CONTINUOUS
  0
LAYER
  2
254
 70
    64
 62
     7
  6
CONTINUOUS
  0
LAYER
  2
255
 70
    64
 62
     7
  6
CONTINUOUS
  0
ENDTAB
  0
TABLE
  2
STYLE
 70
     2
  0
STYLE
  2
STANDARD
 70
    64
 40
0.0
 41
1.0
 50
0.0
 71
     0
 42
3.000000
  3
TXT
  4
BIGFONT
  0
ENDTAB
  0
ENDSEC
  0
SECTION
  2
ENTITIES
  0
LINE
  8
99
  6
CONTINUOUS
 62
     3
 10
-3.0500106811523437
 20
-103.39999914169312
 11
 23.75
 21
-103.39999914169312
  0
ARC
  8
99
  6
CONTINUOUS
 62
     3
 10
-3.0500106811523437
 20
-101.79999876022339
 40
 1.6000000238418579
 50
-179.9999980615126
 51
-90.000000851989171
  0
LINE
  8
99
  6
CONTINUOUS
 62
     3
 10
 23.75
 20
-103.39999914169312
 11
 23.75
 21
-104.99999952316284
  0
LINE
  8
99
  6
CONTINUOUS
 62
     3
 10
 23.75
 20
-104.99999952316284
 11
-3.0500106811523437
 21
-104.99999952316284
  0
ARC
  8
99
  6
CONTINUOUS
 62
     3
 10
-3.0500106811523437
 20
-101.79999876022339
 40
 3.2000000476837158
 50
-179.9999980615126
 51
-90.000000851989171
  0
LINE
  8
99
  6
CONTINUOUS
 62
     3
 10
-4.6500091552734375
 20
-33.200000263750546
 11
-4.6500091552734375
 21
-101.79999876022339
  0
ARC
  8
99
  6
CONTINUOUS
 62
     3
 10
-7.850006103515625
 20
-33.200000263750546
 40
 3.2000000476837158
 50
 0
 51
 90.000004039712721
  0
LINE
  8
99
  6
CONTINUOUS
 62
     3
 10
-6.2500076293945313
 20
-101.79999876022339
 11
-6.2500076293945313
 21
-33.200000263750546
  0
ARC
  8
99
  6
CONTINUOUS
 62
     3
 10
-7.850006103515625
 20
-33.200000263750546
 40
 1.6000000238418579
 50
 0
 51
 90.000004039712721
  0
LINE
  8
99
  6
CONTINUOUS
 62
     3
 10
-23.75
 20
-29.999999523162842
 11
-7.850006103515625
 21
-29.999999523162842
  0
LINE
  8
99
  6
CONTINUOUS
 62
     3
 10
-7.850006103515625
 20
-31.599999904632568
 11
-23.75
 21
-31.599999904632568
  0
LINE
  8
99
  6
CONTINUOUS
 62
     3
 10
-23.75
 20
-31.599999904632568
 11
-23.75
 21
-29.999999523162842
  0
POINT
  8
99
  6
CONTINUOUS
 62
     3
 10
 13.749977111816406
 20
-104.99999952316284
  0
LINE
  8
99
  6
DOT
 62
     3
 10
 11.649963378906236
 20
-104.99999952316284
 11
 11.649963378906236
 21
-103.39999914169312
  0
LINE
  8
99
  6
DOT
 62
     3
 10
 15.849960327148438
 20
-104.99999952316284
 11
 15.849960327148438
 21
-103.39999914169312
  0
POINT
  8
99
  6
CONTINUOUS
 62
     3
 10
-16.25
 20
-29.999999523162842
  0
LINE
  8
99
  6
DOT
 62
     3
 10
-17.850006103515625
 20
-29.999999523162842
 11
-17.850006103515625
 21
-31.599999904632568
  0
LINE
  8
99
  6
DOT
 62
     3
 10
-14.649993896484375
 20
-29.999999523162842
 11
-14.649993896484375
 21
-31.599999904632568
  0
LINE
  8
99
  6
DASHDOT
 62
     7
 10
-28.225959777832031
 20
 34.999996185302734
 11
 26.661865234375
 21
 34.999996185302734
  0
LINE
  8
99
  6
CONTINUOUS
 62
     3
 10
-23.75
 20
 70.000003814697266
 11
 23.75
 21
 70.000003814697266
  0
LINE
  8
99
  6
CONTINUOUS
 62
     3
 10
 23.75
 20
 70.000003814697266
 11
 23.75
 21
 0
  0
LINE
  8
99
  6
CONTINUOUS
 62
     3
 10
 23.75
 20
 0
 11
-23.75
 21
 0
  0
LINE
  8
99
  6
CONTINUOUS
 62
     3
 10
-23.75
 20
 0
 11
-23.75
 21
 70.000003814697266
  0
CIRCLE
  8
99
  6
CONTINUOUS
 62
     3
 10
-16.250007629394531
 20
 34.999996185302734
 40
 1.6000000238418579
  0
CIRCLE
  8
99
  6
CONTINUOUS
 62
     3
 10
-16.250007629394531
 20
 49.999996185302727
 40
 1.6000000238418579
  0
CIRCLE
  8
99
  6
CONTINUOUS
 62
     3
 10
-16.250007629394531
 20
 19.999996185302734
 40
 1.6000000238418579
  0
CIRCLE
  8
99
  6
CONTINUOUS
 62
     3
 10
 13.749992370605469
 20
 59.999996185302727
 40
 2
  0
CIRCLE
  8
99
  6
CONTINUOUS
 62
     3
 10
 13.749992370605469
 20
 9.9999961853027344
 40
 2
  0
LINE
  8
99
  6
DOT
 62
     3
 10
-6.2499923706054687
 20
 0
 11
-6.2499923706054687
 21
 70.000003814697266
  0
LINE
  8
99
  6
CONTINUOUS
 62
     3
 10
-4.649993896484375
 20
 0
 11
-4.649993896484375
 21
 70.000003814697266
  0
LINE
  8
99
  6
CONTINUOUS
 62
     7
 10
 25.376602172851563
 20
-103.39999914169312
 11
 34.710006713867188
 21
-103.39999914169312
  0
LINE
  8
99
  6
CONTINUOUS
 62
     7
 10
 33.75
 20
-110.80207014083862
 11
 33.75
 21
-104.99999952316284
  0
LINE
  8
99
  6
CONTINUOUS
 62
     7
 10
 33.75
 20
-104.99999952316284
 11
 32.97354286469244
 21
-107.89777700203004
  0
LINE
  8
99
  6
CONTINUOUS
 62
     7
 10
 33.75
 20
-104.99999952316284
 11
 34.52645713530756
 21
-107.89777700203004
  0
LINE
  8
99
  6
CONTINUOUS
 62
     7
 10
 33.75
 20
-103.39999914169312
 11
 33.75
 21
-104.99999952316284
  0
TEXT
  8
99
  6
CONTINUOUS
 62
     7
 10
 32.789993321101925
 20
-101.79999566475419
 11
 32.789993067575864
 21
-95.999995664754195
 40
 2
 41
 0.8
  1
１．６
 50
 90.000004039712707
 72
  5
  0
LINE
  8
99
  6
CONTINUOUS
 62
     7
 10
 33.75
 20
-95.994372844696045
 11
 33.75
 21
-103.39999914169312
  0
LINE
  8
99
  6
CONTINUOUS
 62
     7
 10
 33.75
 20
-103.39999914169312
 11
 34.52645713530756
 21
-100.50222166282592
  0
LINE
  8
99
  6
CONTINUOUS
 62
     7
 10
 33.75
 20
-103.39999914169312
 11
 32.97354286469244
 21
-100.50222166282592
  0
LINE
  8
99
  6
DASHDOT
 62
     2
 10
-16.25
 20
-26.542446613311768
 11
-16.25
 21
-35.432672977447503
  0
LINE
  8
99
  6
DASHDOT
 62
     2
 10
 13.749977111816406
 20
-99.531245708465576
 11
 13.749977111816406
 21
-109.62740850448608
  0
TEXT
  8
99
  6
CONTINUOUS
 62
     7
 10
 34.740371704101563
 20
 67.856731414794922
 11
 44.240371704101563
 21
 67.856731414794922
 40
 2.5
 41
 0.8
  1
２－φ４
 50
 0
 72
  5
  0
LINE
  8
99
  6
CONTINUOUS
 62
     7
 10
 17.583282470703125
 20
 67.106731414794922
 11
 48.304489135742188
 21
 67.106731414794922
  0
LINE
  8
99
  6
CONTINUOUS
 62
     7
 10
 17.583282470703125
 20
 67.106731414794922
 11
 14.699447631835938
 21
 61.760250091552727
  0
LINE
  8
99
  6
CONTINUOUS
 62
     7
 10
 14.699447631835938
 20
 61.760250091552727
 11
 16.758500640222543
 21
 63.942061428184303
  0
LINE
  8
99
  6
CONTINUOUS
 62
     7
 10
 14.699447631835938
 20
 61.760250091552727
 11
 15.391734176521725
 21
 64.679280639533857
  0
TEXT
  8
99
  6
CONTINUOUS
 62
     7
 10
-56.33013916015625
 20
 63.958339691162109
 11
-41.83013916015625
 21
 63.958339691162109
 40
 2.5
 41
 0.8
  1
３－φ３．２
 50
 0
 72
  5
  0
LINE
  8
99
  6
CONTINUOUS
 62
     7
 10
-57.208351135253906
 20
 63.208339691162102
 11
-18.714729309082031
 21
 63.208339691162102
  0
LINE
  8
99
  6
CONTINUOUS
 62
     7
 10
-18.714729309082031
 20
 63.208339691162102
 11
-16.495025634765625
 21
 51.561550140380852
  0
LINE
  8
99
  6
CONTINUOUS
 62
     7
 10
-16.495025634765625
 20
 51.561550140380852
 11
-16.274805311839238
 21
 54.553456390477969
  0
LINE
  8
99
  6
CONTINUOUS
 62
     7
 10
-16.495025634765625
 20
 51.561550140380852
 11
-17.800262365730319
 21
 54.262727120169586
  0
LINE
  8
99
  6
CONTINUOUS
 62
     7
 10
-28.225959777832031
 20
 34.999996185302734
 11
-34.709999084472656
 21
 34.999996185302734
  0
LINE
  8
256
  6
CONTINUOUS
 62
     7
 10
-193.30000000000001
 20
 124.99999645625348
 11
-93.300000000000011
 21
 124.99999645625348
  0
LINE
  8
256
  6
CONTINUOUS
 62
     7
 10
-93.300000000000011
 20
 124.9999964562535
 11
-93.300000000000011
 21
 136.99999721136808
  0
TEXT
  8
256
  6
CONTINUOUS
 62
     7
 10
-188.30000000000001
 20
 127.99999604817611
 11
-134.30000000000001
 21
 127.99999604817611
 40
 6
 41
 1
  1
ＬＢ－Ｄ５１３０Ｄ
 50
 0
 72
  5
  0
LINE
  8
256
  6
CONTINUOUS
 62
     7
 10
 104.99998474121094
 20
-121.5
 11
 200
 21
-121.5
  0
LINE
  8
256
  6
CONTINUOUS
 62
     7
 10
 170.99998474121094
 20
-109.5
 11
 170.99998474121094
 21
-121.5
  0
TEXT
  8
256
  6
CONTINUOUS
 62
     7
 10
 112.5
 20
-134.25
 11
 160.5
 21
-134.25
 40
 6
 41
 1
  1
ＮＦ１０Ｍ－７５
 50
 0
 72
  5
  0
TEXT
  8
256
  6
CONTINUOUS
 62
     7
 10
 117.99998474121094
 20
-119.75
 11
 157.99998474121094
 21
-119.75
 40
 5
 41
 0.8
  1
主幹ＭＣＣＢ取付金具
 50
 0
 72
  5
  0
TEXT
  8
256
  6
CONTINUOUS
 62
     7
 10
 106.29998779296875
 20
-112.4499633789062
 11
 111.29998779296875
 21
-112.4499633789062
 40
 2.5
 41
 0.8
  1
品名
 50
 0
 72
  5
  0
TEXT
  8
256
  6
CONTINUOUS
 62
     7
 10
 106.29998779296875
 20
-124.45003051757811
 11
 111.29998779296875
 21
-124.45003051757811
 40
 2.5
 41
 0.8
  1
品番
 50
 0
 72
  5
  0
LINE
  8
256
  6
CONTINUOUS
 62
     7
 10
 104.99998474121094
 20
-139.5
 11
 104.99998474121094
 21
-109.5
  0
LINE
  8
256
  6
CONTINUOUS
 62
     7
 10
 104.99998474121094
 20
-109.5
 11
 200
 21
-109.5
  0
LINE
  8
256
  6
CONTINUOUS
 62
     7
 10
-193.30000000000001
 20
 136.99999721136808
 11
-193.30000000000001
 21
-139.49999999999994
  0
LINE
  8
256
  6
CONTINUOUS
 62
     7
 10
-193.30000000000001
 20
 136.99999721136808
 11
 200
 21
 136.99999721136808
  0
LINE
  8
256
  6
CONTINUOUS
 62
     7
 10
 200
 20
-139.5
 11
-193.30000000000001
 21
-139.49999999999994
  0
LINE
  8
256
  6
CONTINUOUS
 62
     7
 10
 200
 20
 136.99999721136808
 11
 200
 21
-139.5
  0
LINE
  8
99
  6
CONTINUOUS
 62
     7
 10
-16.250007629394531
 20
 54.178775787353509
 11
-16.250007629394531
 21
-10.959999084472656
  0
LINE
  8
99
  6
CONTINUOUS
 62
     7
 10
 13.749992370605469
 20
 65.701221466064453
 11
 13.749992370605469
 21
-10.959999084472656
  0
LINE
  8
99
  6
CONTINUOUS
 62
     7
 10
-16.250007629394531
 20
-9.9999980926513672
 11
 13.749992370605469
 21
-9.9999980926513672
  0
LINE
  8
99
  6
CONTINUOUS
 62
     7
 10
-16.250007629394531
 20
-9.9999980926513672
 11
-13.352230150527326
 21
-10.77645522795893
  0
LINE
  8
99
  6
CONTINUOUS
 62
     7
 10
-16.250007629394531
 20
-9.9999980926513672
 11
-13.352230150527326
 21
-9.2235409573438041
  0
LINE
  8
99
  6
CONTINUOUS
 62
     7
 10
 13.749992370605469
 20
-9.9999980926513672
 11
 10.852214891738264
 21
-9.2235409573438041
  0
LINE
  8
99
  6
CONTINUOUS
 62
     7
 10
 13.749992370605469
 20
-9.9999980926513672
 11
 10.852214891738264
 21
-10.77645522795893
  0
TEXT
  8
99
  6
CONTINUOUS
 62
     7
 10
-3.1000106811523436
 20
-9.0399990081787109
 11
 0.5999893188476566
 21
-9.0399990081787109
 40
 2
 41
 0.8
  1
30
 50
 0
 72
  5
  0
LINE
  8
99
  6
CONTINUOUS
 62
     7
 10
 23.75
 20
-2.0552425384521484
 11
 23.75
 21
-10.959999084472656
  0
LINE
  8
99
  6
CONTINUOUS
 62
     7
 10
 13.749992370605469
 20
-9.9999980926513672
 11
 23.75
 21
-9.9999980926513672
  0
LINE
  8
99
  6
CONTINUOUS
 62
     7
 10
 13.749992370605469
 20
-9.9999980926513672
 11
 16.647769849472674
 21
-10.77645522795893
  0
LINE
  8
99
  6
CONTINUOUS
 62
     7
 10
 13.749992370605469
 20
-9.9999980926513672
 11
 16.647769849472674
 21
-9.2235409573438041
  0
LINE
  8
99
  6
CONTINUOUS
 62
     7
 10
 23.75
 20
-9.9999980926513672
 11
 20.852222521132795
 21
-9.2235409573438041
  0
LINE
  8
99
  6
CONTINUOUS
 62
     7
 10
 23.75
 20
-9.9999980926513672
 11
 20.852222521132795
 21
-10.77645522795893
  0
TEXT
  8
99
  6
CONTINUOUS
 62
     7
 10
 16.899989318847656
 20
-9.0399990081787109
 11
 20.599989318847655
 21
-9.0399990081787109
 40
 2
 41
 0.8
  1
10
 50
 0
 72
  5
  0
LINE
  8
99
  6
CONTINUOUS
 62
     7
 10
-12.371833801269531
 20
 49.999996185302727
 11
-34.709999084472656
 21
 49.999996185302727
  0
LINE
  8
99
  6
CONTINUOUS
 62
     7
 10
-33.75
 20
 49.999996185302727
 11
-33.75
 21
 34.999996185302734
  0
LINE
  8
99
  6
CONTINUOUS
 62
     7
 10
-33.75
 20
 49.999996185302727
 11
-34.52645713530756
 21
 47.102218706435522
  0
LINE
  8
99
  6
CONTINUOUS
 62
     7
 10
-33.75
 20
 49.999996185302727
 11
-32.97354286469244
 21
 47.102218706435522
  0
LINE
  8
99
  6
CONTINUOUS
 62
     7
 10
-33.75
 20
 34.999996185302734
 11
-32.97354286469244
 21
 37.897773664169939
  0
LINE
  8
99
  6
CONTINUOUS
 62
     7
 10
-33.75
 20
 34.999996185302734
 11
-34.52645713530756
 21
 37.897773664169939
  0
TEXT
  8
99
  6
CONTINUOUS
 62
     7
 10
-34.709999049503544
 20
 40.649993177256313
 11
-34.70999921123569
 21
 44.349993177256316
 40
 2
 41
 0.8
  1
15
 50
 90.000004039712707
 72
  5
  0
LINE
  8
99
  6
CONTINUOUS
 62
     7
 10
-12.371833801269531
 20
 19.999996185302734
 11
-34.709999084472656
 21
 19.999996185302734
  0
LINE
  8
99
  6
CONTINUOUS
 62
     7
 10
-33.75
 20
 34.999996185302734
 11
-33.75
 21
 19.999996185302734
  0
LINE
  8
99
  6
CONTINUOUS
 62
     7
 10
-33.75
 20
 34.999996185302734
 11
-34.52645713530756
 21
 32.102218706435529
  0
LINE
  8
99
  6
CONTINUOUS
 62
     7
 10
-33.75
 20
 34.999996185302734
 11
-32.97354286469244
 21
 32.102218706435529
  0
LINE
  8
99
  6
CONTINUOUS
 62
     7
 10
-33.75
 20
 19.999996185302734
 11
-32.97354286469244
 21
 22.897773664169939
  0
LINE
  8
99
  6
CONTINUOUS
 62
     7
 10
-33.75
 20
 19.999996185302734
 11
-34.52645713530756
 21
 22.897773664169939
  0
TEXT
  8
99
  6
CONTINUOUS
 62
     7
 10
-34.709999049503544
 20
 25.649996991953582
 11
-34.70999921123569
 21
 29.349996991953581
 40
 2
 41
 0.8
  1
15
 50
 90.000004039712707
 72
  5
  0
LINE
  8
99
  6
CONTINUOUS
 62
     7
 10
-26.089797973632813
 20
 70.000003814697266
 11
-39.710006713867188
 21
 70.000003814697266
  0
LINE
  8
99
  6
CONTINUOUS
 62
     7
 10
-26.089797973632813
 20
 0
 11
-39.710006713867188
 21
 0
  0
LINE
  8
99
  6
CONTINUOUS
 62
     7
 10
-38.750007629394531
 20
 70.000003814697266
 11
-38.750007629394531
 21
 0
  0
LINE
  8
99
  6
CONTINUOUS
 62
     7
 10
-38.750007629394531
 20
 70.000003814697266
 11
-39.526464764702091
 21
 67.102226335830068
  0
LINE
  8
99
  6
CONTINUOUS
 62
     7
 10
-38.750007629394531
 20
 70.000003814697266
 11
-37.973550494086972
 21
 67.102226335830068
  0
LINE
  8
99
  6
CONTINUOUS
 62
     7
 10
-38.750007629394531
 20
 0
 11
-37.973550494086972
 21
 2.897777478867205
  0
LINE
  8
99
  6
CONTINUOUS
 62
     7
 10
-38.750007629394531
 20
 0
 11
-39.526464764702091
 21
 2.897777478867205
  0
TEXT
  8
99
  6
CONTINUOUS
 62
     7
 10
-39.710006678898075
 20
 33.150000806650844
 11
-39.710006840630221
 21
 36.850000806650847
 40
 2
 41
 0.8
  1
70
 50
 90.000004039712707
 72
  5
  0
LINE
  8
99
  6
CONTINUOUS
 62
     7
 10
 8.605743408203125
 20
 59.999996185302727
 11
 34.710006713867188
 21
 59.999996185302727
  0
LINE
  8
99
  6
CONTINUOUS
 62
     7
 10
 8.0448532104492187
 20
 9.9999961853027344
 11
 34.710006713867188
 21
 9.9999961853027344
  0
LINE
  8
99
  6
CONTINUOUS
 62
     7
 10
 33.75
 20
 59.999996185302727
 11
 33.75
 21
 9.9999961853027344
  0
LINE
  8
99
  6
CONTINUOUS
 62
     7
 10
 33.75
 20
 59.999996185302727
 11
 32.97354286469244
 21
 57.102218706435522
  0
LINE
  8
99
  6
CONTINUOUS
 62
     7
 10
 33.75
 20
 59.999996185302727
 11
 34.52645713530756
 21
 57.102218706435522
  0
LINE
  8
99
  6
CONTINUOUS
 62
     7
 10
 33.75
 20
 9.9999961853027344
 11
 34.52645713530756
 21
 12.897773664169939
  0
LINE
  8
99
  6
CONTINUOUS
 62
     7
 10
 33.75
 20
 9.9999961853027344
 11
 32.97354286469244
 21
 12.897773664169939
  0
TEXT
  8
99
  6
CONTINUOUS
 62
     7
 10
 32.789993321101925
 20
 33.149993177256306
 11
 32.789993159369779
 21
 36.849993177256316
 40
 2
 41
 0.8
  1
50
 50
 90.000004039712707
 72
  5
  0
LINE
  8
99
  6
CONTINUOUS
 62
     7
 10
-6.2500076293945313
 20
-27.524020671844482
 11
-6.2500076293945313
 21
-19.039996147155762
  0
LINE
  8
99
  6
CONTINUOUS
 62
     7
 10
 23.75
 20
-100.56890249252319
 11
 23.75
 21
-19.039996147155762
  0
LINE
  8
99
  6
CONTINUOUS
 62
     7
 10
 23.75
 20
-19.999999046325684
 11
-6.2500076293945313
 21
-19.999999046325684
  0
LINE
  8
99
  6
CONTINUOUS
 62
     7
 10
 23.75
 20
-19.999999046325684
 11
 20.852222521132795
 21
-19.22354191101812
  0
LINE
  8
99
  6
CONTINUOUS
 62
     7
 10
 23.75
 20
-19.999999046325684
 11
 20.852222521132795
 21
-20.776456181633247
  0
LINE
  8
99
  6
CONTINUOUS
 62
     7
 10
-6.2500076293945313
 20
-19.999999046325684
 11
-3.3522301505273262
 21
-20.776456181633247
  0
LINE
  8
99
  6
CONTINUOUS
 62
     7
 10
-6.2500076293945313
 20
-19.999999046325684
 11
-3.3522301505273262
 21
-19.22354191101812
  0
TEXT
  8
99
  6
CONTINUOUS
 62
     7
 10
 6.8999893188476706
 20
-19.039997100830078
 11
 10.599989318847669
 21
-19.039997100830078
 40
 2
 41
 0.8
  1
30
 50
 0
 72
  5
  0
LINE
  8
0
  6
CONTINUOUS
 62
     7
 10
-23.75
 20
 72.000003814697266
 11
-23.75
 21
 80.960003814697274
  0
LINE
  8
0
  6
CONTINUOUS
 62
     7
 10
 23.75
 20
 72.000003814697266
 11
 23.75
 21
 80.960003814697274
  0
LINE
  8
0
  6
CONTINUOUS
 62
     7
 10
-23.75
 20
 80.000003814697266
 11
 23.75
 21
 80.000003814697266
  0
LINE
  8
0
  6
CONTINUOUS
 62
     7
 10
-23.75
 20
 80.000003814697266
 11
-20.852222521132795
 21
 79.223546679389699
  0
LINE
  8
0
  6
CONTINUOUS
 62
     7
 10
-23.75
 20
 80.000003814697266
 11
-20.852222521132795
 21
 80.776460950004832
  0
LINE
  8
0
  6
CONTINUOUS
 62
     7
 10
 23.75
 20
 80.000003814697266
 11
 20.852222521132795
 21
 80.776460950004832
  0
LINE
  8
0
  6
CONTINUOUS
 62
     7
 10
 23.75
 20
 80.000003814697266
 11
 20.852222521132795
 21
 79.223546679389699
  0
TEXT
  8
0
  6
CONTINUOUS
 62
     7
 10
-4.2700000000000005
 20
 80.960003814697259
 11
 4.2700000000000005
 21
 80.960003814697274
 40
 2.2000000000000002
 41
 0.8
  1
47.5
 50
 0
 72
  5
  0
LINE
  8
0
  6
CONTINUOUS
 62
     7
 10
-23.75
 20
-2
 11
-23.75
 21
-10.959998092651375
  0
LINE
  8
0
  6
CONTINUOUS
 62
     7
 10
-16.250007629394531
 20
-9.9999980926513672
 11
-23.75
 21
-9.9999980926513672
  0
LINE
  8
0
  6
CONTINUOUS
 62
     7
 10
-16.250007629394531
 20
-9.9999980926513672
 11
-19.147785108261736
 21
-9.2235409573438041
  0
LINE
  8
0
  6
CONTINUOUS
 62
     7
 10
-16.250007629394531
 20
-9.9999980926513672
 11
-19.147785108261736
 21
-10.77645522795893
  0
LINE
  8
0
  6
CONTINUOUS
 62
     7
 10
-23.75
 20
-9.9999980926513672
 11
-20.852222521132795
 21
-10.77645522795893
  0
LINE
  8
0
  6
CONTINUOUS
 62
     7
 10
-23.75
 20
-9.9999980926513672
 11
-20.852222521132795
 21
-9.2235409573438041
  0
TEXT
  8
0
  6
CONTINUOUS
 62
     7
 10
-23.14000381469727
 20
-9.0399980926513734
 11
-16.860003814697269
 21
-9.0399980926513717
 40
 2.2000000000000002
 41
 0.8
  1
7.5
 50
 0
 72
  5
  0
LINE
  8
0
  6
CONTINUOUS
 62
     7
 10
-23.75
 20
-27.999999523162842
 11
-23.75
 21
-19.039999046325683
  0
LINE
  8
0
  6
CONTINUOUS
 62
     7
 10
-23.75
 20
-19.999999046325684
 11
-6.2500076293945313
 21
-19.999999046325684
  0
LINE
  8
0
  6
CONTINUOUS
 62
     7
 10
-23.75
 20
-19.999999046325684
 11
-20.852222521132795
 21
-20.776456181633247
  0
LINE
  8
0
  6
CONTINUOUS
 62
     7
 10
-23.75
 20
-19.999999046325684
 11
-20.852222521132795
 21
-19.22354191101812
  0
LINE
  8
0
  6
CONTINUOUS
 62
     7
 10
-6.2500076293945313
 20
-19.999999046325684
 11
-9.1477851082617363
 21
-19.22354191101812
  0
LINE
  8
0
  6
CONTINUOUS
 62
     7
 10
-6.2500076293945313
 20
-19.999999046325684
 11
-9.1477851082617363
 21
-20.776456181633247
  0
TEXT
  8
0
  6
CONTINUOUS
 62
     7
 10
-19.270003814697265
 20
-19.039999046325679
 11
-10.730003814697266
 21
-19.039999046325683
 40
 2.2000000000000002
 41
 0.8
  1
17.5
 50
 0
 72
  5
  0
LINE
  8
0
  6
CONTINUOUS
 62
     7
 10
-5.25
 20
-29.999999523162842
 11
 40.710006713867188
 21
-29.999999523162842
  0
LINE
  8
0
  6
CONTINUOUS
 62
     7
 10
 24.75
 20
-104.99999952316284
 11
 40.710006713867188
 21
-104.99999952316284
  0
LINE
  8
0
  6
CONTINUOUS
 62
     7
 10
 39.710006713867188
 20
-29.999999523162842
 11
 39.710006713867188
 21
-104.99999952316284
  0
LINE
  8
0
  6
CONTINUOUS
 62
     7
 10
 39.710006713867188
 20
-29.999999523162842
 11
 38.933549578559628
 21
-32.897777002030047
  0
LINE
  8
0
  6
CONTINUOUS
 62
     7
 10
 39.710006713867188
 20
-29.999999523162842
 11
 40.486463849174747
 21
-32.897777002030047
  0
LINE
  8
0
  6
CONTINUOUS
 62
     7
 10
 39.710006713867188
 20
-104.99999952316284
 11
 40.486463849174747
 21
-102.10222204429564
  0
LINE
  8
0
  6
CONTINUOUS
 62
     7
 10
 39.710006713867188
 20
-104.99999952316284
 11
 38.933549578559628
 21
-102.10222204429564
  0
TEXT
  8
0
  6
CONTINUOUS
 62
     7
 10
 38.910006713867176
 20
-69.499999523162842
 11
 38.910006713867176
 21
-65.499999523162842
 40
 2.5
 41
 0.8
  1
75
 50
 90.000001535234517
 72
  5
  0
ENDSEC
  0
EOF
