  0
SECTION
  2
HEADER
  9
$INSBASE
 10
0.0
20
0.0
  9
$REGENMODE
 70
     1
  9
$DRAGMODE
 70
     1
  9
$DIMTAD
 70
     1
  9
$EXTMIN
 10
-210.000000
 20
-148.500000
 30
 0.0
  9
$EXTMAX
 10
210.000000
 20
148.500000
 30
 0.0
  9
$LUPREC
 70
    3
  9
$AUPREC
 70
    3
  9
$LTSCALE
 40
26.250000
  0
ENDSEC
  0
SECTION
  2
TABLES
  0
TABLE
  2
LTYPE
 70
     6
  0
LTYPE
  2
CONTINUOUS
 70
    64
  3
SOLID
 72
    65
 73
     0
 40
0.0
  0
LTYPE
  2
DASHED2
 70
    64
  3
_ _ _ _ _ _ _ _ _ _ _ _ _ _ _ _ _ _ _ _ _ _ 
 72
    65
 73
     2
 40
0.5
 49
0.25
 49
-0.25
  0
LTYPE
  2
DASHED
 70
    64
  3
__ __ __ __ __ __ __ __ __ __ __ __ __ __ __
 72
    65
 73
     2
 40
0.75
 49
0.5
 49
-0.25
  0
LTYPE
  2
DASHEDX2
 70
    64
  3
____  ____  ____  ____  ____  ____  ____  __
 72
    65
 73
     2
 40
1.5
 49
1.0
 49
-0.5
  0
LTYPE
  2
DOT
 70
    64
  3
............................................
 72
    65
 73
     2
 40
0.25
 49
0
 49
-0.25
  0
LTYPE
  2
DASHDOT
 70
    64
  3
__ . __ . __ . __ . __ . __ . __ . __ . __ .
 72
    65
 73
     4
 40
1.0
 49
0.5
 49
-0.25
 49
0.0
 49
-0.25
  0
LTYPE
  2
CENTER
 70
    64
  3
____ _ ____ _ ____ _ ____ _ ____ _ ____ _ __
 72
    65
 73
     4
 40
2.0
 49
1.25
 49
-0.25
 49
0.25
 49
-0.25
  0
LTYPE
  2
DIVIDE
 70
    64
  3
__ . . __ . . __ . . __ . . __ . . __ . . __
 72
    65
 73
     6
 40
1.25
 49
0.5
 49
-0.25
 49
0.0
 49
-0.25
 49
0.0
 49
-0.25
  0
LTYPE
  2
PHANTOM2
 70
    64
  3
___ _ _ ___ _ _ ___ _ _ ___ _ _ ___ _ _ ___ 
 72
    65
 73
     6
 40
1.25
 49
0.625
 49
-0.125
 49
0.125
 49
-0.125
 49
0.125
 49
-0.125
  0
LTYPE
  2
DOTX2
 70
    64
  3
. . . . . . . . . . . . . . . . . . . . . . 
 72
    65
 73
     2
 40
0.5
 49
0
 49
-0.5
  0
ENDTAB
  0
TABLE
  2
LAYER
 70
   255
  0
LAYER
  2
0
 70
    64
 62
     7
  6
CONTINUOUS
  0
LAYER
  2
1
 70
    64
 62
     7
  6
CONTINUOUS
  0
LAYER
  2
2
 70
    64
 62
     7
  6
CONTINUOUS
  0
LAYER
  2
3
 70
    64
 62
     7
  6
CONTINUOUS
  0
LAYER
  2
4
 70
    64
 62
     7
  6
CONTINUOUS
  0
LAYER
  2
5
 70
    64
 62
     7
  6
CONTINUOUS
  0
LAYER
  2
6
 70
    64
 62
     7
  6
CONTINUOUS
  0
LAYER
  2
7
 70
    64
 62
     7
  6
CONTINUOUS
  0
LAYER
  2
8
 70
    64
 62
     7
  6
CONTINUOUS
  0
LAYER
  2
9
 70
    64
 62
     7
  6
CONTINUOUS
  0
LAYER
  2
10
 70
    64
 62
     7
  6
CONTINUOUS
  0
LAYER
  2
11
 70
    64
 62
     7
  6
CONTINUOUS
  0
LAYER
  2
12
 70
    64
 62
     7
  6
CONTINUOUS
  0
LAYER
  2
13
 70
    64
 62
     7
  6
CONTINUOUS
  0
LAYER
  2
14
 70
    64
 62
     7
  6
CONTINUOUS
  0
LAYER
  2
15
 70
    64
 62
     7
  6
CONTINUOUS
  0
LAYER
  2
16
 70
    64
 62
     7
  6
CONTINUOUS
  0
LAYER
  2
17
 70
    64
 62
     7
  6
CONTINUOUS
  0
LAYER
  2
18
 70
    64
 62
     7
  6
CONTINUOUS
  0
LAYER
  2
19
 70
    64
 62
     7
  6
CONTINUOUS
  0
LAYER
  2
20
 70
    64
 62
     7
  6
CONTINUOUS
  0
LAYER
  2
21
 70
    64
 62
     7
  6
CONTINUOUS
  0
LAYER
  2
22
 70
    64
 62
     7
  6
CONTINUOUS
  0
LAYER
  2
23
 70
    64
 62
     7
  6
CONTINUOUS
  0
LAYER
  2
24
 70
    64
 62
     7
  6
CONTINUOUS
  0
LAYER
  2
25
 70
    64
 62
     7
  6
CONTINUOUS
  0
LAYER
  2
26
 70
    64
 62
     7
  6
CONTINUOUS
  0
LAYER
  2
27
 70
    64
 62
     7
  6
CONTINUOUS
  0
LAYER
  2
28
 70
    64
 62
     7
  6
CONTINUOUS
  0
LAYER
  2
29
 70
    64
 62
     7
  6
CONTINUOUS
  0
LAYER
  2
30
 70
    64
 62
     7
  6
CONTINUOUS
  0
LAYER
  2
31
 70
    64
 62
     7
  6
CONTINUOUS
  0
LAYER
  2
32
 70
    64
 62
     7
  6
CONTINUOUS
  0
LAYER
  2
33
 70
    64
 62
     7
  6
CONTINUOUS
  0
LAYER
  2
34
 70
    64
 62
     7
  6
CONTINUOUS
  0
LAYER
  2
35
 70
    64
 62
     7
  6
CONTINUOUS
  0
LAYER
  2
36
 70
    64
 62
     7
  6
CONTINUOUS
  0
LAYER
  2
37
 70
    64
 62
     7
  6
CONTINUOUS
  0
LAYER
  2
38
 70
    64
 62
     7
  6
CONTINUOUS
  0
LAYER
  2
39
 70
    64
 62
     7
  6
CONTINUOUS
  0
LAYER
  2
40
 70
    64
 62
     7
  6
CONTINUOUS
  0
LAYER
  2
41
 70
    64
 62
     7
  6
CONTINUOUS
  0
LAYER
  2
42
 70
    64
 62
     7
  6
CONTINUOUS
  0
LAYER
  2
43
 70
    64
 62
     7
  6
CONTINUOUS
  0
LAYER
  2
44
 70
    64
 62
     7
  6
CONTINUOUS
  0
LAYER
  2
45
 70
    64
 62
     7
  6
CONTINUOUS
  0
LAYER
  2
46
 70
    64
 62
     7
  6
CONTINUOUS
  0
LAYER
  2
47
 70
    64
 62
     7
  6
CONTINUOUS
  0
LAYER
  2
48
 70
    64
 62
     7
  6
CONTINUOUS
  0
LAYER
  2
49
 70
    64
 62
     7
  6
CONTINUOUS
  0
LAYER
  2
50
 70
    64
 62
     7
  6
CONTINUOUS
  0
LAYER
  2
51
 70
    64
 62
     7
  6
CONTINUOUS
  0
LAYER
  2
52
 70
    64
 62
     7
  6
CONTINUOUS
  0
LAYER
  2
53
 70
    64
 62
     7
  6
CONTINUOUS
  0
LAYER
  2
54
 70
    64
 62
     7
  6
CONTINUOUS
  0
LAYER
  2
55
 70
    64
 62
     7
  6
CONTINUOUS
  0
LAYER
  2
56
 70
    64
 62
     7
  6
CONTINUOUS
  0
LAYER
  2
57
 70
    64
 62
     7
  6
CONTINUOUS
  0
LAYER
  2
58
 70
    64
 62
     7
  6
CONTINUOUS
  0
LAYER
  2
59
 70
    64
 62
     7
  6
CONTINUOUS
  0
LAYER
  2
60
 70
    64
 62
     7
  6
CONTINUOUS
  0
LAYER
  2
61
 70
    64
 62
     7
  6
CONTINUOUS
  0
LAYER
  2
62
 70
    64
 62
     7
  6
CONTINUOUS
  0
LAYER
  2
63
 70
    64
 62
     7
  6
CONTINUOUS
  0
LAYER
  2
64
 70
    64
 62
     7
  6
CONTINUOUS
  0
LAYER
  2
65
 70
    64
 62
     7
  6
CONTINUOUS
  0
LAYER
  2
66
 70
    64
 62
     7
  6
CONTINUOUS
  0
LAYER
  2
67
 70
    64
 62
     7
  6
CONTINUOUS
  0
LAYER
  2
68
 70
    64
 62
     7
  6
CONTINUOUS
  0
LAYER
  2
69
 70
    64
 62
     7
  6
CONTINUOUS
  0
LAYER
  2
70
 70
    64
 62
     7
  6
CONTINUOUS
  0
LAYER
  2
71
 70
    64
 62
     7
  6
CONTINUOUS
  0
LAYER
  2
72
 70
    64
 62
     7
  6
CONTINUOUS
  0
LAYER
  2
73
 70
    64
 62
     7
  6
CONTINUOUS
  0
LAYER
  2
74
 70
    64
 62
     7
  6
CONTINUOUS
  0
LAYER
  2
75
 70
    64
 62
     7
  6
CONTINUOUS
  0
LAYER
  2
76
 70
    64
 62
     7
  6
CONTINUOUS
  0
LAYER
  2
77
 70
    64
 62
     7
  6
CONTINUOUS
  0
LAYER
  2
78
 70
    64
 62
     7
  6
CONTINUOUS
  0
LAYER
  2
79
 70
    64
 62
     7
  6
CONTINUOUS
  0
LAYER
  2
80
 70
    64
 62
     7
  6
CONTINUOUS
  0
LAYER
  2
81
 70
    64
 62
     7
  6
CONTINUOUS
  0
LAYER
  2
82
 70
    64
 62
     7
  6
CONTINUOUS
  0
LAYER
  2
83
 70
    64
 62
     7
  6
CONTINUOUS
  0
LAYER
  2
84
 70
    64
 62
     7
  6
CONTINUOUS
  0
LAYER
  2
85
 70
    64
 62
     7
  6
CONTINUOUS
  0
LAYER
  2
86
 70
    64
 62
     7
  6
CONTINUOUS
  0
LAYER
  2
87
 70
    64
 62
     7
  6
CONTINUOUS
  0
LAYER
  2
88
 70
    64
 62
     7
  6
CONTINUOUS
  0
LAYER
  2
89
 70
    64
 62
     7
  6
CONTINUOUS
  0
LAYER
  2
90
 70
    64
 62
     7
  6
CONTINUOUS
  0
LAYER
  2
91
 70
    64
 62
     7
  6
CONTINUOUS
  0
LAYER
  2
92
 70
    64
 62
     7
  6
CONTINUOUS
  0
LAYER
  2
93
 70
    64
 62
     7
  6
CONTINUOUS
  0
LAYER
  2
94
 70
    64
 62
     7
  6
CONTINUOUS
  0
LAYER
  2
95
 70
    64
 62
     7
  6
CONTINUOUS
  0
LAYER
  2
96
 70
    64
 62
     7
  6
CONTINUOUS
  0
LAYER
  2
97
 70
    64
 62
     7
  6
CONTINUOUS
  0
LAYER
  2
98
 70
    64
 62
     7
  6
CONTINUOUS
  0
LAYER
  2
99
 70
    64
 62
     7
  6
CONTINUOUS
  0
LAYER
  2
100
 70
    64
 62
     7
  6
CONTINUOUS
  0
LAYER
  2
101
 70
    64
 62
     7
  6
CONTINUOUS
  0
LAYER
  2
102
 70
    64
 62
     7
  6
CONTINUOUS
  0
LAYER
  2
103
 70
    64
 62
     7
  6
CONTINUOUS
  0
LAYER
  2
104
 70
    64
 62
     7
  6
CONTINUOUS
  0
LAYER
  2
105
 70
    64
 62
     7
  6
CONTINUOUS
  0
LAYER
  2
106
 70
    64
 62
     7
  6
CONTINUOUS
  0
LAYER
  2
107
 70
    64
 62
     7
  6
CONTINUOUS
  0
LAYER
  2
108
 70
    64
 62
     7
  6
CONTINUOUS
  0
LAYER
  2
109
 70
    64
 62
     7
  6
CONTINUOUS
  0
LAYER
  2
110
 70
    64
 62
     7
  6
CONTINUOUS
  0
LAYER
  2
111
 70
    64
 62
     7
  6
CONTINUOUS
  0
LAYER
  2
112
 70
    64
 62
     7
  6
CONTINUOUS
  0
LAYER
  2
113
 70
    64
 62
     7
  6
CONTINUOUS
  0
LAYER
  2
114
 70
    64
 62
     7
  6
CONTINUOUS
  0
LAYER
  2
115
 70
    64
 62
     7
  6
CONTINUOUS
  0
LAYER
  2
116
 70
    64
 62
     7
  6
CONTINUOUS
  0
LAYER
  2
117
 70
    64
 62
     7
  6
CONTINUOUS
  0
LAYER
  2
118
 70
    64
 62
     7
  6
CONTINUOUS
  0
LAYER
  2
119
 70
    64
 62
     7
  6
CONTINUOUS
  0
LAYER
  2
120
 70
    64
 62
     7
  6
CONTINUOUS
  0
LAYER
  2
121
 70
    64
 62
     7
  6
CONTINUOUS
  0
LAYER
  2
122
 70
    64
 62
     7
  6
CONTINUOUS
  0
LAYER
  2
123
 70
    64
 62
     7
  6
CONTINUOUS
  0
LAYER
  2
124
 70
    64
 62
     7
  6
CONTINUOUS
  0
LAYER
  2
125
 70
    64
 62
     7
  6
CONTINUOUS
  0
LAYER
  2
126
 70
    64
 62
     7
  6
CONTINUOUS
  0
LAYER
  2
127
 70
    64
 62
     7
  6
CONTINUOUS
  0
LAYER
  2
128
 70
    64
 62
     7
  6
CONTINUOUS
  0
LAYER
  2
129
 70
    64
 62
     7
  6
CONTINUOUS
  0
LAYER
  2
130
 70
    64
 62
     7
  6
CONTINUOUS
  0
LAYER
  2
131
 70
    64
 62
     7
  6
CONTINUOUS
  0
LAYER
  2
132
 70
    64
 62
     7
  6
CONTINUOUS
  0
LAYER
  2
133
 70
    64
 62
     7
  6
CONTINUOUS
  0
LAYER
  2
134
 70
    64
 62
     7
  6
CONTINUOUS
  0
LAYER
  2
135
 70
    64
 62
     7
  6
CONTINUOUS
  0
LAYER
  2
136
 70
    64
 62
     7
  6
CONTINUOUS
  0
LAYER
  2
137
 70
    64
 62
     7
  6
CONTINUOUS
  0
LAYER
  2
138
 70
    64
 62
     7
  6
CONTINUOUS
  0
LAYER
  2
139
 70
    64
 62
     7
  6
CONTINUOUS
  0
LAYER
  2
140
 70
    64
 62
     7
  6
CONTINUOUS
  0
LAYER
  2
141
 70
    64
 62
     7
  6
CONTINUOUS
  0
LAYER
  2
142
 70
    64
 62
     7
  6
CONTINUOUS
  0
LAYER
  2
143
 70
    64
 62
     7
  6
CONTINUOUS
  0
LAYER
  2
144
 70
    64
 62
     7
  6
CONTINUOUS
  0
LAYER
  2
145
 70
    64
 62
     7
  6
CONTINUOUS
  0
LAYER
  2
146
 70
    64
 62
     7
  6
CONTINUOUS
  0
LAYER
  2
147
 70
    64
 62
     7
  6
CONTINUOUS
  0
LAYER
  2
148
 70
    64
 62
     7
  6
CONTINUOUS
  0
LAYER
  2
149
 70
    64
 62
     7
  6
CONTINUOUS
  0
LAYER
  2
150
 70
    64
 62
     7
  6
CONTINUOUS
  0
LAYER
  2
151
 70
    64
 62
     7
  6
CONTINUOUS
  0
LAYER
  2
152
 70
    64
 62
     7
  6
CONTINUOUS
  0
LAYER
  2
153
 70
    64
 62
     7
  6
CONTINUOUS
  0
LAYER
  2
154
 70
    64
 62
     7
  6
CONTINUOUS
  0
LAYER
  2
155
 70
    64
 62
     7
  6
CONTINUOUS
  0
LAYER
  2
156
 70
    64
 62
     7
  6
CONTINUOUS
  0
LAYER
  2
157
 70
    64
 62
     7
  6
CONTINUOUS
  0
LAYER
  2
158
 70
    64
 62
     7
  6
CONTINUOUS
  0
LAYER
  2
159
 70
    64
 62
     7
  6
CONTINUOUS
  0
LAYER
  2
160
 70
    64
 62
     7
  6
CONTINUOUS
  0
LAYER
  2
161
 70
    64
 62
     7
  6
CONTINUOUS
  0
LAYER
  2
162
 70
    64
 62
     7
  6
CONTINUOUS
  0
LAYER
  2
163
 70
    64
 62
     7
  6
CONTINUOUS
  0
LAYER
  2
164
 70
    64
 62
     7
  6
CONTINUOUS
  0
LAYER
  2
165
 70
    64
 62
     7
  6
CONTINUOUS
  0
LAYER
  2
166
 70
    64
 62
     7
  6
CONTINUOUS
  0
LAYER
  2
167
 70
    64
 62
     7
  6
CONTINUOUS
  0
LAYER
  2
168
 70
    64
 62
     7
  6
CONTINUOUS
  0
LAYER
  2
169
 70
    64
 62
     7
  6
CONTINUOUS
  0
LAYER
  2
170
 70
    64
 62
     7
  6
CONTINUOUS
  0
LAYER
  2
171
 70
    64
 62
     7
  6
CONTINUOUS
  0
LAYER
  2
172
 70
    64
 62
     7
  6
CONTINUOUS
  0
LAYER
  2
173
 70
    64
 62
     7
  6
CONTINUOUS
  0
LAYER
  2
174
 70
    64
 62
     7
  6
CONTINUOUS
  0
LAYER
  2
175
 70
    64
 62
     7
  6
CONTINUOUS
  0
LAYER
  2
176
 70
    64
 62
     7
  6
CONTINUOUS
  0
LAYER
  2
177
 70
    64
 62
     7
  6
CONTINUOUS
  0
LAYER
  2
178
 70
    64
 62
     7
  6
CONTINUOUS
  0
LAYER
  2
179
 70
    64
 62
     7
  6
CONTINUOUS
  0
LAYER
  2
180
 70
    64
 62
     7
  6
CONTINUOUS
  0
LAYER
  2
181
 70
    64
 62
     7
  6
CONTINUOUS
  0
LAYER
  2
182
 70
    64
 62
     7
  6
CONTINUOUS
  0
LAYER
  2
183
 70
    64
 62
     7
  6
CONTINUOUS
  0
LAYER
  2
184
 70
    64
 62
     7
  6
CONTINUOUS
  0
LAYER
  2
185
 70
    64
 62
     7
  6
CONTINUOUS
  0
LAYER
  2
186
 70
    64
 62
     7
  6
CONTINUOUS
  0
LAYER
  2
187
 70
    64
 62
     7
  6
CONTINUOUS
  0
LAYER
  2
188
 70
    64
 62
     7
  6
CONTINUOUS
  0
LAYER
  2
189
 70
    64
 62
     7
  6
CONTINUOUS
  0
LAYER
  2
190
 70
    64
 62
     7
  6
CONTINUOUS
  0
LAYER
  2
191
 70
    64
 62
     7
  6
CONTINUOUS
  0
LAYER
  2
192
 70
    64
 62
     7
  6
CONTINUOUS
  0
LAYER
  2
193
 70
    64
 62
     7
  6
CONTINUOUS
  0
LAYER
  2
194
 70
    64
 62
     7
  6
CONTINUOUS
  0
LAYER
  2
195
 70
    64
 62
     7
  6
CONTINUOUS
  0
LAYER
  2
196
 70
    64
 62
     7
  6
CONTINUOUS
  0
LAYER
  2
197
 70
    64
 62
     7
  6
CONTINUOUS
  0
LAYER
  2
198
 70
    64
 62
     7
  6
CONTINUOUS
  0
LAYER
  2
199
 70
    64
 62
     7
  6
CONTINUOUS
  0
LAYER
  2
200
 70
    64
 62
     7
  6
CONTINUOUS
  0
LAYER
  2
201
 70
    64
 62
     7
  6
CONTINUOUS
  0
LAYER
  2
202
 70
    64
 62
     7
  6
CONTINUOUS
  0
LAYER
  2
203
 70
    64
 62
     7
  6
CONTINUOUS
  0
LAYER
  2
204
 70
    64
 62
     7
  6
CONTINUOUS
  0
LAYER
  2
205
 70
    64
 62
     7
  6
CONTINUOUS
  0
LAYER
  2
206
 70
    64
 62
     7
  6
CONTINUOUS
  0
LAYER
  2
207
 70
    64
 62
     7
  6
CONTINUOUS
  0
LAYER
  2
208
 70
    64
 62
     7
  6
CONTINUOUS
  0
LAYER
  2
209
 70
    64
 62
     7
  6
CONTINUOUS
  0
LAYER
  2
210
 70
    64
 62
     7
  6
CONTINUOUS
  0
LAYER
  2
211
 70
    64
 62
     7
  6
CONTINUOUS
  0
LAYER
  2
212
 70
    64
 62
     7
  6
CONTINUOUS
  0
LAYER
  2
213
 70
    64
 62
     7
  6
CONTINUOUS
  0
LAYER
  2
214
 70
    64
 62
     7
  6
CONTINUOUS
  0
LAYER
  2
215
 70
    64
 62
     7
  6
CONTINUOUS
  0
LAYER
  2
216
 70
    64
 62
     7
  6
CONTINUOUS
  0
LAYER
  2
217
 70
    64
 62
     7
  6
CONTINUOUS
  0
LAYER
  2
218
 70
    64
 62
     7
  6
CONTINUOUS
  0
LAYER
  2
219
 70
    64
 62
     7
  6
CONTINUOUS
  0
LAYER
  2
220
 70
    64
 62
     7
  6
CONTINUOUS
  0
LAYER
  2
221
 70
    64
 62
     7
  6
CONTINUOUS
  0
LAYER
  2
222
 70
    64
 62
     7
  6
CONTINUOUS
  0
LAYER
  2
223
 70
    64
 62
     7
  6
CONTINUOUS
  0
LAYER
  2
224
 70
    64
 62
     7
  6
CONTINUOUS
  0
LAYER
  2
225
 70
    64
 62
     7
  6
CONTINUOUS
  0
LAYER
  2
226
 70
    64
 62
     7
  6
CONTINUOUS
  0
LAYER
  2
227
 70
    64
 62
     7
  6
CONTINUOUS
  0
LAYER
  2
228
 70
    64
 62
     7
  6
CONTINUOUS
  0
LAYER
  2
229
 70
    64
 62
     7
  6
CONTINUOUS
  0
LAYER
  2
230
 70
    64
 62
     7
  6
CONTINUOUS
  0
LAYER
  2
231
 70
    64
 62
     7
  6
CONTINUOUS
  0
LAYER
  2
232
 70
    64
 62
     7
  6
CONTINUOUS
  0
LAYER
  2
233
 70
    64
 62
     7
  6
CONTINUOUS
  0
LAYER
  2
234
 70
    64
 62
     7
  6
CONTINUOUS
  0
LAYER
  2
235
 70
    64
 62
     7
  6
CONTINUOUS
  0
LAYER
  2
236
 70
    64
 62
     7
  6
CONTINUOUS
  0
LAYER
  2
237
 70
    64
 62
     7
  6
CONTINUOUS
  0
LAYER
  2
238
 70
    64
 62
     7
  6
CONTINUOUS
  0
LAYER
  2
239
 70
    64
 62
     7
  6
CONTINUOUS
  0
LAYER
  2
240
 70
    64
 62
     7
  6
CONTINUOUS
  0
LAYER
  2
241
 70
    64
 62
     7
  6
CONTINUOUS
  0
LAYER
  2
242
 70
    64
 62
     7
  6
CONTINUOUS
  0
LAYER
  2
243
 70
    64
 62
     7
  6
CONTINUOUS
  0
LAYER
  2
244
 70
    64
 62
     7
  6
CONTINUOUS
  0
LAYER
  2
245
 70
    64
 62
     7
  6
CONTINUOUS
  0
LAYER
  2
246
 70
    64
 62
     7
  6
CONTINUOUS
  0
LAYER
  2
247
 70
    64
 62
     7
  6
CONTINUOUS
  0
LAYER
  2
248
 70
    64
 62
     7
  6
CONTINUOUS
  0
LAYER
  2
249
 70
    64
 62
     7
  6
CONTINUOUS
  0
LAYER
  2
250
 70
    64
 62
     7
  6
CONTINUOUS
  0
LAYER
  2
251
 70
    64
 62
     7
  6
CONTINUOUS
  0
LAYER
  2
252
 70
    64
 62
     7
  6
CONTINUOUS
  0
LAYER
  2
253
 70
    64
 62
     7
  6
CONTINUOUS
  0
LAYER
  2
254
 70
    64
 62
     7
  6
CONTINUOUS
  0
LAYER
  2
255
 70
    64
 62
     7
  6
CONTINUOUS
  0
ENDTAB
  0
TABLE
  2
STYLE
 70
     2
  0
STYLE
  2
STANDARD
 70
    64
 40
0.0
 41
1.0
 50
0.0
 71
     0
 42
3.000000
  3
TXT
  4
BIGFONT
  0
ENDTAB
  0
ENDSEC
  0
SECTION
  2
ENTITIES
  0
LINE
  8
99
  6
CONTINUOUS
 62
     3
 10
-4.3000183105468892
 20
-78.399999618530302
 11
 27.499977111816406
 21
-78.399999618530302
  0
ARC
  8
99
  6
CONTINUOUS
 62
     3
 10
-4.3000183105468892
 20
-76.799993515014663
 40
 1.6000000238418579
 50
-179.9999980615126
 51
-90.000000851989171
  0
LINE
  8
99
  6
CONTINUOUS
 62
     3
 10
 27.499977111816406
 20
-78.399999618530302
 11
 27.499977111816406
 21
-79.999994277954102
  0
LINE
  8
99
  6
CONTINUOUS
 62
     3
 10
 27.499977111816406
 20
-79.999994277954102
 11
-4.3000183105468892
 21
-79.999994277954102
  0
ARC
  8
99
  6
CONTINUOUS
 62
     3
 10
-4.3000183105468892
 20
-76.799993515014663
 40
 3.2000000476837158
 50
-179.9999980615126
 51
-90.000000851989171
  0
LINE
  8
99
  6
CONTINUOUS
 62
     3
 10
-7.5000305175781392
 20
-78.399999618530302
 11
-7.4990205175781455
 21
-78.399999618530302
  0
LINE
  8
99
  6
CONTINUOUS
 62
     3
 10
-5.9000244140625
 20
-43.19999217987062
 11
-5.9000244140625
 21
-76.799993515014663
  0
ARC
  8
99
  6
CONTINUOUS
 62
     3
 10
-9.1000137329101562
 20
-43.19999217987062
 40
 3.2000000476837158
 50
 0
 51
 90.000004039712721
  0
LINE
  8
99
  6
CONTINUOUS
 62
     3
 10
-7.5000305175781392
 20
-76.799993515014663
 11
-7.5000305175781392
 21
-43.19999217987062
  0
ARC
  8
99
  6
CONTINUOUS
 62
     3
 10
-9.1000137329101562
 20
-43.19999217987062
 40
 1.6000000238418579
 50
 0
 51
 90.000004039712721
  0
LINE
  8
99
  6
CONTINUOUS
 62
     3
 10
-27.5
 20
-39.999998092651381
 11
-9.1000137329101562
 21
-39.999998092651381
  0
LINE
  8
99
  6
CONTINUOUS
 62
     3
 10
-9.1000137329101562
 20
-41.600004196167006
 11
-27.5
 21
-41.600004196167006
  0
LINE
  8
99
  6
CONTINUOUS
 62
     3
 10
-27.5
 20
-41.600004196167006
 11
-27.5
 21
-39.999998092651381
  0
POINT
  8
99
  6
CONTINUOUS
 62
     3
 10
 12.499977111816406
 20
-79.999994277954102
  0
LINE
  8
99
  6
DOT
 62
     3
 10
 10.399978637695312
 20
-78.399999618530302
 11
 10.399978637695312
 21
-79.999994277954102
  0
LINE
  8
99
  6
DOT
 62
     3
 10
 14.599990844726548
 20
-78.399999618530302
 11
 14.599990844726548
 21
-79.999994277954102
  0
POINT
  8
99
  6
CONTINUOUS
 62
     3
 10
-17.500030517578139
 20
-39.999998092651381
  0
LINE
  8
99
  6
DOT
 62
     3
 10
-21.000030517578125
 20
-39.999998092651381
 11
-21.000030517578125
 21
-41.600004196167006
  0
LINE
  8
99
  6
DOT
 62
     3
 10
-14
 20
-39.999998092651381
 11
-14
 21
-41.600004196167006
  0
LINE
  8
99
  6
CONTINUOUS
 62
     3
 10
-22.5
 20
-41.600004196167006
 11
-12.499977111816406
 21
-41.600004196167006
  0
LINE
  8
99
  6
CONTINUOUS
 62
     3
 10
-12.499977111816406
 20
-41.600004196167006
 11
-12.499977111816406
 21
-46.600008010864272
  0
LINE
  8
99
  6
CONTINUOUS
 62
     3
 10
-12.499977111816406
 20
-46.600008010864272
 11
-22.5
 21
-46.600008010864272
  0
LINE
  8
99
  6
CONTINUOUS
 62
     3
 10
-22.5
 20
-46.600008010864272
 11
-22.5
 21
-41.600004196167006
  0
LINE
  8
99
  6
DOT
 62
     3
 10
-20.5
 20
-46.600008010864272
 11
-20.5
 21
-41.600004196167006
  0
LINE
  8
99
  6
DOT
 62
     3
 10
-14.499969482421875
 20
-46.600008010864272
 11
-14.499969482421875
 21
-41.600004196167006
  0
LINE
  8
99
  6
DOT
 62
     3
 10
-15.099975585937514
 20
-46.600008010864272
 11
-15.099975585937514
 21
-41.600004196167006
  0
LINE
  8
99
  6
DOT
 62
     3
 10
-19.899993896484375
 20
-46.600008010864272
 11
-19.899993896484375
 21
-41.600004196167006
  0
LINE
  8
99
  6
CONTINUOUS
 62
     3
 10
-27.5
 20
 99.99998664855957
 11
 27.5
 21
 99.99998664855957
  0
LINE
  8
99
  6
CONTINUOUS
 62
     3
 10
 27.5
 20
 99.99998664855957
 11
 27.5
 21
 0
  0
LINE
  8
99
  6
CONTINUOUS
 62
     3
 10
 27.5
 20
 0
 11
-27.5
 21
 0
  0
LINE
  8
99
  6
CONTINUOUS
 62
     3
 10
-27.5
 20
 0
 11
-27.5
 21
 99.99998664855957
  0
LINE
  8
99
  6
DASHDOT
 62
     7
 10
-32.512908935546875
 20
 50.000001907348633
 11
 30.692237854003892
 21
 50.000001907348633
  0
CIRCLE
  8
99
  6
CONTINUOUS
 62
     3
 10
-17.500000000000014
 20
 28.000001907348633
 40
 3.5000000000000004
  0
CIRCLE
  8
99
  6
CONTINUOUS
 62
     3
 10
-17.500000000000014
 20
 72.000001907348633
 40
 3.5000000000000004
  0
CIRCLE
  8
99
  6
CONTINUOUS
 62
     3
 10
 12.5
 20
 75.000001907348633
 40
 2
  0
CIRCLE
  8
99
  6
CONTINUOUS
 62
     3
 10
 12.5
 20
 25.000001907348633
 40
 2
  0
LINE
  8
99
  6
DOT
 62
     3
 10
-7.500007629394517
 20
 0
 11
-7.500007629394517
 21
 99.99998664855957
  0
LINE
  8
99
  6
CONTINUOUS
 62
     3
 10
-5.9000091552734375
 20
 0
 11
-5.9000091552734375
 21
 99.99998664855957
  0
LINE
  8
99
  6
DOT
 62
     3
 10
-22.5
 20
 77.000001907348633
 11
-12.499984741210938
 21
 77.000001907348633
  0
LINE
  8
99
  6
DOT
 62
     3
 10
-12.499984741210938
 20
 77.000001907348633
 11
-12.499984741210938
 21
 67.000001907348633
  0
LINE
  8
99
  6
DOT
 62
     3
 10
-12.499984741210938
 20
 67.000001907348633
 11
-22.5
 21
 67.000001907348633
  0
LINE
  8
99
  6
DOT
 62
     3
 10
-22.5
 20
 67.000001907348633
 11
-22.5
 21
 77.000001907348633
  0
CIRCLE
  8
99
  6
CONTINUOUS
 62
     3
 10
-17.500000000000014
 20
 72.000001907348633
 40
 3
  0
CIRCLE
  8
99
  6
CONTINUOUS
 62
     3
 10
-17.500000000000014
 20
 72.000001907348633
 40
 2.5
  0
CIRCLE
  8
99
  6
CONTINUOUS
 62
     3
 10
-17.500000000000014
 20
 28.000001907348633
 40
 3
  0
CIRCLE
  8
99
  6
CONTINUOUS
 62
     3
 10
-17.500000000000014
 20
 28.000001907348633
 40
 2.5
  0
LINE
  8
99
  6
DOT
 62
     3
 10
-22.5
 20
 33.000001907348633
 11
-12.499984741210938
 21
 33.000001907348633
  0
LINE
  8
99
  6
DOT
 62
     3
 10
-12.499984741210938
 20
 33.000001907348633
 11
-12.499984741210938
 21
 23.000001907348633
  0
LINE
  8
99
  6
DOT
 62
     3
 10
-12.499984741210938
 20
 23.000001907348633
 11
-22.5
 21
 23.000001907348633
  0
LINE
  8
99
  6
DOT
 62
     3
 10
-22.5
 20
 23.000001907348633
 11
-22.5
 21
 33.000001907348633
  0
LINE
  8
99
  6
DASHDOT
 62
     2
 10
-17.500030517578139
 20
-35.13697385787966
 11
-17.500030517578139
 21
-51.963895797729514
  0
LINE
  8
99
  6
DASHDOT
 62
     2
 10
 12.499977111816406
 20
-73.053644180297852
 11
 12.499977111816406
 21
-85.617750167846694
  0
TEXT
  8
99
  6
CONTINUOUS
 62
     7
 10
 31.500000000000007
 20
 85.810001907348649
 11
 41.000000000000007
 21
 85.810001907348649
 40
 2.5
 41
 0.8
  1
４－φ４
 50
 0
 72
  5
  0
LINE
  8
99
  6
CONTINUOUS
 62
     7
 10
 23.999999999999986
 20
 85.000001907348647
 11
 42
 21
 85.000001907348647
  0
LINE
  8
99
  6
CONTINUOUS
 62
     7
 10
 23.999999999999986
 20
 85.000001907348647
 11
 19.894427190999806
 21
 76.788856289348246
  0
LINE
  8
99
  6
CONTINUOUS
 62
     7
 10
 19.894427190999806
 20
 76.788856289348246
 11
 21.884837050747791
 21
 79.033465072681764
  0
LINE
  8
99
  6
CONTINUOUS
 62
     7
 10
 19.894427190999806
 20
 76.788856289348246
 11
 20.495868301817822
 21
 79.727949447146756
  0
TEXT
  8
99
  6
CONTINUOUS
 62
     7
 10
-63.500000000000014
 20
 82.810001907348635
 11
-46.500000000000014
 21
 82.810001907348635
 40
 2.5
 41
 0.8
  1
２－Ｍ６Ｗ／Ｎ
 50
 0
 72
  5
  0
LINE
  8
99
  6
CONTINUOUS
 62
     7
 10
-65.000000000000014
 20
 82.000001907348633
 11
-25
 21
 82.000001907348633
  0
LINE
  8
99
  6
CONTINUOUS
 62
     7
 10
-25
 20
 82.000001907348633
 11
-22.5
 21
 77.000001907348633
  0
LINE
  8
99
  6
CONTINUOUS
 62
     7
 10
-22.5
 20
 77.000001907348633
 11
-23.101441110818023
 21
 79.939095065147143
  0
LINE
  8
99
  6
CONTINUOUS
 62
     7
 10
-22.5
 20
 77.000001907348633
 11
-24.490409859747992
 21
 79.244610690682151
  0
TEXT
  8
99
  6
CONTINUOUS
 62
     7
 10
-66.000000000000014
 20
 78.690001907348645
 11
-44.000000000000014
 21
 78.690001907348645
 40
 2.5
 41
 0.8
  1
（下穴　２－φ７）
 50
 0
 72
  5
  0
LINE
  8
0
  6
DASHDOT
 62
     7
 10
-17.500000000000014
 20
 79.000001907348633
 11
-17.500000000000014
 21
 21.000001907348633
  0
LINE
  8
0
  6
DASHDOT
 62
     7
 10
 12.5
 20
 80.000001907348633
 11
 12.5
 21
 20.000001907348633
  0
LINE
  8
0
  6
DASHDOT
 62
     7
 10
-24.5
 20
 72.000001907348633
 11
-10.5
 21
 72.000001907348633
  0
LINE
  8
0
  6
DASHDOT
 62
     7
 10
 7.4999999999999858
 20
 75.000001907348633
 11
 23.999999999999986
 21
 75.000001907348633
  0
LINE
  8
0
  6
DASHDOT
 62
     7
 10
-24.5
 20
 28.000001907348633
 11
-10.5
 21
 28.000001907348633
  0
LINE
  8
0
  6
DASHDOT
 62
     7
 10
 7.4999999999999858
 20
 25.000001907348633
 11
 23.999999999999986
 21
 25.000001907348633
  0
LINE
  8
0
  6
CONTINUOUS
 62
     7
 10
-29.5
 20
 99.99998664855957
 11
-43.459999999999994
 21
 99.99998664855957
  0
LINE
  8
0
  6
CONTINUOUS
 62
     7
 10
-29.5
 20
 0
 11
-43.459999999999994
 21
 0
  0
LINE
  8
0
  6
CONTINUOUS
 62
     7
 10
-24.5
 20
 72.000001907348633
 11
-38.460000000000022
 21
 72.000001907348633
  0
LINE
  8
0
  6
CONTINUOUS
 62
     7
 10
-24.5
 20
 28.000001907348633
 11
-38.460000000000022
 21
 28.000001907348633
  0
LINE
  8
0
  6
CONTINUOUS
 62
     7
 10
 29.499977111816406
 20
-78.399999618530302
 11
 38.459977111816421
 21
-78.399999618530302
  0
LINE
  8
0
  6
CONTINUOUS
 62
     7
 10
 37.499977111816428
 20
-84.999994277954116
 11
 37.499977111816428
 21
-79.999994277954102
  0
LINE
  8
0
  6
CONTINUOUS
 62
     7
 10
 37.499977111816428
 20
-79.999994277954102
 11
 36.723519976508868
 21
-82.8977717568213
  0
LINE
  8
0
  6
CONTINUOUS
 62
     7
 10
 37.499977111816428
 20
-79.999994277954102
 11
 38.276434247123987
 21
-82.8977717568213
  0
LINE
  8
0
  6
CONTINUOUS
 62
     7
 10
 37.499977111816428
 20
-78.399999618530302
 11
 37.499977111816428
 21
-79.999994277954102
  0
TEXT
  8
0
  6
CONTINUOUS
 62
     7
 10
 36.539977111816427
 20
-76.639999618530311
 11
 36.539977111816413
 21
-70.35999961853031
 40
 2.2000000000000002
 41
 0.8
  1
１．６
 50
 90.000001535234517
 72
  5
  0
LINE
  8
0
  6
CONTINUOUS
 62
     7
 10
 37.499977111816428
 20
-68.59999961853029
 11
 37.499977111816428
 21
-78.399999618530302
  0
LINE
  8
0
  6
CONTINUOUS
 62
     7
 10
 37.499977111816428
 20
-78.399999618530302
 11
 38.276434247123987
 21
-75.502222139663104
  0
LINE
  8
0
  6
CONTINUOUS
 62
     7
 10
 37.499977111816428
 20
-78.399999618530302
 11
 36.723519976508868
 21
-75.502222139663104
  0
CIRCLE
  8
99
  6
CONTINUOUS
 62
     3
 10
 19
 20
 75.000001907348633
 40
 2
  0
CIRCLE
  8
99
  6
CONTINUOUS
 62
     3
 10
 19
 20
 25.000001907348633
 40
 2
  0
LINE
  8
0
  6
DASHDOT
 62
     7
 10
 19
 20
 80.000001907348633
 11
 19
 21
 20.000001907348633
  0
LINE
  8
99
  6
DOT
 62
     3
 10
 16.899978637695298
 20
-78.399999618530302
 11
 16.899978637695298
 21
-79.999994277954102
  0
LINE
  8
99
  6
DOT
 62
     3
 10
 21.099990844726577
 20
-78.399999618530302
 11
 21.099990844726577
 21
-79.999994277954102
  0
LINE
  8
99
  6
DASHDOT
 62
     2
 10
 18.999977111816406
 20
-73.053644180297852
 11
 18.999977111816406
 21
-85.617750167846694
  0
LINE
  8
256
  6
CONTINUOUS
 62
     7
 10
 170.99998474121094
 20
-109.5
 11
 170.99998474121094
 21
-121.5
  0
TEXT
  8
256
  6
CONTINUOUS
 62
     7
 10
 112.5
 20
-134.25
 11
 148.5
 21
-134.25
 40
 6
 41
 1
  1
Ｍ４４－４０
 50
 0
 72
  5
  0
TEXT
  8
256
  6
CONTINUOUS
 62
     7
 10
 106.29998779296875
 20
-112.4499633789062
 11
 111.29998779296875
 21
-112.4499633789062
 40
 2.5
 41
 0.8
  1
品名
 50
 0
 72
  5
  0
TEXT
  8
256
  6
CONTINUOUS
 62
     7
 10
 106.29998779296875
 20
-124.45003051757811
 11
 111.29998779296875
 21
-124.45003051757811
 40
 2.5
 41
 0.8
  1
品番
 50
 0
 72
  5
  0
LINE
  8
256
  6
CONTINUOUS
 62
     7
 10
 104.99998474121094
 20
-139.5
 11
 104.99998474121094
 21
-109.5
  0
LINE
  8
256
  6
CONTINUOUS
 62
     7
 10
-193.30000000000001
 20
 124.99999645625348
 11
-93.300000000000011
 21
 124.99999645625348
  0
LINE
  8
256
  6
CONTINUOUS
 62
     7
 10
-93.300000000000011
 20
 124.9999964562535
 11
-93.300000000000011
 21
 136.99999721136808
  0
TEXT
  8
256
  6
CONTINUOUS
 62
     7
 10
-188.30000000000001
 20
 127.99999604817611
 11
-134.30000000000001
 21
 127.99999604817611
 40
 6
 41
 1
  1
ＬＢ－Ｄ５１５０Ｃ
 50
 0
 72
  5
  0
LINE
  8
256
  6
CONTINUOUS
 62
     7
 10
 104.99998474121094
 20
-121.5
 11
 200
 21
-121.5
  0
TEXT
  8
256
  6
CONTINUOUS
 62
     7
 10
 117.99998474121094
 20
-119.75
 11
 157.99998474121094
 21
-119.75
 40
 5
 41
 0.8
  1
主幹ＭＣＣＢ取付金具
 50
 0
 72
  5
  0
LINE
  8
256
  6
CONTINUOUS
 62
     7
 10
 104.99998474121094
 20
-109.5
 11
 200
 21
-109.5
  0
LINE
  8
256
  6
CONTINUOUS
 62
     7
 10
 200
 20
-139.5
 11
-193.30000000000001
 21
-139.49999999999994
  0
LINE
  8
256
  6
CONTINUOUS
 62
     7
 10
 200
 20
 136.99999721136808
 11
 200
 21
-139.5
  0
LINE
  8
256
  6
CONTINUOUS
 62
     7
 10
-193.30000000000001
 20
 136.99999721136808
 11
-193.30000000000001
 21
-139.49999999999994
  0
LINE
  8
256
  6
CONTINUOUS
 62
     7
 10
-193.30000000000001
 20
 136.99999721136808
 11
 200
 21
 136.99999721136808
  0
LINE
  8
0
  6
CONTINUOUS
 62
     7
 10
-27.5
 20
 101.99998664855957
 11
-27.5
 21
 110.95998664855958
  0
LINE
  8
0
  6
CONTINUOUS
 62
     7
 10
 27.5
 20
 101.99998664855957
 11
 27.5
 21
 110.95998664855958
  0
LINE
  8
0
  6
CONTINUOUS
 62
     7
 10
-27.5
 20
 109.99998664855957
 11
 27.5
 21
 109.99998664855957
  0
LINE
  8
0
  6
CONTINUOUS
 62
     7
 10
-27.5
 20
 109.99998664855957
 11
-24.602222521132795
 21
 109.223529513252
  0
LINE
  8
0
  6
CONTINUOUS
 62
     7
 10
-27.5
 20
 109.99998664855957
 11
-24.602222521132795
 21
 110.77644378386714
  0
LINE
  8
0
  6
CONTINUOUS
 62
     7
 10
 27.5
 20
 109.99998664855957
 11
 24.602222521132795
 21
 110.77644378386714
  0
LINE
  8
0
  6
CONTINUOUS
 62
     7
 10
 27.5
 20
 109.99998664855957
 11
 24.602222521132795
 21
 109.223529513252
  0
TEXT
  8
0
  6
CONTINUOUS
 62
     7
 10
-2.0099999999999811
 20
 110.95998664855956
 11
 2.0100000000000193
 21
 110.95998664855958
 40
 2.2000000000000002
 41
 0.8
  1
55
 50
 0
 72
  5
  0
LINE
  8
0
  6
CONTINUOUS
 62
     7
 10
 23.999999999999986
 20
 75.000001907348633
 11
 38.459999999999987
 21
 75.000001907348633
  0
LINE
  8
0
  6
CONTINUOUS
 62
     7
 10
 23.999999999999986
 20
 25.000001907348633
 11
 38.459999999999987
 21
 25.000001907348633
  0
LINE
  8
0
  6
CONTINUOUS
 62
     7
 10
 37.499999999999993
 20
 75.000001907348633
 11
 37.499999999999993
 21
 25.000001907348633
  0
LINE
  8
0
  6
CONTINUOUS
 62
     7
 10
 37.499999999999993
 20
 75.000001907348633
 11
 36.723542864692433
 21
 72.102224428481435
  0
LINE
  8
0
  6
CONTINUOUS
 62
     7
 10
 37.499999999999993
 20
 75.000001907348633
 11
 38.276457135307552
 21
 72.102224428481435
  0
LINE
  8
0
  6
CONTINUOUS
 62
     7
 10
 37.499999999999993
 20
 25.000001907348633
 11
 38.276457135307552
 21
 27.897779386215838
  0
LINE
  8
0
  6
CONTINUOUS
 62
     7
 10
 37.499999999999993
 20
 25.000001907348633
 11
 36.723542864692433
 21
 27.897779386215838
  0
TEXT
  8
0
  6
CONTINUOUS
 62
     7
 10
 36.539999999999985
 20
 47.990001907348635
 11
 36.539999999999985
 21
 52.010001907348638
 40
 2.2000000000000002
 41
 0.8
  1
50
 50
 90.000001535234517
 72
  5
  0
LINE
  8
0
  6
CONTINUOUS
 62
     7
 10
-37.500000000000014
 20
 72.000001907348633
 11
-37.500000000000014
 21
 28.000001907348633
  0
LINE
  8
0
  6
CONTINUOUS
 62
     7
 10
-37.500000000000014
 20
 72.000001907348633
 11
-38.276457135307574
 21
 69.102224428481435
  0
LINE
  8
0
  6
CONTINUOUS
 62
     7
 10
-37.500000000000014
 20
 72.000001907348633
 11
-36.723542864692455
 21
 69.102224428481435
  0
LINE
  8
0
  6
CONTINUOUS
 62
     7
 10
-37.500000000000014
 20
 28.000001907348633
 11
-36.723542864692455
 21
 30.897779386215838
  0
LINE
  8
0
  6
CONTINUOUS
 62
     7
 10
-37.500000000000014
 20
 28.000001907348633
 11
-38.276457135307574
 21
 30.897779386215838
  0
TEXT
  8
0
  6
CONTINUOUS
 62
     7
 10
-38.460000000000015
 20
 47.990001907348635
 11
-38.460000000000015
 21
 52.010001907348638
 40
 2.2000000000000002
 41
 0.8
  1
44
 50
 90.000001535234517
 72
  5
  0
LINE
  8
0
  6
CONTINUOUS
 62
     7
 10
-27.5
 20
-1.9999999999999964
 11
-27.5
 21
-15.959999999999987
  0
LINE
  8
0
  6
CONTINUOUS
 62
     7
 10
-17.500000000000014
 20
 21.000001907348633
 11
-17.500000000000014
 21
-15.959999999999987
  0
LINE
  8
0
  6
CONTINUOUS
 62
     7
 10
-27.5
 20
-14.999999999999989
 11
-17.500000000000014
 21
-14.999999999999989
  0
LINE
  8
0
  6
CONTINUOUS
 62
     7
 10
-27.5
 20
-14.999999999999989
 11
-24.602222521132795
 21
-15.776457135307552
  0
LINE
  8
0
  6
CONTINUOUS
 62
     7
 10
-27.5
 20
-14.999999999999989
 11
-24.602222521132795
 21
-14.223542864692426
  0
LINE
  8
0
  6
CONTINUOUS
 62
     7
 10
-17.500000000000014
 20
-14.999999999999989
 11
-20.397777478867219
 21
-14.223542864692426
  0
LINE
  8
0
  6
CONTINUOUS
 62
     7
 10
-17.500000000000014
 20
-14.999999999999989
 11
-20.397777478867219
 21
-15.776457135307552
  0
TEXT
  8
0
  6
CONTINUOUS
 62
     7
 10
-24.510000000000009
 20
-14.039999999999996
 11
-20.490000000000009
 21
-14.039999999999994
 40
 2.2000000000000002
 41
 0.8
  1
10
 50
 0
 72
  5
  0
LINE
  8
0
  6
CONTINUOUS
 62
     7
 10
 27.5
 20
-1.9999999999999964
 11
 27.5
 21
-15.959999999999987
  0
LINE
  8
0
  6
CONTINUOUS
 62
     7
 10
 12.5
 20
 20.000001907348633
 11
 12.5
 21
-15.959999999999987
  0
LINE
  8
0
  6
CONTINUOUS
 62
     7
 10
 27.5
 20
-14.999999999999989
 11
 12.5
 21
-14.999999999999989
  0
LINE
  8
0
  6
CONTINUOUS
 62
     7
 10
 27.5
 20
-14.999999999999989
 11
 24.602222521132795
 21
-14.223542864692426
  0
LINE
  8
0
  6
CONTINUOUS
 62
     7
 10
 27.5
 20
-14.999999999999989
 11
 24.602222521132795
 21
-15.776457135307552
  0
LINE
  8
0
  6
CONTINUOUS
 62
     7
 10
 12.5
 20
-14.999999999999989
 11
 15.397777478867205
 21
-15.776457135307552
  0
LINE
  8
0
  6
CONTINUOUS
 62
     7
 10
 12.5
 20
-14.999999999999989
 11
 15.397777478867205
 21
-14.223542864692426
  0
TEXT
  8
0
  6
CONTINUOUS
 62
     7
 10
 17.990000000000006
 20
-14.039999999999996
 11
 22.010000000000005
 21
-14.039999999999994
 40
 2.2000000000000002
 41
 0.8
  1
15
 50
 0
 72
  5
  0
LINE
  8
0
  6
CONTINUOUS
 62
     7
 10
-17.500000000000014
 20
-14.999999999999989
 11
 12.5
 21
-14.999999999999989
  0
LINE
  8
0
  6
CONTINUOUS
 62
     7
 10
-17.500000000000014
 20
-14.999999999999989
 11
-14.602222521132809
 21
-15.776457135307552
  0
LINE
  8
0
  6
CONTINUOUS
 62
     7
 10
-17.500000000000014
 20
-14.999999999999989
 11
-14.602222521132809
 21
-14.223542864692426
  0
LINE
  8
0
  6
CONTINUOUS
 62
     7
 10
 12.5
 20
-14.999999999999989
 11
 9.602222521132795
 21
-14.223542864692426
  0
LINE
  8
0
  6
CONTINUOUS
 62
     7
 10
 12.5
 20
-14.999999999999989
 11
 9.602222521132795
 21
-15.776457135307552
  0
TEXT
  8
0
  6
CONTINUOUS
 62
     7
 10
-4.5099999999999953
 20
-14.039999999999996
 11
-0.4899999999999949
 21
-14.039999999999994
 40
 2.2000000000000002
 41
 0.8
  1
30
 50
 0
 72
  5
  0
LINE
  8
0
  6
CONTINUOUS
 62
     7
 10
-42.500000000000014
 20
 99.99998664855957
 11
-42.500000000000014
 21
 0
  0
LINE
  8
0
  6
CONTINUOUS
 62
     7
 10
-42.500000000000014
 20
 99.99998664855957
 11
-43.276457135307574
 21
 97.102209169692372
  0
LINE
  8
0
  6
CONTINUOUS
 62
     7
 10
-42.500000000000014
 20
 99.99998664855957
 11
-41.723542864692455
 21
 97.102209169692372
  0
LINE
  8
0
  6
CONTINUOUS
 62
     7
 10
-42.500000000000014
 20
 0
 11
-41.723542864692455
 21
 2.897777478867205
  0
LINE
  8
0
  6
CONTINUOUS
 62
     7
 10
-42.500000000000014
 20
 0
 11
-43.276457135307574
 21
 2.897777478867205
  0
TEXT
  8
0
  6
CONTINUOUS
 62
     7
 10
-43.459999999999987
 20
 46.859993324279777
 11
-43.459999999999987
 21
 53.139993324279779
 40
 2.2000000000000002
 41
 0.8
  1
100
 50
 90.000001535234517
 72
  5
  0
LINE
  8
0
  6
CONTINUOUS
 62
     7
 10
-7.5000305175781392
 20
-37.999998092651381
 11
-7.5000305175781392
 21
-29.039998092651395
  0
LINE
  8
0
  6
CONTINUOUS
 62
     7
 10
-27.5
 20
-37.999998092651381
 11
-27.5
 21
-29.039998092651395
  0
LINE
  8
0
  6
CONTINUOUS
 62
     7
 10
-7.5000305175781392
 20
-29.999998092651389
 11
-27.5
 21
-29.999998092651389
  0
LINE
  8
0
  6
CONTINUOUS
 62
     7
 10
-7.5000305175781392
 20
-29.999998092651389
 11
-10.397807996445344
 21
-29.223540957343825
  0
LINE
  8
0
  6
CONTINUOUS
 62
     7
 10
-7.5000305175781392
 20
-29.999998092651389
 11
-10.397807996445344
 21
-30.776455227958952
  0
LINE
  8
0
  6
CONTINUOUS
 62
     7
 10
-27.5
 20
-29.999998092651389
 11
-24.602222521132795
 21
-30.776455227958952
  0
LINE
  8
0
  6
CONTINUOUS
 62
     7
 10
-27.5
 20
-29.999998092651389
 11
-24.602222521132795
 21
-29.223540957343825
  0
TEXT
  8
0
  6
CONTINUOUS
 62
     7
 10
-19.510015258789057
 20
-29.039998092651391
 11
-15.490015258789059
 21
-29.039998092651395
 40
 2.2000000000000002
 41
 0.8
  1
20
 50
 0
 72
  5
  0
LINE
  8
0
  6
CONTINUOUS
 62
     7
 10
 27.499977111816406
 20
-76.399999618530302
 11
 27.499977111816406
 21
-29.039998092651395
  0
LINE
  8
0
  6
CONTINUOUS
 62
     7
 10
 27.499977111816406
 20
-29.999998092651389
 11
-7.5000305175781392
 21
-29.999998092651389
  0
LINE
  8
0
  6
CONTINUOUS
 62
     7
 10
 27.499977111816406
 20
-29.999998092651389
 11
 24.602199632949201
 21
-29.223540957343825
  0
LINE
  8
0
  6
CONTINUOUS
 62
     7
 10
 27.499977111816406
 20
-29.999998092651389
 11
 24.602199632949201
 21
-30.776455227958952
  0
LINE
  8
0
  6
CONTINUOUS
 62
     7
 10
-7.5000305175781392
 20
-29.999998092651389
 11
-4.6022530387109342
 21
-30.776455227958952
  0
LINE
  8
0
  6
CONTINUOUS
 62
     7
 10
-7.5000305175781392
 20
-29.999998092651389
 11
-4.6022530387109342
 21
-29.223540957343825
  0
TEXT
  8
0
  6
CONTINUOUS
 62
     7
 10
 7.9899732971191169
 20
-29.039998092651391
 11
 12.009973297119116
 21
-29.039998092651395
 40
 2.2000000000000002
 41
 0.8
  1
35
 50
 0
 72
  5
  0
LINE
  8
0
  6
CONTINUOUS
 62
     7
 10
-3.9000244140625
 20
-39.999998092651381
 11
 43.4599771118164
 21
-39.999998092651381
  0
LINE
  8
0
  6
CONTINUOUS
 62
     7
 10
 29.499977111816406
 20
-79.999994277954102
 11
 43.4599771118164
 21
-79.999994277954102
  0
LINE
  8
0
  6
CONTINUOUS
 62
     7
 10
 42.49997711181642
 20
-39.999998092651381
 11
 42.49997711181642
 21
-79.999994277954102
  0
LINE
  8
0
  6
CONTINUOUS
 62
     7
 10
 42.49997711181642
 20
-39.999998092651381
 11
 41.723519976508861
 21
-42.897775571518586
  0
LINE
  8
0
  6
CONTINUOUS
 62
     7
 10
 42.49997711181642
 20
-39.999998092651381
 11
 43.27643424712398
 21
-42.897775571518586
  0
LINE
  8
0
  6
CONTINUOUS
 62
     7
 10
 42.49997711181642
 20
-79.999994277954102
 11
 43.27643424712398
 21
-77.102216799086904
  0
LINE
  8
0
  6
CONTINUOUS
 62
     7
 10
 42.49997711181642
 20
-79.999994277954102
 11
 41.723519976508861
 21
-77.102216799086904
  0
TEXT
  8
0
  6
CONTINUOUS
 62
     7
 10
 41.539977111816405
 20
-62.009996185302754
 11
 41.539977111816405
 21
-51.209996185302757
 40
 2.2000000000000002
 41
 0.8
  1
40(H)
 50
 90.000001535234517
 72
  5
  0
LINE
  8
0
  6
CONTINUOUS
 62
     7
 10
 19
 20
 20.000001907348633
 11
 19
 21
-10.95999999999999
  0
LINE
  8
0
  6
CONTINUOUS
 62
     7
 10
-17.500000000000014
 20
-9.9999999999999929
 11
 19
 21
-9.9999999999999929
  0
LINE
  8
0
  6
CONTINUOUS
 62
     7
 10
-17.500000000000014
 20
-9.9999999999999929
 11
-14.602222521132809
 21
-10.776457135307556
  0
LINE
  8
0
  6
CONTINUOUS
 62
     7
 10
-17.500000000000014
 20
-9.9999999999999929
 11
-14.602222521132809
 21
-9.2235428646924298
  0
LINE
  8
0
  6
CONTINUOUS
 62
     7
 10
 19
 20
-9.9999999999999929
 11
 16.102222521132795
 21
-9.2235428646924298
  0
LINE
  8
0
  6
CONTINUOUS
 62
     7
 10
 19
 20
-9.9999999999999929
 11
 16.102222521132795
 21
-10.776457135307556
  0
TEXT
  8
0
  6
CONTINUOUS
 62
     7
 10
-3.5200000000000005
 20
-9.039999999999992
 11
 5.0200000000000005
 21
-9.0399999999999903
 40
 2.2000000000000002
 41
 0.8
  1
36.5
 50
 0
 72
  5
  0
LINE
  8
0
  6
CONTINUOUS
 62
     7
 10
 19
 20
-9.9999999999999929
 11
 27.5
 21
-9.9999999999999929
  0
LINE
  8
0
  6
CONTINUOUS
 62
     7
 10
 19
 20
-9.9999999999999929
 11
 21.897777478867205
 21
-10.776457135307556
  0
LINE
  8
0
  6
CONTINUOUS
 62
     7
 10
 19
 20
-9.9999999999999929
 11
 21.897777478867205
 21
-9.2235428646924298
  0
LINE
  8
0
  6
CONTINUOUS
 62
     7
 10
 27.5
 20
-9.9999999999999929
 11
 24.602222521132795
 21
-9.2235428646924298
  0
LINE
  8
0
  6
CONTINUOUS
 62
     7
 10
 27.5
 20
-9.9999999999999929
 11
 24.602222521132795
 21
-10.776457135307556
  0
TEXT
  8
0
  6
CONTINUOUS
 62
     7
 10
 20.109999999999996
 20
-9.039999999999992
 11
 26.389999999999997
 21
-9.0399999999999903
 40
 2.2000000000000002
 41
 0.8
  1
8.5
 50
 0
 72
  5
  0
ENDSEC
  0
EOF
