  0
SECTION
  2
HEADER
  9
$INSBASE
 10
0.0
20
0.0
  9
$REGENMODE
 70
     1
  9
$DRAGMODE
 70
     1
  9
$DIMTAD
 70
     1
  9
$EXTMIN
 10
-210.000000
 20
-148.500000
 30
 0.0
  9
$EXTMAX
 10
210.000000
 20
148.500000
 30
 0.0
  9
$LUPREC
 70
    3
  9
$AUPREC
 70
    3
  9
$LTSCALE
 40
26.250000
  0
ENDSEC
  0
SECTION
  2
TABLES
  0
TABLE
  2
LTYPE
 70
     6
  0
LTYPE
  2
CONTINUOUS
 70
    64
  3
SOLID
 72
    65
 73
     0
 40
0.0
  0
LTYPE
  2
DASHED2
 70
    64
  3
_ _ _ _ _ _ _ _ _ _ _ _ _ _ _ _ _ _ _ _ _ _ 
 72
    65
 73
     2
 40
0.5
 49
0.25
 49
-0.25
  0
LTYPE
  2
DASHED
 70
    64
  3
__ __ __ __ __ __ __ __ __ __ __ __ __ __ __
 72
    65
 73
     2
 40
0.75
 49
0.5
 49
-0.25
  0
LTYPE
  2
DASHEDX2
 70
    64
  3
____  ____  ____  ____  ____  ____  ____  __
 72
    65
 73
     2
 40
1.5
 49
1.0
 49
-0.5
  0
LTYPE
  2
DOT
 70
    64
  3
............................................
 72
    65
 73
     2
 40
0.25
 49
0
 49
-0.25
  0
LTYPE
  2
DASHDOT
 70
    64
  3
__ . __ . __ . __ . __ . __ . __ . __ . __ .
 72
    65
 73
     4
 40
1.0
 49
0.5
 49
-0.25
 49
0.0
 49
-0.25
  0
LTYPE
  2
CENTER
 70
    64
  3
____ _ ____ _ ____ _ ____ _ ____ _ ____ _ __
 72
    65
 73
     4
 40
2.0
 49
1.25
 49
-0.25
 49
0.25
 49
-0.25
  0
LTYPE
  2
DIVIDE
 70
    64
  3
__ . . __ . . __ . . __ . . __ . . __ . . __
 72
    65
 73
     6
 40
1.25
 49
0.5
 49
-0.25
 49
0.0
 49
-0.25
 49
0.0
 49
-0.25
  0
LTYPE
  2
PHANTOM2
 70
    64
  3
___ _ _ ___ _ _ ___ _ _ ___ _ _ ___ _ _ ___ 
 72
    65
 73
     6
 40
1.25
 49
0.625
 49
-0.125
 49
0.125
 49
-0.125
 49
0.125
 49
-0.125
  0
LTYPE
  2
DOTX2
 70
    64
  3
. . . . . . . . . . . . . . . . . . . . . . 
 72
    65
 73
     2
 40
0.5
 49
0
 49
-0.5
  0
ENDTAB
  0
TABLE
  2
LAYER
 70
   255
  0
LAYER
  2
0
 70
    64
 62
     7
  6
CONTINUOUS
  0
LAYER
  2
1
 70
    64
 62
     7
  6
CONTINUOUS
  0
LAYER
  2
2
 70
    64
 62
     7
  6
CONTINUOUS
  0
LAYER
  2
3
 70
    64
 62
     7
  6
CONTINUOUS
  0
LAYER
  2
4
 70
    64
 62
     7
  6
CONTINUOUS
  0
LAYER
  2
5
 70
    64
 62
     7
  6
CONTINUOUS
  0
LAYER
  2
6
 70
    64
 62
     7
  6
CONTINUOUS
  0
LAYER
  2
7
 70
    64
 62
     7
  6
CONTINUOUS
  0
LAYER
  2
8
 70
    64
 62
     7
  6
CONTINUOUS
  0
LAYER
  2
9
 70
    64
 62
     7
  6
CONTINUOUS
  0
LAYER
  2
10
 70
    64
 62
     7
  6
CONTINUOUS
  0
LAYER
  2
11
 70
    64
 62
     7
  6
CONTINUOUS
  0
LAYER
  2
12
 70
    64
 62
     7
  6
CONTINUOUS
  0
LAYER
  2
13
 70
    64
 62
     7
  6
CONTINUOUS
  0
LAYER
  2
14
 70
    64
 62
     7
  6
CONTINUOUS
  0
LAYER
  2
15
 70
    64
 62
     7
  6
CONTINUOUS
  0
LAYER
  2
16
 70
    64
 62
     7
  6
CONTINUOUS
  0
LAYER
  2
17
 70
    64
 62
     7
  6
CONTINUOUS
  0
LAYER
  2
18
 70
    64
 62
     7
  6
CONTINUOUS
  0
LAYER
  2
19
 70
    64
 62
     7
  6
CONTINUOUS
  0
LAYER
  2
20
 70
    64
 62
     7
  6
CONTINUOUS
  0
LAYER
  2
21
 70
    64
 62
     7
  6
CONTINUOUS
  0
LAYER
  2
22
 70
    64
 62
     7
  6
CONTINUOUS
  0
LAYER
  2
23
 70
    64
 62
     7
  6
CONTINUOUS
  0
LAYER
  2
24
 70
    64
 62
     7
  6
CONTINUOUS
  0
LAYER
  2
25
 70
    64
 62
     7
  6
CONTINUOUS
  0
LAYER
  2
26
 70
    64
 62
     7
  6
CONTINUOUS
  0
LAYER
  2
27
 70
    64
 62
     7
  6
CONTINUOUS
  0
LAYER
  2
28
 70
    64
 62
     7
  6
CONTINUOUS
  0
LAYER
  2
29
 70
    64
 62
     7
  6
CONTINUOUS
  0
LAYER
  2
30
 70
    64
 62
     7
  6
CONTINUOUS
  0
LAYER
  2
31
 70
    64
 62
     7
  6
CONTINUOUS
  0
LAYER
  2
32
 70
    64
 62
     7
  6
CONTINUOUS
  0
LAYER
  2
33
 70
    64
 62
     7
  6
CONTINUOUS
  0
LAYER
  2
34
 70
    64
 62
     7
  6
CONTINUOUS
  0
LAYER
  2
35
 70
    64
 62
     7
  6
CONTINUOUS
  0
LAYER
  2
36
 70
    64
 62
     7
  6
CONTINUOUS
  0
LAYER
  2
37
 70
    64
 62
     7
  6
CONTINUOUS
  0
LAYER
  2
38
 70
    64
 62
     7
  6
CONTINUOUS
  0
LAYER
  2
39
 70
    64
 62
     7
  6
CONTINUOUS
  0
LAYER
  2
40
 70
    64
 62
     7
  6
CONTINUOUS
  0
LAYER
  2
41
 70
    64
 62
     7
  6
CONTINUOUS
  0
LAYER
  2
42
 70
    64
 62
     7
  6
CONTINUOUS
  0
LAYER
  2
43
 70
    64
 62
     7
  6
CONTINUOUS
  0
LAYER
  2
44
 70
    64
 62
     7
  6
CONTINUOUS
  0
LAYER
  2
45
 70
    64
 62
     7
  6
CONTINUOUS
  0
LAYER
  2
46
 70
    64
 62
     7
  6
CONTINUOUS
  0
LAYER
  2
47
 70
    64
 62
     7
  6
CONTINUOUS
  0
LAYER
  2
48
 70
    64
 62
     7
  6
CONTINUOUS
  0
LAYER
  2
49
 70
    64
 62
     7
  6
CONTINUOUS
  0
LAYER
  2
50
 70
    64
 62
     7
  6
CONTINUOUS
  0
LAYER
  2
51
 70
    64
 62
     7
  6
CONTINUOUS
  0
LAYER
  2
52
 70
    64
 62
     7
  6
CONTINUOUS
  0
LAYER
  2
53
 70
    64
 62
     7
  6
CONTINUOUS
  0
LAYER
  2
54
 70
    64
 62
     7
  6
CONTINUOUS
  0
LAYER
  2
55
 70
    64
 62
     7
  6
CONTINUOUS
  0
LAYER
  2
56
 70
    64
 62
     7
  6
CONTINUOUS
  0
LAYER
  2
57
 70
    64
 62
     7
  6
CONTINUOUS
  0
LAYER
  2
58
 70
    64
 62
     7
  6
CONTINUOUS
  0
LAYER
  2
59
 70
    64
 62
     7
  6
CONTINUOUS
  0
LAYER
  2
60
 70
    64
 62
     7
  6
CONTINUOUS
  0
LAYER
  2
61
 70
    64
 62
     7
  6
CONTINUOUS
  0
LAYER
  2
62
 70
    64
 62
     7
  6
CONTINUOUS
  0
LAYER
  2
63
 70
    64
 62
     7
  6
CONTINUOUS
  0
LAYER
  2
64
 70
    64
 62
     7
  6
CONTINUOUS
  0
LAYER
  2
65
 70
    64
 62
     7
  6
CONTINUOUS
  0
LAYER
  2
66
 70
    64
 62
     7
  6
CONTINUOUS
  0
LAYER
  2
67
 70
    64
 62
     7
  6
CONTINUOUS
  0
LAYER
  2
68
 70
    64
 62
     7
  6
CONTINUOUS
  0
LAYER
  2
69
 70
    64
 62
     7
  6
CONTINUOUS
  0
LAYER
  2
70
 70
    64
 62
     7
  6
CONTINUOUS
  0
LAYER
  2
71
 70
    64
 62
     7
  6
CONTINUOUS
  0
LAYER
  2
72
 70
    64
 62
     7
  6
CONTINUOUS
  0
LAYER
  2
73
 70
    64
 62
     7
  6
CONTINUOUS
  0
LAYER
  2
74
 70
    64
 62
     7
  6
CONTINUOUS
  0
LAYER
  2
75
 70
    64
 62
     7
  6
CONTINUOUS
  0
LAYER
  2
76
 70
    64
 62
     7
  6
CONTINUOUS
  0
LAYER
  2
77
 70
    64
 62
     7
  6
CONTINUOUS
  0
LAYER
  2
78
 70
    64
 62
     7
  6
CONTINUOUS
  0
LAYER
  2
79
 70
    64
 62
     7
  6
CONTINUOUS
  0
LAYER
  2
80
 70
    64
 62
     7
  6
CONTINUOUS
  0
LAYER
  2
81
 70
    64
 62
     7
  6
CONTINUOUS
  0
LAYER
  2
82
 70
    64
 62
     7
  6
CONTINUOUS
  0
LAYER
  2
83
 70
    64
 62
     7
  6
CONTINUOUS
  0
LAYER
  2
84
 70
    64
 62
     7
  6
CONTINUOUS
  0
LAYER
  2
85
 70
    64
 62
     7
  6
CONTINUOUS
  0
LAYER
  2
86
 70
    64
 62
     7
  6
CONTINUOUS
  0
LAYER
  2
87
 70
    64
 62
     7
  6
CONTINUOUS
  0
LAYER
  2
88
 70
    64
 62
     7
  6
CONTINUOUS
  0
LAYER
  2
89
 70
    64
 62
     7
  6
CONTINUOUS
  0
LAYER
  2
90
 70
    64
 62
     7
  6
CONTINUOUS
  0
LAYER
  2
91
 70
    64
 62
     7
  6
CONTINUOUS
  0
LAYER
  2
92
 70
    64
 62
     7
  6
CONTINUOUS
  0
LAYER
  2
93
 70
    64
 62
     7
  6
CONTINUOUS
  0
LAYER
  2
94
 70
    64
 62
     7
  6
CONTINUOUS
  0
LAYER
  2
95
 70
    64
 62
     7
  6
CONTINUOUS
  0
LAYER
  2
96
 70
    64
 62
     7
  6
CONTINUOUS
  0
LAYER
  2
97
 70
    64
 62
     7
  6
CONTINUOUS
  0
LAYER
  2
98
 70
    64
 62
     7
  6
CONTINUOUS
  0
LAYER
  2
99
 70
    64
 62
     7
  6
CONTINUOUS
  0
LAYER
  2
100
 70
    64
 62
     7
  6
CONTINUOUS
  0
LAYER
  2
101
 70
    64
 62
     7
  6
CONTINUOUS
  0
LAYER
  2
102
 70
    64
 62
     7
  6
CONTINUOUS
  0
LAYER
  2
103
 70
    64
 62
     7
  6
CONTINUOUS
  0
LAYER
  2
104
 70
    64
 62
     7
  6
CONTINUOUS
  0
LAYER
  2
105
 70
    64
 62
     7
  6
CONTINUOUS
  0
LAYER
  2
106
 70
    64
 62
     7
  6
CONTINUOUS
  0
LAYER
  2
107
 70
    64
 62
     7
  6
CONTINUOUS
  0
LAYER
  2
108
 70
    64
 62
     7
  6
CONTINUOUS
  0
LAYER
  2
109
 70
    64
 62
     7
  6
CONTINUOUS
  0
LAYER
  2
110
 70
    64
 62
     7
  6
CONTINUOUS
  0
LAYER
  2
111
 70
    64
 62
     7
  6
CONTINUOUS
  0
LAYER
  2
112
 70
    64
 62
     7
  6
CONTINUOUS
  0
LAYER
  2
113
 70
    64
 62
     7
  6
CONTINUOUS
  0
LAYER
  2
114
 70
    64
 62
     7
  6
CONTINUOUS
  0
LAYER
  2
115
 70
    64
 62
     7
  6
CONTINUOUS
  0
LAYER
  2
116
 70
    64
 62
     7
  6
CONTINUOUS
  0
LAYER
  2
117
 70
    64
 62
     7
  6
CONTINUOUS
  0
LAYER
  2
118
 70
    64
 62
     7
  6
CONTINUOUS
  0
LAYER
  2
119
 70
    64
 62
     7
  6
CONTINUOUS
  0
LAYER
  2
120
 70
    64
 62
     7
  6
CONTINUOUS
  0
LAYER
  2
121
 70
    64
 62
     7
  6
CONTINUOUS
  0
LAYER
  2
122
 70
    64
 62
     7
  6
CONTINUOUS
  0
LAYER
  2
123
 70
    64
 62
     7
  6
CONTINUOUS
  0
LAYER
  2
124
 70
    64
 62
     7
  6
CONTINUOUS
  0
LAYER
  2
125
 70
    64
 62
     7
  6
CONTINUOUS
  0
LAYER
  2
126
 70
    64
 62
     7
  6
CONTINUOUS
  0
LAYER
  2
127
 70
    64
 62
     7
  6
CONTINUOUS
  0
LAYER
  2
128
 70
    64
 62
     7
  6
CONTINUOUS
  0
LAYER
  2
129
 70
    64
 62
     7
  6
CONTINUOUS
  0
LAYER
  2
130
 70
    64
 62
     7
  6
CONTINUOUS
  0
LAYER
  2
131
 70
    64
 62
     7
  6
CONTINUOUS
  0
LAYER
  2
132
 70
    64
 62
     7
  6
CONTINUOUS
  0
LAYER
  2
133
 70
    64
 62
     7
  6
CONTINUOUS
  0
LAYER
  2
134
 70
    64
 62
     7
  6
CONTINUOUS
  0
LAYER
  2
135
 70
    64
 62
     7
  6
CONTINUOUS
  0
LAYER
  2
136
 70
    64
 62
     7
  6
CONTINUOUS
  0
LAYER
  2
137
 70
    64
 62
     7
  6
CONTINUOUS
  0
LAYER
  2
138
 70
    64
 62
     7
  6
CONTINUOUS
  0
LAYER
  2
139
 70
    64
 62
     7
  6
CONTINUOUS
  0
LAYER
  2
140
 70
    64
 62
     7
  6
CONTINUOUS
  0
LAYER
  2
141
 70
    64
 62
     7
  6
CONTINUOUS
  0
LAYER
  2
142
 70
    64
 62
     7
  6
CONTINUOUS
  0
LAYER
  2
143
 70
    64
 62
     7
  6
CONTINUOUS
  0
LAYER
  2
144
 70
    64
 62
     7
  6
CONTINUOUS
  0
LAYER
  2
145
 70
    64
 62
     7
  6
CONTINUOUS
  0
LAYER
  2
146
 70
    64
 62
     7
  6
CONTINUOUS
  0
LAYER
  2
147
 70
    64
 62
     7
  6
CONTINUOUS
  0
LAYER
  2
148
 70
    64
 62
     7
  6
CONTINUOUS
  0
LAYER
  2
149
 70
    64
 62
     7
  6
CONTINUOUS
  0
LAYER
  2
150
 70
    64
 62
     7
  6
CONTINUOUS
  0
LAYER
  2
151
 70
    64
 62
     7
  6
CONTINUOUS
  0
LAYER
  2
152
 70
    64
 62
     7
  6
CONTINUOUS
  0
LAYER
  2
153
 70
    64
 62
     7
  6
CONTINUOUS
  0
LAYER
  2
154
 70
    64
 62
     7
  6
CONTINUOUS
  0
LAYER
  2
155
 70
    64
 62
     7
  6
CONTINUOUS
  0
LAYER
  2
156
 70
    64
 62
     7
  6
CONTINUOUS
  0
LAYER
  2
157
 70
    64
 62
     7
  6
CONTINUOUS
  0
LAYER
  2
158
 70
    64
 62
     7
  6
CONTINUOUS
  0
LAYER
  2
159
 70
    64
 62
     7
  6
CONTINUOUS
  0
LAYER
  2
160
 70
    64
 62
     7
  6
CONTINUOUS
  0
LAYER
  2
161
 70
    64
 62
     7
  6
CONTINUOUS
  0
LAYER
  2
162
 70
    64
 62
     7
  6
CONTINUOUS
  0
LAYER
  2
163
 70
    64
 62
     7
  6
CONTINUOUS
  0
LAYER
  2
164
 70
    64
 62
     7
  6
CONTINUOUS
  0
LAYER
  2
165
 70
    64
 62
     7
  6
CONTINUOUS
  0
LAYER
  2
166
 70
    64
 62
     7
  6
CONTINUOUS
  0
LAYER
  2
167
 70
    64
 62
     7
  6
CONTINUOUS
  0
LAYER
  2
168
 70
    64
 62
     7
  6
CONTINUOUS
  0
LAYER
  2
169
 70
    64
 62
     7
  6
CONTINUOUS
  0
LAYER
  2
170
 70
    64
 62
     7
  6
CONTINUOUS
  0
LAYER
  2
171
 70
    64
 62
     7
  6
CONTINUOUS
  0
LAYER
  2
172
 70
    64
 62
     7
  6
CONTINUOUS
  0
LAYER
  2
173
 70
    64
 62
     7
  6
CONTINUOUS
  0
LAYER
  2
174
 70
    64
 62
     7
  6
CONTINUOUS
  0
LAYER
  2
175
 70
    64
 62
     7
  6
CONTINUOUS
  0
LAYER
  2
176
 70
    64
 62
     7
  6
CONTINUOUS
  0
LAYER
  2
177
 70
    64
 62
     7
  6
CONTINUOUS
  0
LAYER
  2
178
 70
    64
 62
     7
  6
CONTINUOUS
  0
LAYER
  2
179
 70
    64
 62
     7
  6
CONTINUOUS
  0
LAYER
  2
180
 70
    64
 62
     7
  6
CONTINUOUS
  0
LAYER
  2
181
 70
    64
 62
     7
  6
CONTINUOUS
  0
LAYER
  2
182
 70
    64
 62
     7
  6
CONTINUOUS
  0
LAYER
  2
183
 70
    64
 62
     7
  6
CONTINUOUS
  0
LAYER
  2
184
 70
    64
 62
     7
  6
CONTINUOUS
  0
LAYER
  2
185
 70
    64
 62
     7
  6
CONTINUOUS
  0
LAYER
  2
186
 70
    64
 62
     7
  6
CONTINUOUS
  0
LAYER
  2
187
 70
    64
 62
     7
  6
CONTINUOUS
  0
LAYER
  2
188
 70
    64
 62
     7
  6
CONTINUOUS
  0
LAYER
  2
189
 70
    64
 62
     7
  6
CONTINUOUS
  0
LAYER
  2
190
 70
    64
 62
     7
  6
CONTINUOUS
  0
LAYER
  2
191
 70
    64
 62
     7
  6
CONTINUOUS
  0
LAYER
  2
192
 70
    64
 62
     7
  6
CONTINUOUS
  0
LAYER
  2
193
 70
    64
 62
     7
  6
CONTINUOUS
  0
LAYER
  2
194
 70
    64
 62
     7
  6
CONTINUOUS
  0
LAYER
  2
195
 70
    64
 62
     7
  6
CONTINUOUS
  0
LAYER
  2
196
 70
    64
 62
     7
  6
CONTINUOUS
  0
LAYER
  2
197
 70
    64
 62
     7
  6
CONTINUOUS
  0
LAYER
  2
198
 70
    64
 62
     7
  6
CONTINUOUS
  0
LAYER
  2
199
 70
    64
 62
     7
  6
CONTINUOUS
  0
LAYER
  2
200
 70
    64
 62
     7
  6
CONTINUOUS
  0
LAYER
  2
201
 70
    64
 62
     7
  6
CONTINUOUS
  0
LAYER
  2
202
 70
    64
 62
     7
  6
CONTINUOUS
  0
LAYER
  2
203
 70
    64
 62
     7
  6
CONTINUOUS
  0
LAYER
  2
204
 70
    64
 62
     7
  6
CONTINUOUS
  0
LAYER
  2
205
 70
    64
 62
     7
  6
CONTINUOUS
  0
LAYER
  2
206
 70
    64
 62
     7
  6
CONTINUOUS
  0
LAYER
  2
207
 70
    64
 62
     7
  6
CONTINUOUS
  0
LAYER
  2
208
 70
    64
 62
     7
  6
CONTINUOUS
  0
LAYER
  2
209
 70
    64
 62
     7
  6
CONTINUOUS
  0
LAYER
  2
210
 70
    64
 62
     7
  6
CONTINUOUS
  0
LAYER
  2
211
 70
    64
 62
     7
  6
CONTINUOUS
  0
LAYER
  2
212
 70
    64
 62
     7
  6
CONTINUOUS
  0
LAYER
  2
213
 70
    64
 62
     7
  6
CONTINUOUS
  0
LAYER
  2
214
 70
    64
 62
     7
  6
CONTINUOUS
  0
LAYER
  2
215
 70
    64
 62
     7
  6
CONTINUOUS
  0
LAYER
  2
216
 70
    64
 62
     7
  6
CONTINUOUS
  0
LAYER
  2
217
 70
    64
 62
     7
  6
CONTINUOUS
  0
LAYER
  2
218
 70
    64
 62
     7
  6
CONTINUOUS
  0
LAYER
  2
219
 70
    64
 62
     7
  6
CONTINUOUS
  0
LAYER
  2
220
 70
    64
 62
     7
  6
CONTINUOUS
  0
LAYER
  2
221
 70
    64
 62
     7
  6
CONTINUOUS
  0
LAYER
  2
222
 70
    64
 62
     7
  6
CONTINUOUS
  0
LAYER
  2
223
 70
    64
 62
     7
  6
CONTINUOUS
  0
LAYER
  2
224
 70
    64
 62
     7
  6
CONTINUOUS
  0
LAYER
  2
225
 70
    64
 62
     7
  6
CONTINUOUS
  0
LAYER
  2
226
 70
    64
 62
     7
  6
CONTINUOUS
  0
LAYER
  2
227
 70
    64
 62
     7
  6
CONTINUOUS
  0
LAYER
  2
228
 70
    64
 62
     7
  6
CONTINUOUS
  0
LAYER
  2
229
 70
    64
 62
     7
  6
CONTINUOUS
  0
LAYER
  2
230
 70
    64
 62
     7
  6
CONTINUOUS
  0
LAYER
  2
231
 70
    64
 62
     7
  6
CONTINUOUS
  0
LAYER
  2
232
 70
    64
 62
     7
  6
CONTINUOUS
  0
LAYER
  2
233
 70
    64
 62
     7
  6
CONTINUOUS
  0
LAYER
  2
234
 70
    64
 62
     7
  6
CONTINUOUS
  0
LAYER
  2
235
 70
    64
 62
     7
  6
CONTINUOUS
  0
LAYER
  2
236
 70
    64
 62
     7
  6
CONTINUOUS
  0
LAYER
  2
237
 70
    64
 62
     7
  6
CONTINUOUS
  0
LAYER
  2
238
 70
    64
 62
     7
  6
CONTINUOUS
  0
LAYER
  2
239
 70
    64
 62
     7
  6
CONTINUOUS
  0
LAYER
  2
240
 70
    64
 62
     7
  6
CONTINUOUS
  0
LAYER
  2
241
 70
    64
 62
     7
  6
CONTINUOUS
  0
LAYER
  2
242
 70
    64
 62
     7
  6
CONTINUOUS
  0
LAYER
  2
243
 70
    64
 62
     7
  6
CONTINUOUS
  0
LAYER
  2
244
 70
    64
 62
     7
  6
CONTINUOUS
  0
LAYER
  2
245
 70
    64
 62
     7
  6
CONTINUOUS
  0
LAYER
  2
246
 70
    64
 62
     7
  6
CONTINUOUS
  0
LAYER
  2
247
 70
    64
 62
     7
  6
CONTINUOUS
  0
LAYER
  2
248
 70
    64
 62
     7
  6
CONTINUOUS
  0
LAYER
  2
249
 70
    64
 62
     7
  6
CONTINUOUS
  0
LAYER
  2
250
 70
    64
 62
     7
  6
CONTINUOUS
  0
LAYER
  2
251
 70
    64
 62
     7
  6
CONTINUOUS
  0
LAYER
  2
252
 70
    64
 62
     7
  6
CONTINUOUS
  0
LAYER
  2
253
 70
    64
 62
     7
  6
CONTINUOUS
  0
LAYER
  2
254
 70
    64
 62
     7
  6
CONTINUOUS
  0
LAYER
  2
255
 70
    64
 62
     7
  6
CONTINUOUS
  0
ENDTAB
  0
TABLE
  2
STYLE
 70
     2
  0
STYLE
  2
STANDARD
 70
    64
 40
0.0
 41
1.0
 50
0.0
 71
     0
 42
3.000000
  3
TXT
  4
BIGFONT
  0
ENDTAB
  0
ENDSEC
  0
SECTION
  2
BLOCKS
  0
BLOCK
  8
0
  2
CADWIN-G0
 70
    0
 10
0.0
 20
0.0
  0
LINE
  8
256
  6
CONTINUOUS
 62
     7
 10
 104.99998474121094
 20
-121.5
 11
 200
 21
-121.5
  0
LINE
  8
256
  6
CONTINUOUS
 62
     7
 10
 170.99998474121094
 20
-109.5
 11
 170.99998474121094
 21
-121.5
  0
TEXT
  8
256
  6
CONTINUOUS
 62
     7
 10
 112.5
 20
-134.25
 11
 136.5
 21
-134.25
 40
 6
 41
 1
  1
Ｍ－４３
 50
 0
 72
  5
  0
TEXT
  8
256
  6
CONTINUOUS
 62
     7
 10
 117.99998474121094
 20
-119.75
 11
 157.99998474121094
 21
-119.75
 40
 5
 41
 0.8
  1
主幹ＭＣＣＢ取付金具
 50
 0
 72
  5
  0
TEXT
  8
256
  6
CONTINUOUS
 62
     7
 10
 106.29998779296875
 20
-112.4499633789062
 11
 111.29998779296875
 21
-112.4499633789062
 40
 2.5
 41
 0.8
  1
品名
 50
 0
 72
  5
  0
TEXT
  8
256
  6
CONTINUOUS
 62
     7
 10
 106.29998779296875
 20
-124.45003051757811
 11
 111.29998779296875
 21
-124.45003051757811
 40
 2.5
 41
 0.8
  1
品番
 50
 0
 72
  5
  0
LINE
  8
256
  6
CONTINUOUS
 62
     7
 10
 104.99998474121094
 20
-139.5
 11
 104.99998474121094
 21
-109.5
  0
LINE
  8
256
  6
CONTINUOUS
 62
     7
 10
 104.99998474121094
 20
-109.5
 11
 200
 21
-109.5
  0
LINE
  8
256
  6
CONTINUOUS
 62
     7
 10
-193.30000000000001
 20
 124.99999645625348
 11
-93.300000000000011
 21
 124.99999645625348
  0
TEXT
  8
256
  6
CONTINUOUS
 62
     7
 10
-188.30000000000001
 20
 127.99999604817611
 11
-134.30000000000001
 21
 127.99999604817611
 40
 6
 41
 1
  1
ＬＢ－Ｄ５１４０Ｂ
 50
 0
 72
  5
  0
LINE
  8
256
  6
CONTINUOUS
 62
     7
 10
-93.300000000000011
 20
 124.9999964562535
 11
-93.300000000000011
 21
 136.99999721136808
  0
LINE
  8
256
  6
CONTINUOUS
 62
     7
 10
 200
 20
-139.5
 11
-193.30000000000001
 21
-139.49999999999994
  0
LINE
  8
256
  6
CONTINUOUS
 62
     7
 10
 200
 20
 136.99999721136808
 11
 200
 21
-139.5
  0
LINE
  8
256
  6
CONTINUOUS
 62
     7
 10
-193.30000000000001
 20
 136.99999721136808
 11
-193.30000000000001
 21
-139.49999999999994
  0
LINE
  8
256
  6
CONTINUOUS
 62
     7
 10
-193.30000000000001
 20
 136.99999721136808
 11
 200
 21
 136.99999721136808
  0
ENDBLK
  8
0
  0
ENDSEC
  0
SECTION
  2
ENTITIES
  0
LINE
  8
99
  6
CONTINUOUS
 62
     3
 10
-3.0500144958496165
 20
-71.399999141693115
 11
 23.750003814697259
 21
-71.399999141693115
  0
ARC
  8
99
  6
CONTINUOUS
 62
     3
 10
-3.0500144958496165
 20
-69.799998760223389
 40
 1.6000000238418579
 50
-179.9999980615126
 51
-90.000000851989171
  0
LINE
  8
99
  6
CONTINUOUS
 62
     3
 10
 23.750003814697259
 20
-71.399999141693115
 11
 23.750003814697259
 21
-72.999999523162842
  0
LINE
  8
99
  6
CONTINUOUS
 62
     3
 10
 23.750003814697259
 20
-72.999999523162842
 11
-3.0500144958496165
 21
-72.999999523162842
  0
ARC
  8
99
  6
CONTINUOUS
 62
     3
 10
-3.0500144958496165
 20
-69.799998760223389
 40
 3.2000000476837158
 50
-179.9999980615126
 51
-90.000000851989171
  0
LINE
  8
99
  6
CONTINUOUS
 62
     3
 10
-4.650005340576179
 20
-33.200000263750546
 11
-4.650005340576179
 21
-69.799998760223389
  0
ARC
  8
99
  6
CONTINUOUS
 62
     3
 10
-7.8500022888183807
 20
-33.200000263750546
 40
 3.2000000476837158
 50
 0
 51
 90.000004039712721
  0
LINE
  8
99
  6
CONTINUOUS
 62
     3
 10
-6.2499961853027415
 20
-69.799998760223389
 11
-6.2499961853027415
 21
-33.200000263750546
  0
ARC
  8
99
  6
CONTINUOUS
 62
     3
 10
-7.8500022888183807
 20
-33.200000263750546
 40
 1.6000000238418579
 50
 0
 51
 90.000004039712721
  0
LINE
  8
99
  6
CONTINUOUS
 62
     3
 10
-21.250003814697259
 20
-29.999999523162842
 11
-7.8500022888183807
 21
-29.999999523162842
  0
LINE
  8
99
  6
CONTINUOUS
 62
     3
 10
-7.8500022888183807
 20
-31.599999904632561
 11
-21.250003814697259
 21
-31.599999904632561
  0
LINE
  8
99
  6
CONTINUOUS
 62
     3
 10
-21.250003814697259
 20
-31.599999904632561
 11
-21.250003814697259
 21
-29.999999523162842
  0
POINT
  8
99
  6
CONTINUOUS
 62
     3
 10
 13.749980926513665
 20
-72.999999523162842
  0
LINE
  8
99
  6
DOT
 62
     3
 10
 11.649967193603509
 20
-72.999999523162842
 11
 11.649967193603509
 21
-71.399999141693115
  0
LINE
  8
99
  6
DOT
 62
     3
 10
 15.849964141845696
 20
-72.999999523162842
 11
 15.849964141845696
 21
-71.399999141693115
  0
POINT
  8
99
  6
CONTINUOUS
 62
     3
 10
-16.249996185302727
 20
-29.999999523162842
  0
LINE
  8
99
  6
DOT
 62
     3
 10
-17.850009918212898
 20
-29.999999523162842
 11
-17.850009918212898
 21
-31.599999904632561
  0
LINE
  8
99
  6
DOT
 62
     3
 10
-14.649982452392585
 20
-29.999999523162842
 11
-14.649982452392585
 21
-31.599999904632561
  0
LINE
  8
99
  6
DASHDOT
 62
     7
 10
-25.725955963134759
 20
 34.999996185302734
 11
 26.661869049072259
 21
 34.999996185302734
  0
LINE
  8
99
  6
CONTINUOUS
 62
     3
 10
-21.250003814697259
 20
 70.000003814697266
 11
 23.750003814697259
 21
 70.000003814697266
  0
LINE
  8
99
  6
CONTINUOUS
 62
     3
 10
 23.750003814697259
 20
 70.000003814697266
 11
 23.750003814697259
 21
 0
  0
LINE
  8
99
  6
CONTINUOUS
 62
     3
 10
 23.750003814697259
 20
 0
 11
-21.250003814697259
 21
 0
  0
LINE
  8
99
  6
CONTINUOUS
 62
     3
 10
-21.250003814697259
 20
 0
 11
-21.250003814697259
 21
 70.000003814697266
  0
CIRCLE
  8
99
  6
CONTINUOUS
 62
     3
 10
-16.250003814697259
 20
 34.999996185302734
 40
 1.6000000238418579
  0
CIRCLE
  8
99
  6
CONTINUOUS
 62
     3
 10
-16.250003814697259
 20
 47.499996185302734
 40
 1.6000000238418579
  0
CIRCLE
  8
99
  6
CONTINUOUS
 62
     3
 10
-16.250003814697259
 20
 22.499996185302734
 40
 1.6000000238418579
  0
LINE
  8
99
  6
DOT
 62
     3
 10
-6.2499885559082102
 20
 0
 11
-6.2499885559082102
 21
 70.000003814697266
  0
LINE
  8
99
  6
CONTINUOUS
 62
     3
 10
-4.6499900817871165
 20
 0
 11
-4.6499900817871165
 21
 70.000003814697266
  0
LINE
  8
99
  6
CONTINUOUS
 62
     7
 10
 25.376605987548821
 20
-71.399999141693115
 11
 34.710010528564418
 21
-71.399999141693115
  0
LINE
  8
99
  6
CONTINUOUS
 62
     7
 10
 33.750003814697259
 20
-78.802070140838623
 11
 33.750003814697259
 21
-72.999999523162842
  0
LINE
  8
99
  6
CONTINUOUS
 62
     7
 10
 33.750003814697259
 20
-72.999999523162842
 11
 32.973546679389699
 21
-75.89777700203004
  0
LINE
  8
99
  6
CONTINUOUS
 62
     7
 10
 33.750003814697259
 20
-72.999999523162842
 11
 34.526460950004818
 21
-75.89777700203004
  0
LINE
  8
99
  6
CONTINUOUS
 62
     7
 10
 33.750003814697259
 20
-71.399999141693115
 11
 33.750003814697259
 21
-72.999999523162842
  0
TEXT
  8
99
  6
CONTINUOUS
 62
     7
 10
 32.789997135799211
 20
-69.799995664754192
 11
 32.789996882273151
 21
-63.999995664754181
 40
 2
 41
 0.8
  1
１．６
 50
 90.000004039712707
 72
  5
  0
LINE
  8
99
  6
CONTINUOUS
 62
     7
 10
 33.750003814697259
 20
-63.994372844696045
 11
 33.750003814697259
 21
-71.399999141693115
  0
LINE
  8
99
  6
CONTINUOUS
 62
     7
 10
 33.750003814697259
 20
-71.399999141693115
 11
 34.526460950004818
 21
-68.502221662825917
  0
LINE
  8
99
  6
CONTINUOUS
 62
     7
 10
 33.750003814697259
 20
-71.399999141693115
 11
 32.973546679389699
 21
-68.502221662825917
  0
LINE
  8
99
  6
DASHDOT
 62
     2
 10
-16.249996185302727
 20
-26.542446613311768
 11
-16.249996185302727
 21
-35.432672977447503
  0
LINE
  8
99
  6
DASHDOT
 62
     2
 10
 13.749980926513665
 20
-67.531245708465576
 11
 13.749980926513665
 21
-77.627408504486084
  0
LINE
  8
99
  6
CONTINUOUS
 62
     7
 10
 17.583286285400384
 20
 67.106731414794922
 11
 14.746929571517452
 21
 61.848272090964677
  0
LINE
  8
99
  6
CONTINUOUS
 62
     7
 10
 14.746929571517452
 20
 61.848272090964677
 11
 16.805982579904061
 21
 64.030083427596253
  0
LINE
  8
99
  6
CONTINUOUS
 62
     7
 10
 14.746929571517452
 20
 61.848272090964677
 11
 15.439216116203243
 21
 64.767302638945807
  0
TEXT
  8
99
  6
CONTINUOUS
 62
     7
 10
-53.830142974853509
 20
 63.958339691162109
 11
-39.330142974853509
 21
 63.958339691162109
 40
 2.5
 41
 0.8
  1
３－φ３．２
 50
 0
 72
  5
  0
LINE
  8
99
  6
CONTINUOUS
 62
     7
 10
-54.708347320556634
 20
 63.208339691162116
 11
-18.714725494384773
 21
 63.208339691162116
  0
LINE
  8
99
  6
CONTINUOUS
 62
     7
 10
-18.714725494384773
 20
 63.208339691162116
 11
-16.495021820068366
 21
 49.061550140380859
  0
LINE
  8
99
  6
CONTINUOUS
 62
     7
 10
-16.495021820068366
 20
 49.061550140380859
 11
-16.17713012963824
 21
 52.04466007351364
  0
LINE
  8
99
  6
CONTINUOUS
 62
     7
 10
-16.495021820068366
 20
 49.061550140380859
 11
-17.711274507070289
 21
 51.803944969970608
  0
LINE
  8
99
  6
CONTINUOUS
 62
     7
 10
-25.725955963134759
 20
 34.999996185302734
 11
-32.209995269775384
 21
 34.999996185302734
  0
LINE
  8
99
  6
CONTINUOUS
 62
     7
 10
-16.250003814697259
 20
 51.678775787353523
 11
-16.250003814697259
 21
-10.959999084472653
  0
LINE
  8
99
  6
CONTINUOUS
 62
     7
 10
 13.749996185302727
 20
 65.701221466064453
 11
 13.749996185302727
 21
-10.959999084472653
  0
LINE
  8
99
  6
CONTINUOUS
 62
     7
 10
-16.250003814697259
 20
-9.9999980926513672
 11
 13.749996185302727
 21
-9.9999980926513672
  0
LINE
  8
99
  6
CONTINUOUS
 62
     7
 10
-16.250003814697259
 20
-9.9999980926513672
 11
-13.352226335830053
 21
-10.77645522795893
  0
LINE
  8
99
  6
CONTINUOUS
 62
     7
 10
-16.250003814697259
 20
-9.9999980926513672
 11
-13.352226335830053
 21
-9.2235409573438041
  0
LINE
  8
99
  6
CONTINUOUS
 62
     7
 10
 13.749996185302727
 20
-9.9999980926513672
 11
 10.852218706435522
 21
-9.2235409573438041
  0
LINE
  8
99
  6
CONTINUOUS
 62
     7
 10
 13.749996185302727
 20
-9.9999980926513672
 11
 10.852218706435522
 21
-10.77645522795893
  0
TEXT
  8
99
  6
CONTINUOUS
 62
     7
 10
-3.0999992370605538
 20
-9.0399990081787074
 11
 0.6000007629394464
 21
-9.0399990081787074
 40
 2
 41
 0.8
  1
30
 50
 0
 72
  5
  0
LINE
  8
99
  6
CONTINUOUS
 62
     7
 10
 23.750003814697259
 20
-2.0552425384521449
 11
 23.750003814697259
 21
-10.959999084472653
  0
LINE
  8
99
  6
CONTINUOUS
 62
     7
 10
 13.749996185302727
 20
-9.9999980926513672
 11
 23.750003814697259
 21
-9.9999980926513672
  0
LINE
  8
99
  6
CONTINUOUS
 62
     7
 10
 13.749996185302727
 20
-9.9999980926513672
 11
 16.647773664169932
 21
-10.77645522795893
  0
LINE
  8
99
  6
CONTINUOUS
 62
     7
 10
 13.749996185302727
 20
-9.9999980926513672
 11
 16.647773664169932
 21
-9.2235409573438041
  0
LINE
  8
99
  6
CONTINUOUS
 62
     7
 10
 23.750003814697259
 20
-9.9999980926513672
 11
 20.852226335830053
 21
-9.2235409573438041
  0
LINE
  8
99
  6
CONTINUOUS
 62
     7
 10
 23.750003814697259
 20
-9.9999980926513672
 11
 20.852226335830053
 21
-10.77645522795893
  0
TEXT
  8
99
  6
CONTINUOUS
 62
     7
 10
 16.900000762939445
 20
-9.0399990081787074
 11
 20.600000762939445
 21
-9.0399990081787074
 40
 2
 41
 0.8
  1
10
 50
 0
 72
  5
  0
LINE
  8
99
  6
CONTINUOUS
 62
     7
 10
-12.371822357177741
 20
 47.499996185302734
 11
-32.209995269775384
 21
 47.499996185302734
  0
LINE
  8
99
  6
CONTINUOUS
 62
     7
 10
-31.250003814697259
 20
 47.499996185302734
 11
-31.250003814697259
 21
 34.999996185302734
  0
LINE
  8
99
  6
CONTINUOUS
 62
     7
 10
-31.250003814697259
 20
 47.499996185302734
 11
-32.026460950004818
 21
 44.602218706435529
  0
LINE
  8
99
  6
CONTINUOUS
 62
     7
 10
-31.250003814697259
 20
 47.499996185302734
 11
-30.473546679389695
 21
 44.602218706435529
  0
LINE
  8
99
  6
CONTINUOUS
 62
     7
 10
-31.250003814697259
 20
 34.999996185302734
 11
-30.473546679389695
 21
 37.897773664169939
  0
LINE
  8
99
  6
CONTINUOUS
 62
     7
 10
-31.250003814697259
 20
 34.999996185302734
 11
-32.026460950004818
 21
 37.897773664169939
  0
TEXT
  8
99
  6
CONTINUOUS
 62
     7
 10
-32.209995234806286
 20
 37.299994703135219
 11
-32.209995580126268
 21
 45.199994703135211
 40
 2
 41
 0.8
  1
12.5
 50
 90.000004039712707
 72
  5
  0
LINE
  8
99
  6
CONTINUOUS
 62
     7
 10
-12.371822357177741
 20
 22.499996185302734
 11
-32.209995269775384
 21
 22.499996185302734
  0
LINE
  8
99
  6
CONTINUOUS
 62
     7
 10
-31.250003814697259
 20
 34.999996185302734
 11
-31.250003814697259
 21
 22.499996185302734
  0
LINE
  8
99
  6
CONTINUOUS
 62
     7
 10
-31.250003814697259
 20
 34.999996185302734
 11
-32.026460950004818
 21
 32.102218706435529
  0
LINE
  8
99
  6
CONTINUOUS
 62
     7
 10
-31.250003814697259
 20
 34.999996185302734
 11
-30.473546679389695
 21
 32.102218706435529
  0
LINE
  8
99
  6
CONTINUOUS
 62
     7
 10
-31.250003814697259
 20
 22.499996185302734
 11
-30.473546679389695
 21
 25.397773664169939
  0
LINE
  8
99
  6
CONTINUOUS
 62
     7
 10
-31.250003814697259
 20
 22.499996185302734
 11
-32.026460950004818
 21
 25.397773664169939
  0
TEXT
  8
99
  6
CONTINUOUS
 62
     7
 10
-32.209995234806286
 20
 24.799994703135223
 11
-32.209995580126268
 21
 32.699994703135211
 40
 2
 41
 0.8
  1
12.5
 50
 90.000004039712707
 72
  5
  0
LINE
  8
99
  6
CONTINUOUS
 62
     7
 10
-23.589786529541009
 20
 70.000003814697266
 11
-37.209995269775398
 21
 70.000003814697266
  0
LINE
  8
99
  6
CONTINUOUS
 62
     7
 10
-23.589786529541009
 20
 0
 11
-37.209995269775398
 21
 0
  0
LINE
  8
99
  6
CONTINUOUS
 62
     7
 10
-36.250003814697259
 20
 70.000003814697266
 11
-36.250003814697259
 21
 0
  0
LINE
  8
99
  6
CONTINUOUS
 62
     7
 10
-36.250003814697259
 20
 70.000003814697266
 11
-37.026460950004818
 21
 67.102226335830068
  0
LINE
  8
99
  6
CONTINUOUS
 62
     7
 10
-36.250003814697259
 20
 70.000003814697266
 11
-35.473546679389699
 21
 67.102226335830068
  0
LINE
  8
99
  6
CONTINUOUS
 62
     7
 10
-36.250003814697259
 20
 0
 11
-35.473546679389699
 21
 2.897777478867205
  0
LINE
  8
99
  6
CONTINUOUS
 62
     7
 10
-36.250003814697259
 20
 0
 11
-37.026460950004818
 21
 2.897777478867205
  0
TEXT
  8
99
  6
CONTINUOUS
 62
     7
 10
-37.209995234806271
 20
 33.150000806650844
 11
-37.209995396538417
 21
 36.850000806650847
 40
 2
 41
 0.8
  1
70
 50
 90.000004039712707
 72
  5
  0
LINE
  8
99
  6
CONTINUOUS
 62
     7
 10
 8.6057472229003835
 20
 59.999996185302741
 11
 34.710010528564418
 21
 59.999996185302741
  0
LINE
  8
99
  6
CONTINUOUS
 62
     7
 10
 8.0448570251464773
 20
 9.9999961853027344
 11
 34.710010528564418
 21
 9.9999961853027344
  0
LINE
  8
99
  6
CONTINUOUS
 62
     7
 10
 33.750003814697259
 20
 59.999996185302741
 11
 33.750003814697259
 21
 9.9999961853027344
  0
LINE
  8
99
  6
CONTINUOUS
 62
     7
 10
 33.750003814697259
 20
 59.999996185302741
 11
 32.973546679389699
 21
 57.102218706435536
  0
LINE
  8
99
  6
CONTINUOUS
 62
     7
 10
 33.750003814697259
 20
 59.999996185302741
 11
 34.526460950004818
 21
 57.102218706435536
  0
LINE
  8
99
  6
CONTINUOUS
 62
     7
 10
 33.750003814697259
 20
 9.9999961853027344
 11
 34.526460950004818
 21
 12.897773664169939
  0
LINE
  8
99
  6
CONTINUOUS
 62
     7
 10
 33.750003814697259
 20
 9.9999961853027344
 11
 32.973546679389699
 21
 12.897773664169939
  0
TEXT
  8
99
  6
CONTINUOUS
 62
     7
 10
 32.789997135799211
 20
 33.149993177256306
 11
 32.789996974067066
 21
 36.849993177256316
 40
 2
 41
 0.8
  1
50
 50
 90.000004039712707
 72
  5
  0
LINE
  8
99
  6
CONTINUOUS
 62
     7
 10
-6.2499961853027415
 20
-27.524020671844479
 11
-6.2499961853027415
 21
-19.039996147155755
  0
LINE
  8
99
  6
CONTINUOUS
 62
     7
 10
 23.750003814697259
 20
-68.568902492523208
 11
 23.750003814697259
 21
-19.039996147155755
  0
LINE
  8
99
  6
CONTINUOUS
 62
     7
 10
 23.750003814697259
 20
-19.99999904632568
 11
-6.2499961853027415
 21
-19.99999904632568
  0
LINE
  8
99
  6
CONTINUOUS
 62
     7
 10
 23.750003814697259
 20
-19.99999904632568
 11
 20.852226335830053
 21
-19.223541911018117
  0
LINE
  8
99
  6
CONTINUOUS
 62
     7
 10
 23.750003814697259
 20
-19.99999904632568
 11
 20.852226335830053
 21
-20.776456181633243
  0
LINE
  8
99
  6
CONTINUOUS
 62
     7
 10
-6.2499961853027415
 20
-19.99999904632568
 11
-3.3522187064355364
 21
-20.776456181633243
  0
LINE
  8
99
  6
CONTINUOUS
 62
     7
 10
-6.2499961853027415
 20
-19.99999904632568
 11
-3.3522187064355364
 21
-19.223541911018117
  0
TEXT
  8
99
  6
CONTINUOUS
 62
     7
 10
 6.9000007629394462
 20
-19.039997100830078
 11
 10.600000762939445
 21
-19.039997100830078
 40
 2
 41
 0.8
  1
30
 50
 0
 72
  5
  0
LINE
  8
0
  6
CONTINUOUS
 62
     7
 10
-21.250003814697259
 20
 72.000003814697266
 11
-21.250003814697259
 21
 80.960003814697245
  0
LINE
  8
0
  6
CONTINUOUS
 62
     7
 10
 23.750003814697259
 20
 72.000003814697266
 11
 23.750003814697259
 21
 80.960003814697245
  0
LINE
  8
0
  6
CONTINUOUS
 62
     7
 10
-21.250003814697259
 20
 80.000003814697266
 11
 23.750003814697259
 21
 80.000003814697266
  0
LINE
  8
0
  6
CONTINUOUS
 62
     7
 10
-21.250003814697259
 20
 80.000003814697266
 11
-18.352226335830053
 21
 79.223546679389699
  0
LINE
  8
0
  6
CONTINUOUS
 62
     7
 10
-21.250003814697259
 20
 80.000003814697266
 11
-18.352226335830053
 21
 80.776460950004832
  0
LINE
  8
0
  6
CONTINUOUS
 62
     7
 10
 23.750003814697259
 20
 80.000003814697266
 11
 20.852226335830053
 21
 80.776460950004832
  0
LINE
  8
0
  6
CONTINUOUS
 62
     7
 10
 23.750003814697259
 20
 80.000003814697266
 11
 20.852226335830053
 21
 79.223546679389699
  0
TEXT
  8
0
  6
CONTINUOUS
 62
     7
 10
 0.3699999999999999
 20
 80.960003814697259
 11
 4.3900000000000006
 21
 80.960003814697274
 40
 2.2000000000000002
 41
 0.8
  1
45
 50
 0
 72
  5
  0
LINE
  8
0
  6
CONTINUOUS
 62
     7
 10
-21.250003814697259
 20
-1.9999999999999964
 11
-21.250003814697259
 21
-10.959998092651368
  0
LINE
  8
0
  6
CONTINUOUS
 62
     7
 10
-21.250003814697259
 20
-9.9999980926513672
 11
-16.250003814697259
 21
-9.9999980926513672
  0
LINE
  8
0
  6
CONTINUOUS
 62
     7
 10
-21.250003814697259
 20
-9.9999980926513672
 11
-18.352226335830053
 21
-10.77645522795893
  0
LINE
  8
0
  6
CONTINUOUS
 62
     7
 10
-21.250003814697259
 20
-9.9999980926513672
 11
-18.352226335830053
 21
-9.2235409573438041
  0
LINE
  8
0
  6
CONTINUOUS
 62
     7
 10
-16.250003814697259
 20
-9.9999980926513672
 11
-19.147781293564464
 21
-9.2235409573438041
  0
LINE
  8
0
  6
CONTINUOUS
 62
     7
 10
-16.250003814697259
 20
-9.9999980926513672
 11
-19.147781293564464
 21
-10.77645522795893
  0
TEXT
  8
0
  6
CONTINUOUS
 62
     7
 10
-19.630003814697258
 20
-9.0399980926513699
 11
-17.870003814697256
 21
-9.0399980926513681
 40
 2.2000000000000002
 41
 0.8
  1
5
 50
 0
 72
  5
  0
LINE
  8
0
  6
CONTINUOUS
 62
     7
 10
-21.250003814697259
 20
-27.999999523162842
 11
-21.250003814697259
 21
-19.039999046325676
  0
LINE
  8
0
  6
CONTINUOUS
 62
     7
 10
-21.250003814697259
 20
-19.99999904632568
 11
-6.2499961853027415
 21
-19.99999904632568
  0
LINE
  8
0
  6
CONTINUOUS
 62
     7
 10
-21.250003814697259
 20
-19.99999904632568
 11
-18.352226335830053
 21
-20.776456181633243
  0
LINE
  8
0
  6
CONTINUOUS
 62
     7
 10
-21.250003814697259
 20
-19.99999904632568
 11
-18.352226335830053
 21
-19.223541911018117
  0
LINE
  8
0
  6
CONTINUOUS
 62
     7
 10
-6.2499961853027415
 20
-19.99999904632568
 11
-9.1477736641699465
 21
-19.223541911018117
  0
LINE
  8
0
  6
CONTINUOUS
 62
     7
 10
-6.2499961853027415
 20
-19.99999904632568
 11
-9.1477736641699465
 21
-20.776456181633243
  0
TEXT
  8
0
  6
CONTINUOUS
 62
     7
 10
-14.630000000000001
 20
-19.039999046325676
 11
-10.610000000000001
 21
-19.039999046325679
 40
 2.2000000000000002
 41
 0.8
  1
15
 50
 0
 72
  5
  0
INSERT
  8
0
  2
CADWIN-G0
 10
0.0
 20
0.0
  0
LINE
  8
0
  6
CONTINUOUS
 62
     7
 10
-5.2499961853027415
 20
-29.999999523162842
 11
 39.750003814697259
 21
-29.999999523162842
  0
LINE
  8
0
  6
CONTINUOUS
 62
     7
 10
 24.750003814697259
 20
-72.999999523162842
 11
 39.750003814697259
 21
-72.999999523162842
  0
LINE
  8
0
  6
CONTINUOUS
 62
     7
 10
 38.750003814697259
 20
-29.999999523162842
 11
 38.750003814697259
 21
-72.999999523162842
  0
LINE
  8
0
  6
CONTINUOUS
 62
     7
 10
 38.750003814697259
 20
-29.999999523162842
 11
 37.973546679389699
 21
-32.897777002030047
  0
LINE
  8
0
  6
CONTINUOUS
 62
     7
 10
 38.750003814697259
 20
-29.999999523162842
 11
 39.526460950004818
 21
-32.897777002030047
  0
LINE
  8
0
  6
CONTINUOUS
 62
     7
 10
 38.750003814697259
 20
-72.999999523162842
 11
 39.526460950004818
 21
-70.102222044295644
  0
LINE
  8
0
  6
CONTINUOUS
 62
     7
 10
 38.750003814697259
 20
-72.999999523162842
 11
 37.973546679389699
 21
-70.102222044295644
  0
TEXT
  8
0
  6
CONTINUOUS
 62
     7
 10
 37.950003814697247
 20
-53.499999523162842
 11
 37.950003814697247
 21
-49.499999523162842
 40
 2.5
 41
 0.8
  1
43
 50
 90.000001535234517
 72
  5
  0
CIRCLE
  8
0
  6
CONTINUOUS
 62
     3
 10
 13.749996185302727
 20
 59.999996185302741
 40
 2.1000000000000001
  0
CIRCLE
  8
0
  6
CONTINUOUS
 62
     3
 10
 13.749996185302727
 20
 9.9999961853027344
 40
 2.1000000000000001
  0
TEXT
  8
99
  6
CONTINUOUS
 62
     7
 10
 33.740375518798821
 20
 67.856731414794922
 11
 48.240375518798821
 21
 67.856731414794922
 40
 2.5
 41
 0.8
  1
２－φ４．２
 50
 0
 72
  5
  0
LINE
  8
99
  6
CONTINUOUS
 62
     7
 10
 17.583286285400384
 20
 67.106731414794922
 11
 48.304492950439446
 21
 67.106731414794922
  0
ENDSEC
  0
EOF
