  0
SECTION
  2
HEADER
  9
$INSBASE
 10
0.0
20
0.0
  9
$REGENMODE
 70
     1
  9
$DRAGMODE
 70
     1
  9
$DIMTAD
 70
     1
  9
$EXTMIN
 10
-210.000000
 20
-148.500000
 30
 0.0
  9
$EXTMAX
 10
210.000000
 20
148.500000
 30
 0.0
  9
$LUPREC
 70
    3
  9
$AUPREC
 70
    3
  9
$LTSCALE
 40
26.250000
  0
ENDSEC
  0
SECTION
  2
TABLES
  0
TABLE
  2
LTYPE
 70
     6
  0
LTYPE
  2
CONTINUOUS
 70
    64
  3
SOLID
 72
    65
 73
     0
 40
0.0
  0
LTYPE
  2
DASHED2
 70
    64
  3
_ _ _ _ _ _ _ _ _ _ _ _ _ _ _ _ _ _ _ _ _ _ 
 72
    65
 73
     2
 40
0.5
 49
0.25
 49
-0.25
  0
LTYPE
  2
DASHED
 70
    64
  3
__ __ __ __ __ __ __ __ __ __ __ __ __ __ __
 72
    65
 73
     2
 40
0.75
 49
0.5
 49
-0.25
  0
LTYPE
  2
DASHEDX2
 70
    64
  3
____  ____  ____  ____  ____  ____  ____  __
 72
    65
 73
     2
 40
1.5
 49
1.0
 49
-0.5
  0
LTYPE
  2
DOT
 70
    64
  3
............................................
 72
    65
 73
     2
 40
0.25
 49
0
 49
-0.25
  0
LTYPE
  2
DASHDOT
 70
    64
  3
__ . __ . __ . __ . __ . __ . __ . __ . __ .
 72
    65
 73
     4
 40
1.0
 49
0.5
 49
-0.25
 49
0.0
 49
-0.25
  0
LTYPE
  2
CENTER
 70
    64
  3
____ _ ____ _ ____ _ ____ _ ____ _ ____ _ __
 72
    65
 73
     4
 40
2.0
 49
1.25
 49
-0.25
 49
0.25
 49
-0.25
  0
LTYPE
  2
DIVIDE
 70
    64
  3
__ . . __ . . __ . . __ . . __ . . __ . . __
 72
    65
 73
     6
 40
1.25
 49
0.5
 49
-0.25
 49
0.0
 49
-0.25
 49
0.0
 49
-0.25
  0
LTYPE
  2
PHANTOM2
 70
    64
  3
___ _ _ ___ _ _ ___ _ _ ___ _ _ ___ _ _ ___ 
 72
    65
 73
     6
 40
1.25
 49
0.625
 49
-0.125
 49
0.125
 49
-0.125
 49
0.125
 49
-0.125
  0
LTYPE
  2
DOTX2
 70
    64
  3
. . . . . . . . . . . . . . . . . . . . . . 
 72
    65
 73
     2
 40
0.5
 49
0
 49
-0.5
  0
ENDTAB
  0
TABLE
  2
LAYER
 70
   255
  0
LAYER
  2
0
 70
    64
 62
     7
  6
CONTINUOUS
  0
LAYER
  2
1
 70
    64
 62
     7
  6
CONTINUOUS
  0
LAYER
  2
2
 70
    64
 62
     7
  6
CONTINUOUS
  0
LAYER
  2
3
 70
    64
 62
     7
  6
CONTINUOUS
  0
LAYER
  2
4
 70
    64
 62
     7
  6
CONTINUOUS
  0
LAYER
  2
5
 70
    64
 62
     7
  6
CONTINUOUS
  0
LAYER
  2
6
 70
    64
 62
     7
  6
CONTINUOUS
  0
LAYER
  2
7
 70
    64
 62
     7
  6
CONTINUOUS
  0
LAYER
  2
8
 70
    64
 62
     7
  6
CONTINUOUS
  0
LAYER
  2
9
 70
    64
 62
     7
  6
CONTINUOUS
  0
LAYER
  2
10
 70
    64
 62
     7
  6
CONTINUOUS
  0
LAYER
  2
11
 70
    64
 62
     7
  6
CONTINUOUS
  0
LAYER
  2
12
 70
    64
 62
     7
  6
CONTINUOUS
  0
LAYER
  2
13
 70
    64
 62
     7
  6
CONTINUOUS
  0
LAYER
  2
14
 70
    64
 62
     7
  6
CONTINUOUS
  0
LAYER
  2
15
 70
    64
 62
     7
  6
CONTINUOUS
  0
LAYER
  2
16
 70
    64
 62
     7
  6
CONTINUOUS
  0
LAYER
  2
17
 70
    64
 62
     7
  6
CONTINUOUS
  0
LAYER
  2
18
 70
    64
 62
     7
  6
CONTINUOUS
  0
LAYER
  2
19
 70
    64
 62
     7
  6
CONTINUOUS
  0
LAYER
  2
20
 70
    64
 62
     7
  6
CONTINUOUS
  0
LAYER
  2
21
 70
    64
 62
     7
  6
CONTINUOUS
  0
LAYER
  2
22
 70
    64
 62
     7
  6
CONTINUOUS
  0
LAYER
  2
23
 70
    64
 62
     7
  6
CONTINUOUS
  0
LAYER
  2
24
 70
    64
 62
     7
  6
CONTINUOUS
  0
LAYER
  2
25
 70
    64
 62
     7
  6
CONTINUOUS
  0
LAYER
  2
26
 70
    64
 62
     7
  6
CONTINUOUS
  0
LAYER
  2
27
 70
    64
 62
     7
  6
CONTINUOUS
  0
LAYER
  2
28
 70
    64
 62
     7
  6
CONTINUOUS
  0
LAYER
  2
29
 70
    64
 62
     7
  6
CONTINUOUS
  0
LAYER
  2
30
 70
    64
 62
     7
  6
CONTINUOUS
  0
LAYER
  2
31
 70
    64
 62
     7
  6
CONTINUOUS
  0
LAYER
  2
32
 70
    64
 62
     7
  6
CONTINUOUS
  0
LAYER
  2
33
 70
    64
 62
     7
  6
CONTINUOUS
  0
LAYER
  2
34
 70
    64
 62
     7
  6
CONTINUOUS
  0
LAYER
  2
35
 70
    64
 62
     7
  6
CONTINUOUS
  0
LAYER
  2
36
 70
    64
 62
     7
  6
CONTINUOUS
  0
LAYER
  2
37
 70
    64
 62
     7
  6
CONTINUOUS
  0
LAYER
  2
38
 70
    64
 62
     7
  6
CONTINUOUS
  0
LAYER
  2
39
 70
    64
 62
     7
  6
CONTINUOUS
  0
LAYER
  2
40
 70
    64
 62
     7
  6
CONTINUOUS
  0
LAYER
  2
41
 70
    64
 62
     7
  6
CONTINUOUS
  0
LAYER
  2
42
 70
    64
 62
     7
  6
CONTINUOUS
  0
LAYER
  2
43
 70
    64
 62
     7
  6
CONTINUOUS
  0
LAYER
  2
44
 70
    64
 62
     7
  6
CONTINUOUS
  0
LAYER
  2
45
 70
    64
 62
     7
  6
CONTINUOUS
  0
LAYER
  2
46
 70
    64
 62
     7
  6
CONTINUOUS
  0
LAYER
  2
47
 70
    64
 62
     7
  6
CONTINUOUS
  0
LAYER
  2
48
 70
    64
 62
     7
  6
CONTINUOUS
  0
LAYER
  2
49
 70
    64
 62
     7
  6
CONTINUOUS
  0
LAYER
  2
50
 70
    64
 62
     7
  6
CONTINUOUS
  0
LAYER
  2
51
 70
    64
 62
     7
  6
CONTINUOUS
  0
LAYER
  2
52
 70
    64
 62
     7
  6
CONTINUOUS
  0
LAYER
  2
53
 70
    64
 62
     7
  6
CONTINUOUS
  0
LAYER
  2
54
 70
    64
 62
     7
  6
CONTINUOUS
  0
LAYER
  2
55
 70
    64
 62
     7
  6
CONTINUOUS
  0
LAYER
  2
56
 70
    64
 62
     7
  6
CONTINUOUS
  0
LAYER
  2
57
 70
    64
 62
     7
  6
CONTINUOUS
  0
LAYER
  2
58
 70
    64
 62
     7
  6
CONTINUOUS
  0
LAYER
  2
59
 70
    64
 62
     7
  6
CONTINUOUS
  0
LAYER
  2
60
 70
    64
 62
     7
  6
CONTINUOUS
  0
LAYER
  2
61
 70
    64
 62
     7
  6
CONTINUOUS
  0
LAYER
  2
62
 70
    64
 62
     7
  6
CONTINUOUS
  0
LAYER
  2
63
 70
    64
 62
     7
  6
CONTINUOUS
  0
LAYER
  2
64
 70
    64
 62
     7
  6
CONTINUOUS
  0
LAYER
  2
65
 70
    64
 62
     7
  6
CONTINUOUS
  0
LAYER
  2
66
 70
    64
 62
     7
  6
CONTINUOUS
  0
LAYER
  2
67
 70
    64
 62
     7
  6
CONTINUOUS
  0
LAYER
  2
68
 70
    64
 62
     7
  6
CONTINUOUS
  0
LAYER
  2
69
 70
    64
 62
     7
  6
CONTINUOUS
  0
LAYER
  2
70
 70
    64
 62
     7
  6
CONTINUOUS
  0
LAYER
  2
71
 70
    64
 62
     7
  6
CONTINUOUS
  0
LAYER
  2
72
 70
    64
 62
     7
  6
CONTINUOUS
  0
LAYER
  2
73
 70
    64
 62
     7
  6
CONTINUOUS
  0
LAYER
  2
74
 70
    64
 62
     7
  6
CONTINUOUS
  0
LAYER
  2
75
 70
    64
 62
     7
  6
CONTINUOUS
  0
LAYER
  2
76
 70
    64
 62
     7
  6
CONTINUOUS
  0
LAYER
  2
77
 70
    64
 62
     7
  6
CONTINUOUS
  0
LAYER
  2
78
 70
    64
 62
     7
  6
CONTINUOUS
  0
LAYER
  2
79
 70
    64
 62
     7
  6
CONTINUOUS
  0
LAYER
  2
80
 70
    64
 62
     7
  6
CONTINUOUS
  0
LAYER
  2
81
 70
    64
 62
     7
  6
CONTINUOUS
  0
LAYER
  2
82
 70
    64
 62
     7
  6
CONTINUOUS
  0
LAYER
  2
83
 70
    64
 62
     7
  6
CONTINUOUS
  0
LAYER
  2
84
 70
    64
 62
     7
  6
CONTINUOUS
  0
LAYER
  2
85
 70
    64
 62
     7
  6
CONTINUOUS
  0
LAYER
  2
86
 70
    64
 62
     7
  6
CONTINUOUS
  0
LAYER
  2
87
 70
    64
 62
     7
  6
CONTINUOUS
  0
LAYER
  2
88
 70
    64
 62
     7
  6
CONTINUOUS
  0
LAYER
  2
89
 70
    64
 62
     7
  6
CONTINUOUS
  0
LAYER
  2
90
 70
    64
 62
     7
  6
CONTINUOUS
  0
LAYER
  2
91
 70
    64
 62
     7
  6
CONTINUOUS
  0
LAYER
  2
92
 70
    64
 62
     7
  6
CONTINUOUS
  0
LAYER
  2
93
 70
    64
 62
     7
  6
CONTINUOUS
  0
LAYER
  2
94
 70
    64
 62
     7
  6
CONTINUOUS
  0
LAYER
  2
95
 70
    64
 62
     7
  6
CONTINUOUS
  0
LAYER
  2
96
 70
    64
 62
     7
  6
CONTINUOUS
  0
LAYER
  2
97
 70
    64
 62
     7
  6
CONTINUOUS
  0
LAYER
  2
98
 70
    64
 62
     7
  6
CONTINUOUS
  0
LAYER
  2
99
 70
    64
 62
     7
  6
CONTINUOUS
  0
LAYER
  2
100
 70
    64
 62
     7
  6
CONTINUOUS
  0
LAYER
  2
101
 70
    64
 62
     7
  6
CONTINUOUS
  0
LAYER
  2
102
 70
    64
 62
     7
  6
CONTINUOUS
  0
LAYER
  2
103
 70
    64
 62
     7
  6
CONTINUOUS
  0
LAYER
  2
104
 70
    64
 62
     7
  6
CONTINUOUS
  0
LAYER
  2
105
 70
    64
 62
     7
  6
CONTINUOUS
  0
LAYER
  2
106
 70
    64
 62
     7
  6
CONTINUOUS
  0
LAYER
  2
107
 70
    64
 62
     7
  6
CONTINUOUS
  0
LAYER
  2
108
 70
    64
 62
     7
  6
CONTINUOUS
  0
LAYER
  2
109
 70
    64
 62
     7
  6
CONTINUOUS
  0
LAYER
  2
110
 70
    64
 62
     7
  6
CONTINUOUS
  0
LAYER
  2
111
 70
    64
 62
     7
  6
CONTINUOUS
  0
LAYER
  2
112
 70
    64
 62
     7
  6
CONTINUOUS
  0
LAYER
  2
113
 70
    64
 62
     7
  6
CONTINUOUS
  0
LAYER
  2
114
 70
    64
 62
     7
  6
CONTINUOUS
  0
LAYER
  2
115
 70
    64
 62
     7
  6
CONTINUOUS
  0
LAYER
  2
116
 70
    64
 62
     7
  6
CONTINUOUS
  0
LAYER
  2
117
 70
    64
 62
     7
  6
CONTINUOUS
  0
LAYER
  2
118
 70
    64
 62
     7
  6
CONTINUOUS
  0
LAYER
  2
119
 70
    64
 62
     7
  6
CONTINUOUS
  0
LAYER
  2
120
 70
    64
 62
     7
  6
CONTINUOUS
  0
LAYER
  2
121
 70
    64
 62
     7
  6
CONTINUOUS
  0
LAYER
  2
122
 70
    64
 62
     7
  6
CONTINUOUS
  0
LAYER
  2
123
 70
    64
 62
     7
  6
CONTINUOUS
  0
LAYER
  2
124
 70
    64
 62
     7
  6
CONTINUOUS
  0
LAYER
  2
125
 70
    64
 62
     7
  6
CONTINUOUS
  0
LAYER
  2
126
 70
    64
 62
     7
  6
CONTINUOUS
  0
LAYER
  2
127
 70
    64
 62
     7
  6
CONTINUOUS
  0
LAYER
  2
128
 70
    64
 62
     7
  6
CONTINUOUS
  0
LAYER
  2
129
 70
    64
 62
     7
  6
CONTINUOUS
  0
LAYER
  2
130
 70
    64
 62
     7
  6
CONTINUOUS
  0
LAYER
  2
131
 70
    64
 62
     7
  6
CONTINUOUS
  0
LAYER
  2
132
 70
    64
 62
     7
  6
CONTINUOUS
  0
LAYER
  2
133
 70
    64
 62
     7
  6
CONTINUOUS
  0
LAYER
  2
134
 70
    64
 62
     7
  6
CONTINUOUS
  0
LAYER
  2
135
 70
    64
 62
     7
  6
CONTINUOUS
  0
LAYER
  2
136
 70
    64
 62
     7
  6
CONTINUOUS
  0
LAYER
  2
137
 70
    64
 62
     7
  6
CONTINUOUS
  0
LAYER
  2
138
 70
    64
 62
     7
  6
CONTINUOUS
  0
LAYER
  2
139
 70
    64
 62
     7
  6
CONTINUOUS
  0
LAYER
  2
140
 70
    64
 62
     7
  6
CONTINUOUS
  0
LAYER
  2
141
 70
    64
 62
     7
  6
CONTINUOUS
  0
LAYER
  2
142
 70
    64
 62
     7
  6
CONTINUOUS
  0
LAYER
  2
143
 70
    64
 62
     7
  6
CONTINUOUS
  0
LAYER
  2
144
 70
    64
 62
     7
  6
CONTINUOUS
  0
LAYER
  2
145
 70
    64
 62
     7
  6
CONTINUOUS
  0
LAYER
  2
146
 70
    64
 62
     7
  6
CONTINUOUS
  0
LAYER
  2
147
 70
    64
 62
     7
  6
CONTINUOUS
  0
LAYER
  2
148
 70
    64
 62
     7
  6
CONTINUOUS
  0
LAYER
  2
149
 70
    64
 62
     7
  6
CONTINUOUS
  0
LAYER
  2
150
 70
    64
 62
     7
  6
CONTINUOUS
  0
LAYER
  2
151
 70
    64
 62
     7
  6
CONTINUOUS
  0
LAYER
  2
152
 70
    64
 62
     7
  6
CONTINUOUS
  0
LAYER
  2
153
 70
    64
 62
     7
  6
CONTINUOUS
  0
LAYER
  2
154
 70
    64
 62
     7
  6
CONTINUOUS
  0
LAYER
  2
155
 70
    64
 62
     7
  6
CONTINUOUS
  0
LAYER
  2
156
 70
    64
 62
     7
  6
CONTINUOUS
  0
LAYER
  2
157
 70
    64
 62
     7
  6
CONTINUOUS
  0
LAYER
  2
158
 70
    64
 62
     7
  6
CONTINUOUS
  0
LAYER
  2
159
 70
    64
 62
     7
  6
CONTINUOUS
  0
LAYER
  2
160
 70
    64
 62
     7
  6
CONTINUOUS
  0
LAYER
  2
161
 70
    64
 62
     7
  6
CONTINUOUS
  0
LAYER
  2
162
 70
    64
 62
     7
  6
CONTINUOUS
  0
LAYER
  2
163
 70
    64
 62
     7
  6
CONTINUOUS
  0
LAYER
  2
164
 70
    64
 62
     7
  6
CONTINUOUS
  0
LAYER
  2
165
 70
    64
 62
     7
  6
CONTINUOUS
  0
LAYER
  2
166
 70
    64
 62
     7
  6
CONTINUOUS
  0
LAYER
  2
167
 70
    64
 62
     7
  6
CONTINUOUS
  0
LAYER
  2
168
 70
    64
 62
     7
  6
CONTINUOUS
  0
LAYER
  2
169
 70
    64
 62
     7
  6
CONTINUOUS
  0
LAYER
  2
170
 70
    64
 62
     7
  6
CONTINUOUS
  0
LAYER
  2
171
 70
    64
 62
     7
  6
CONTINUOUS
  0
LAYER
  2
172
 70
    64
 62
     7
  6
CONTINUOUS
  0
LAYER
  2
173
 70
    64
 62
     7
  6
CONTINUOUS
  0
LAYER
  2
174
 70
    64
 62
     7
  6
CONTINUOUS
  0
LAYER
  2
175
 70
    64
 62
     7
  6
CONTINUOUS
  0
LAYER
  2
176
 70
    64
 62
     7
  6
CONTINUOUS
  0
LAYER
  2
177
 70
    64
 62
     7
  6
CONTINUOUS
  0
LAYER
  2
178
 70
    64
 62
     7
  6
CONTINUOUS
  0
LAYER
  2
179
 70
    64
 62
     7
  6
CONTINUOUS
  0
LAYER
  2
180
 70
    64
 62
     7
  6
CONTINUOUS
  0
LAYER
  2
181
 70
    64
 62
     7
  6
CONTINUOUS
  0
LAYER
  2
182
 70
    64
 62
     7
  6
CONTINUOUS
  0
LAYER
  2
183
 70
    64
 62
     7
  6
CONTINUOUS
  0
LAYER
  2
184
 70
    64
 62
     7
  6
CONTINUOUS
  0
LAYER
  2
185
 70
    64
 62
     7
  6
CONTINUOUS
  0
LAYER
  2
186
 70
    64
 62
     7
  6
CONTINUOUS
  0
LAYER
  2
187
 70
    64
 62
     7
  6
CONTINUOUS
  0
LAYER
  2
188
 70
    64
 62
     7
  6
CONTINUOUS
  0
LAYER
  2
189
 70
    64
 62
     7
  6
CONTINUOUS
  0
LAYER
  2
190
 70
    64
 62
     7
  6
CONTINUOUS
  0
LAYER
  2
191
 70
    64
 62
     7
  6
CONTINUOUS
  0
LAYER
  2
192
 70
    64
 62
     7
  6
CONTINUOUS
  0
LAYER
  2
193
 70
    64
 62
     7
  6
CONTINUOUS
  0
LAYER
  2
194
 70
    64
 62
     7
  6
CONTINUOUS
  0
LAYER
  2
195
 70
    64
 62
     7
  6
CONTINUOUS
  0
LAYER
  2
196
 70
    64
 62
     7
  6
CONTINUOUS
  0
LAYER
  2
197
 70
    64
 62
     7
  6
CONTINUOUS
  0
LAYER
  2
198
 70
    64
 62
     7
  6
CONTINUOUS
  0
LAYER
  2
199
 70
    64
 62
     7
  6
CONTINUOUS
  0
LAYER
  2
200
 70
    64
 62
     7
  6
CONTINUOUS
  0
LAYER
  2
201
 70
    64
 62
     7
  6
CONTINUOUS
  0
LAYER
  2
202
 70
    64
 62
     7
  6
CONTINUOUS
  0
LAYER
  2
203
 70
    64
 62
     7
  6
CONTINUOUS
  0
LAYER
  2
204
 70
    64
 62
     7
  6
CONTINUOUS
  0
LAYER
  2
205
 70
    64
 62
     7
  6
CONTINUOUS
  0
LAYER
  2
206
 70
    64
 62
     7
  6
CONTINUOUS
  0
LAYER
  2
207
 70
    64
 62
     7
  6
CONTINUOUS
  0
LAYER
  2
208
 70
    64
 62
     7
  6
CONTINUOUS
  0
LAYER
  2
209
 70
    64
 62
     7
  6
CONTINUOUS
  0
LAYER
  2
210
 70
    64
 62
     7
  6
CONTINUOUS
  0
LAYER
  2
211
 70
    64
 62
     7
  6
CONTINUOUS
  0
LAYER
  2
212
 70
    64
 62
     7
  6
CONTINUOUS
  0
LAYER
  2
213
 70
    64
 62
     7
  6
CONTINUOUS
  0
LAYER
  2
214
 70
    64
 62
     7
  6
CONTINUOUS
  0
LAYER
  2
215
 70
    64
 62
     7
  6
CONTINUOUS
  0
LAYER
  2
216
 70
    64
 62
     7
  6
CONTINUOUS
  0
LAYER
  2
217
 70
    64
 62
     7
  6
CONTINUOUS
  0
LAYER
  2
218
 70
    64
 62
     7
  6
CONTINUOUS
  0
LAYER
  2
219
 70
    64
 62
     7
  6
CONTINUOUS
  0
LAYER
  2
220
 70
    64
 62
     7
  6
CONTINUOUS
  0
LAYER
  2
221
 70
    64
 62
     7
  6
CONTINUOUS
  0
LAYER
  2
222
 70
    64
 62
     7
  6
CONTINUOUS
  0
LAYER
  2
223
 70
    64
 62
     7
  6
CONTINUOUS
  0
LAYER
  2
224
 70
    64
 62
     7
  6
CONTINUOUS
  0
LAYER
  2
225
 70
    64
 62
     7
  6
CONTINUOUS
  0
LAYER
  2
226
 70
    64
 62
     7
  6
CONTINUOUS
  0
LAYER
  2
227
 70
    64
 62
     7
  6
CONTINUOUS
  0
LAYER
  2
228
 70
    64
 62
     7
  6
CONTINUOUS
  0
LAYER
  2
229
 70
    64
 62
     7
  6
CONTINUOUS
  0
LAYER
  2
230
 70
    64
 62
     7
  6
CONTINUOUS
  0
LAYER
  2
231
 70
    64
 62
     7
  6
CONTINUOUS
  0
LAYER
  2
232
 70
    64
 62
     7
  6
CONTINUOUS
  0
LAYER
  2
233
 70
    64
 62
     7
  6
CONTINUOUS
  0
LAYER
  2
234
 70
    64
 62
     7
  6
CONTINUOUS
  0
LAYER
  2
235
 70
    64
 62
     7
  6
CONTINUOUS
  0
LAYER
  2
236
 70
    64
 62
     7
  6
CONTINUOUS
  0
LAYER
  2
237
 70
    64
 62
     7
  6
CONTINUOUS
  0
LAYER
  2
238
 70
    64
 62
     7
  6
CONTINUOUS
  0
LAYER
  2
239
 70
    64
 62
     7
  6
CONTINUOUS
  0
LAYER
  2
240
 70
    64
 62
     7
  6
CONTINUOUS
  0
LAYER
  2
241
 70
    64
 62
     7
  6
CONTINUOUS
  0
LAYER
  2
242
 70
    64
 62
     7
  6
CONTINUOUS
  0
LAYER
  2
243
 70
    64
 62
     7
  6
CONTINUOUS
  0
LAYER
  2
244
 70
    64
 62
     7
  6
CONTINUOUS
  0
LAYER
  2
245
 70
    64
 62
     7
  6
CONTINUOUS
  0
LAYER
  2
246
 70
    64
 62
     7
  6
CONTINUOUS
  0
LAYER
  2
247
 70
    64
 62
     7
  6
CONTINUOUS
  0
LAYER
  2
248
 70
    64
 62
     7
  6
CONTINUOUS
  0
LAYER
  2
249
 70
    64
 62
     7
  6
CONTINUOUS
  0
LAYER
  2
250
 70
    64
 62
     7
  6
CONTINUOUS
  0
LAYER
  2
251
 70
    64
 62
     7
  6
CONTINUOUS
  0
LAYER
  2
252
 70
    64
 62
     7
  6
CONTINUOUS
  0
LAYER
  2
253
 70
    64
 62
     7
  6
CONTINUOUS
  0
LAYER
  2
254
 70
    64
 62
     7
  6
CONTINUOUS
  0
LAYER
  2
255
 70
    64
 62
     7
  6
CONTINUOUS
  0
ENDTAB
  0
TABLE
  2
STYLE
 70
     2
  0
STYLE
  2
STANDARD
 70
    64
 40
0.0
 41
1.0
 50
0.0
 71
     0
 42
3.000000
  3
TXT
  4
BIGFONT
  0
ENDTAB
  0
ENDSEC
  0
SECTION
  2
ENTITIES
  0
LINE
  8
0
  6
CONTINUOUS
 62
     3
 10
-121.37315640574144
 20
 16.998823022626425
 11
-36.773157931620361
 21
 16.998823022626404
  0
LINE
  8
0
  6
CONTINUOUS
 62
     3
 10
-33.573157028804459
 20
 13.798822259686952
 11
-33.573157028804445
 21
-63.801177692629352
  0
ARC
  8
0
  6
CONTINUOUS
 62
     3
 10
-36.773157791743913
 20
 13.798822259686952
 40
 3.2000000476837158
 50
 0
 51
 90.000004039712707
  0
LINE
  8
0
  6
CONTINUOUS
 62
     3
 10
-124.57315321410721
 20
-63.801177692629352
 11
-124.57315321410718
 21
 13.798822259686975
  0
ARC
  8
0
  6
CONTINUOUS
 62
     3
 10
-121.37315626586499
 20
 13.798822259686983
 40
 3.2000000476837158
 50
 90.000004039712707
 51
-179.9999980615126
  0
LINE
  8
0
  6
CONTINUOUS
 62
     3
 10
-122.97313185180249
 20
-63.801177692629324
 11
-122.97313185180249
 21
 13.798822259686983
  0
ARC
  8
0
  6
CONTINUOUS
 62
     3
 10
-126.17313185180248
 20
-63.801177692629324
 40
 3.2000000000000002
 50
-90.000001535234532
 51
 0
  0
ARC
  8
0
  6
CONTINUOUS
 62
     3
 10
-121.37314100707593
 20
 13.798822259686975
 40
 1.6000000238418579
 50
 90.000004039712707
 51
-179.9999980615126
  0
LINE
  8
0
  6
CONTINUOUS
 62
     3
 10
-121.37314107701414
 20
 15.398822641156693
 11
-36.773157861682137
 21
 15.398822641156674
  0
LINE
  8
0
  6
CONTINUOUS
 62
     3
 10
-35.173159317622805
 20
 13.798822259686952
 11
-35.173159317622805
 21
-63.801177692629324
  0
ARC
  8
0
  6
CONTINUOUS
 62
     3
 10
-36.773157791743913
 20
 13.798822259686952
 40
 1.6000000238418579
 50
 0
 51
 90.000004039712707
  0
LINE
  8
0
  6
DASHDOT
 62
     7
 10
-79.07315321410718
 20
 24.790184831403259
 11
-79.073153214107236
 21
-68.193790340639595
  0
LINE
  8
0
  6
DASHDOT
 62
     7
 10
-79.073153214107165
 20
 94.565899705670844
 11
-79.07315321410718
 21
 38.924839830182563
  0
LINE
  8
0
  6
DASHDOT
 62
     7
 10
-141.57315321410718
 20
 66.998822068952123
 11
-17.314188675532957
 21
 66.99882206895208
  0
LINE
  8
0
  6
DASHDOT
 62
     7
 10
 8.1633834079402519
 20
 66.998822068952066
 11
 101.92684440170703
 21
 66.998822068952023
  0
LINE
  8
0
  6
CONTINUOUS
 62
     3
 10
-136.57315321410712
 20
 91.498822068952123
 11
-21.573157028804427
 21
 91.49882206895208
  0
LINE
  8
0
  6
CONTINUOUS
 62
     3
 10
-33.573157028804431
 20
 91.49882206895208
 11
-33.573157028804445
 21
 42.498822068952073
  0
LINE
  8
0
  6
CONTINUOUS
 62
     3
 10
-21.573157028804442
 20
 42.49882206895208
 11
-136.57315321410718
 21
 42.498822068952109
  0
LINE
  8
0
  6
CONTINUOUS
 62
     3
 10
-124.57315321410715
 20
 42.498822068952101
 11
-124.57315321410715
 21
 91.498822068952123
  0
CIRCLE
  8
0
  6
CONTINUOUS
 62
     3
 10
-79.07315321410718
 20
 66.998822068952094
 40
 13
  0
LINE
  8
0
  6
DOT
 62
     3
 10
-122.97314711059153
 20
 42.498822068952116
 11
-122.97314711059153
 21
 91.498822068952123
  0
LINE
  8
0
  6
DOT
 62
     3
 10
-35.173155502925511
 20
 91.49882206895208
 11
-35.173155502925539
 21
 42.49882206895208
  0
LINE
  8
0
  6
DASHDOT
 62
     7
 10
 40.926842971195569
 20
 97.25821385362002
 11
 40.926842971195541
 21
 37.017784929059474
  0
LINE
  8
0
  6
CONTINUOUS
 62
     3
 10
 12.926844401707038
 20
 91.498822068952066
 11
 96.926844401707029
 21
 91.498822068952009
  0
LINE
  8
0
  6
CONTINUOUS
 62
     3
 10
 96.926844401707029
 20
 91.498822068952038
 11
 96.926844401707029
 21
 42.498822068952038
  0
LINE
  8
0
  6
CONTINUOUS
 62
     3
 10
 96.926844401707029
 20
 42.498822068952016
 11
 12.926844401707026
 21
 42.498822068952066
  0
LINE
  8
0
  6
CONTINUOUS
 62
     3
 10
 12.926844401707026
 20
 42.498822068952066
 11
 12.926844401707038
 21
 91.498822068952066
  0
CIRCLE
  8
0
  6
CONTINUOUS
 62
     3
 10
 40.926842971195555
 20
 66.998822068952066
 40
 13
  0
LINE
  8
0
  6
DOT
 62
     3
 10
 14.526845260013907
 20
 42.498822068952066
 11
 14.526845260013925
 21
 91.498822068952066
  0
LINE
  8
0
  6
CONTINUOUS
 62
     7
 10
-124.57315321410715
 20
 93.498822068952109
 11
-124.57315321410715
 21
 107.45882115342476
  0
LINE
  8
0
  6
CONTINUOUS
 62
     7
 10
-33.573157028804431
 20
 93.498822068952094
 11
-33.573157028804431
 21
 107.45882115342472
  0
LINE
  8
0
  6
CONTINUOUS
 62
     7
 10
-79.073153214107165
 20
 95.065899705670859
 11
-79.073153214107165
 21
 102.45882115342475
  0
LINE
  8
0
  6
CONTINUOUS
 62
     7
 10
-79.073153214107165
 20
 101.49882206895209
 11
-124.57315321410715
 21
 101.49882206895211
  0
LINE
  8
0
  6
CONTINUOUS
 62
     7
 10
-79.073153214107165
 20
 101.49882206895209
 11
-81.970930692974363
 21
 102.27527920425966
  0
LINE
  8
0
  6
CONTINUOUS
 62
     7
 10
-79.073153214107165
 20
 101.49882206895209
 11
-81.970930692974378
 21
 100.72236493364453
  0
LINE
  8
0
  6
CONTINUOUS
 62
     7
 10
-124.57315321410715
 20
 101.49882206895211
 11
-121.67537573523995
 21
 100.72236493364454
  0
LINE
  8
0
  6
CONTINUOUS
 62
     7
 10
-124.57315321410715
 20
 101.49882206895211
 11
-121.67537573523995
 21
 102.27527920425968
  0
TEXT
  8
0
  6
CONTINUOUS
 62
     7
 10
-105.77315321410715
 20
 102.45882115342476
 11
-97.873153214107148
 21
 102.45882115342476
 40
 2
 41
 0.8
  1
４５．５
 50
 0
 72
  5
  0
LINE
  8
0
  6
CONTINUOUS
 62
     7
 10
-79.073153214107165
 20
 101.49882206895209
 11
-33.573157028804431
 21
 101.49882206895208
  0
LINE
  8
0
  6
CONTINUOUS
 62
     7
 10
-79.073153214107165
 20
 101.49882206895209
 11
-76.175375735239967
 21
 100.72236493364453
  0
LINE
  8
0
  6
CONTINUOUS
 62
     7
 10
-79.073153214107165
 20
 101.49882206895209
 11
-76.175375735239953
 21
 102.27527920425966
  0
LINE
  8
0
  6
CONTINUOUS
 62
     7
 10
-33.573157028804431
 20
 101.49882206895208
 11
-36.470934507671636
 21
 102.27527920425965
  0
LINE
  8
0
  6
CONTINUOUS
 62
     7
 10
-33.573157028804431
 20
 101.49882206895208
 11
-36.470934507671636
 21
 100.72236493364451
  0
TEXT
  8
0
  6
CONTINUOUS
 62
     7
 10
-60.273155121455815
 20
 102.45882115342475
 11
-52.373155121455817
 21
 102.45882115342475
 40
 2
 41
 0.8
  1
４５．５
 50
 0
 72
  5
  0
LINE
  8
0
  6
CONTINUOUS
 62
     7
 10
 40.926842971195576
 20
 95.851155137799722
 11
 40.926842971195576
 21
 102.45882115342471
  0
TEXT
  8
0
  6
CONTINUOUS
 62
     7
 10
 33.307839293827406
 20
 26.503781175397364
 11
 49.307839293827406
 21
 26.503781175397361
 40
 3.5000000000000004
 41
 0.8
  1
両面共加工
 50
 0
 72
  5
  0
LINE
  8
0
  6
CONTINUOUS
 62
     7
 10
 25.957831664432845
 20
 26.253781175397378
 11
 54.45144395386157
 21
 26.253781175397357
  0
LINE
  8
0
  6
CONTINUOUS
 62
     7
 10
 25.957831664432845
 20
 26.253781175397378
 11
 36.443833632816663
 21
 54.796254014752847
  0
LINE
  8
0
  6
CONTINUOUS
 62
     7
 10
 36.443833632816663
 20
 54.796254014752847
 11
 34.715715917391996
 21
 52.343987886936489
  0
LINE
  8
0
  6
CONTINUOUS
 62
     7
 10
 36.443833632816663
 20
 54.796254014752847
 11
 36.173372854437154
 21
 51.808470393511449
  0
LINE
  8
0
  6
DOT
 62
     3
 10
-35.173155502925525
 20
 79.99882206895208
 11
-33.573157028804431
 21
 79.99882206895208
  0
LINE
  8
0
  6
DOT
 62
     3
 10
-35.173155502925525
 20
 53.99882206895208
 11
-33.573157028804445
 21
 53.99882206895208
  0
LINE
  8
0
  6
DOT
 62
     3
 10
-122.97314711059153
 20
 53.998822068952109
 11
-124.57315321410715
 21
 53.998822068952109
  0
LINE
  8
0
  6
DOT
 62
     3
 10
-124.57315321410715
 20
 79.998822068952109
 11
-122.97314711059153
 21
 79.998822068952109
  0
LINE
  8
0
  6
DOT
 62
     3
 10
 12.926844401707037
 20
 79.998822068952066
 11
 14.526845260013932
 21
 79.998822068952066
  0
LINE
  8
0
  6
DOT
 62
     3
 10
 14.526845260013912
 20
 53.998822068952052
 11
 12.926844401707026
 21
 53.998822068952066
  0
LINE
  8
0
  6
DASHDOT
 62
     7
 10
-38.956865982661895
 20
-11.001178884722233
 11
-29.449640946040791
 21
-11.001178884722222
  0
LINE
  8
0
  6
DOT
 62
     3
 10
-35.173159317622819
 20
 1.9988195059523655
 11
-33.573157028804459
 21
 1.9988195059523548
  0
LINE
  8
0
  6
DOT
 62
     3
 10
-33.573157028804459
 20
-24.001183653093847
 11
-35.173159317622819
 21
-24.001183653093847
  0
LINE
  8
0
  6
DASHDOT
 62
     7
 10
-128.58230848754468
 20
-11.001178884722197
 11
-119.80069227660721
 21
-11.001178884722208
  0
LINE
  8
0
  6
DOT
 62
     3
 10
-124.57313795531812
 20
 1.9988195059523797
 11
-122.97313185180249
 21
 1.9988195059523903
  0
ARC
  8
0
  6
CONTINUOUS
 62
     7
 10
-122.97313185180249
 20
 15.398822641156698
 40
 10.166003227233887
 50
-90.000000851989171
 51
 0
  0
LINE
  8
0
  6
CONTINUOUS
 62
     7
 10
-122.97313173057412
 20
 5.2328194139228117
 11
-120.0471047613506
 21
 4.5707271428785194
  0
LINE
  8
0
  6
CONTINUOUS
 62
     7
 10
-122.97313173057412
 20
 5.2328194139228117
 11
-120.10807190754602
 21
 6.1224441721608853
  0
LINE
  8
0
  6
CONTINUOUS
 62
     7
 10
-112.80712862456861
 20
 15.398822641156697
 11
-113.6967533486412
 21
 12.533762807519924
  0
LINE
  8
0
  6
CONTINUOUS
 62
     7
 10
-112.80712862456861
 20
 15.398822641156697
 11
-112.14503631863181
 21
 12.47279567982854
  0
TEXT
  8
0
  6
CONTINUOUS
 62
     7
 10
-115.08792837311906
 20
 4.5118702706180072
 11
-111.2351566725432
 21
 8.8473229832238989
 40
 2
 41
 0.8
  1
90ﾟ
 50
 48.373579357539839
 72
  5
  0
ARC
  8
0
  6
CONTINUOUS
 62
     7
 10
-35.173159317622819
 20
 15.398822641156668
 40
 11.441543579101562
 50
-179.9999980615126
 51
-90.000000851989171
  0
LINE
  8
0
  6
CONTINUOUS
 62
     7
 10
-46.614702896724339
 20
 15.398821640905123
 11
-47.276794951510155
 21
 12.47279462274731
  0
LINE
  8
0
  6
CONTINUOUS
 62
     7
 10
-46.614702896724339
 20
 15.398821640905123
 11
-45.725077926733789
 21
 12.533761883627918
  0
LINE
  8
0
  6
CONTINUOUS
 62
     7
 10
-35.173159181183777
 20
 3.9572790620551057
 11
-38.038219026843123
 21
 4.8469037474086738
  0
LINE
  8
0
  6
CONTINUOUS
 62
     7
 10
-35.173159181183777
 20
 3.9572790620551057
 11
-38.099186133564281
 21
 3.2951867165753601
  0
TEXT
  8
0
  6
CONTINUOUS
 62
     7
 10
-47.927468808304653
 20
 8.1089644451182572
 11
-44.111962326001901
 21
 3.7406798523398024
 40
 2
 41
 0.8
  1
90ﾟ
 50
-48.864202326645731
 72
  5
  0
LINE
  8
0
  6
CONTINUOUS
 62
     3
 10
 95.326842112888684
 20
 91.498822068952066
 11
 95.326842112888656
 21
 42.498822068952052
  0
LINE
  8
0
  6
CONTINUOUS
 62
     3
 10
-136.57315321410718
 20
 42.498822068952109
 11
-136.57315321410712
 21
 91.498822068952123
  0
LINE
  8
0
  6
CONTINUOUS
 62
     3
 10
-21.573157028804427
 20
 91.49882206895208
 11
-21.573157028804442
 21
 42.49882206895208
  0
CIRCLE
  8
0
  6
CONTINUOUS
 62
     3
 10
-131.57315321410715
 20
 66.998822068952109
 40
 2.6000000000000001
  0
CIRCLE
  8
0
  6
CONTINUOUS
 62
     3
 10
-26.573157028804435
 20
 66.99882206895208
 40
 2.6000000000000001
  0
LINE
  8
0
  6
DASHDOT
 62
     7
 10
-131.57315321410715
 20
 74.498822068952109
 11
-131.57315321410715
 21
 59.498822068952109
  0
LINE
  8
0
  6
DASHDOT
 62
     7
 10
-26.573157028804435
 20
 74.49882206895208
 11
-26.573157028804442
 21
 59.49882206895208
  0
LINE
  8
0
  6
DOT
 62
     3
 10
 95.326842112888684
 20
 69.598822068952032
 11
 96.926844401707029
 21
 69.598822068952032
  0
LINE
  8
0
  6
DOT
 62
     3
 10
 95.326842112888684
 20
 64.398822068952029
 11
 96.926844401707029
 21
 64.398822068952029
  0
LINE
  8
0
  6
CONTINUOUS
 62
     7
 10
 95.326842112888684
 20
 93.498822068952009
 11
 95.326842112888684
 21
 102.49882206895204
  0
LINE
  8
0
  6
CONTINUOUS
 62
     7
 10
 95.326842112888684
 20
 101.49882206895204
 11
 96.926844401707029
 21
 101.49882206895204
  0
TEXT
  8
0
  6
CONTINUOUS
 62
     7
 10
 87.286842112888678
 20
 102.49882206895202
 11
 93.566842112888679
 21
 102.49882206895204
 40
 2.2000000000000002
 41
 0.8
  1
１．６
 50
 0
 72
  5
  0
LINE
  8
0
  6
CONTINUOUS
 62
     7
 10
 85.526842112888673
 20
 101.49882206895204
 11
 95.326842112888684
 21
 101.49882206895204
  0
LINE
  8
0
  6
CONTINUOUS
 62
     7
 10
 95.326842112888684
 20
 101.49882206895204
 11
 92.429064634021472
 21
 102.2752792042596
  0
LINE
  8
0
  6
CONTINUOUS
 62
     7
 10
 95.326842112888684
 20
 101.49882206895204
 11
 92.429064634021472
 21
 100.72236493364447
  0
LINE
  8
0
  6
CONTINUOUS
 62
     7
 10
 101.92684440170703
 20
 101.49882206895204
 11
 96.926844401707029
 21
 101.49882206895204
  0
LINE
  8
0
  6
CONTINUOUS
 62
     7
 10
 96.926844401707029
 20
 101.49882206895204
 11
 99.824621880574227
 21
 100.72236493364447
  0
LINE
  8
0
  6
CONTINUOUS
 62
     7
 10
 96.926844401707029
 20
 101.49882206895204
 11
 99.824621880574227
 21
 102.2752792042596
  0
LINE
  8
0
  6
DOT
 62
     3
 10
-124.57313795531812
 20
-24.001180494047617
 11
-122.97313185180249
 21
-24.001180494047603
  0
LINE
  8
0
  6
CONTINUOUS
 62
     3
 10
-126.1731532141072
 20
-65.401177692629346
 11
-136.57315321410721
 21
-65.401177692629346
  0
ARC
  8
0
  6
CONTINUOUS
 62
     3
 10
-126.1731532141072
 20
-63.801177692629352
 40
 1.6000000000000001
 50
-90.000001535234532
 51
 0
  0
LINE
  8
0
  6
CONTINUOUS
 62
     3
 10
-136.57315321410721
 20
-65.401177692629346
 11
-136.57315321410721
 21
-67.001177692629341
  0
LINE
  8
0
  6
CONTINUOUS
 62
     3
 10
-136.57315321410721
 20
-67.001177692629341
 11
-126.17313185180248
 21
-67.001177692629341
  0
LINE
  8
0
  6
CONTINUOUS
 62
     3
 10
-31.973157028804454
 20
-65.401177692629346
 11
-21.57315702880447
 21
-65.401177692629346
  0
ARC
  8
0
  6
CONTINUOUS
 62
     3
 10
-31.973157028804454
 20
-63.801177692629352
 40
 1.6000000000000001
 50
 180.00000307046903
 51
-90.000001535234532
  0
LINE
  8
0
  6
CONTINUOUS
 62
     3
 10
-21.57315702880447
 20
-65.401177692629346
 11
-21.57315702880447
 21
-67.001177692629341
  0
LINE
  8
0
  6
CONTINUOUS
 62
     3
 10
-21.57315702880447
 20
-67.001177692629341
 11
-31.973159317622798
 21
-67.001177692629341
  0
ARC
  8
0
  6
CONTINUOUS
 62
     3
 10
-31.973159317622798
 20
-63.801177692629324
 40
 3.2000000000000002
 50
 180.00000307046903
 51
-90.000001535234532
  0
LINE
  8
0
  6
DASHDOT
 62
     7
 10
-26.57315702880447
 20
-60.401177692629332
 11
-26.57315702880447
 21
-72.001177692629355
  0
LINE
  8
0
  6
DOT
 62
     3
 10
-29.173157028804471
 20
-65.401177692629346
 11
-29.173157028804471
 21
-67.001177692629341
  0
LINE
  8
0
  6
DOT
 62
     3
 10
-23.973157028804469
 20
-65.401177692629346
 11
-23.973157028804469
 21
-67.001177692629341
  0
LINE
  8
0
  6
DASHDOT
 62
     7
 10
-131.57315321410721
 20
-60.401177692629332
 11
-131.57315321410721
 21
-72.001177692629355
  0
LINE
  8
0
  6
DOT
 62
     3
 10
-134.1731532141072
 20
-65.401177692629346
 11
-134.1731532141072
 21
-67.001177692629341
  0
LINE
  8
0
  6
DOT
 62
     3
 10
-128.97315321410719
 20
-65.401177692629346
 11
-128.97315321410719
 21
-67.001177692629341
  0
LINE
  8
256
  6
CONTINUOUS
 62
     7
 10
-193.30000000000001
 20
 124.99999645625348
 11
-93.300000000000011
 21
 124.99999645625348
  0
LINE
  8
256
  6
CONTINUOUS
 62
     7
 10
-93.300000000000011
 20
 124.9999964562535
 11
-93.300000000000011
 21
 136.99999721136808
  0
TEXT
  8
256
  6
CONTINUOUS
 62
     7
 10
-188.30000000000001
 20
 127.99999604817611
 11
-140.30000000000001
 21
 127.99999604817611
 40
 6
 41
 1
  1
ＬＢ－Ｄ９１３０
 50
 0
 72
  5
  0
LINE
  8
256
  6
CONTINUOUS
 62
     7
 10
 104.99998474121094
 20
-121.5
 11
 200
 21
-121.5
  0
LINE
  8
256
  6
CONTINUOUS
 62
     7
 10
 170.99998474121094
 20
-109.5
 11
 170.99998474121094
 21
-121.5
  0
TEXT
  8
256
  6
CONTINUOUS
 62
     7
 10
 112.5
 20
-134.25
 11
 154.5
 21
-134.25
 40
 6
 41
 1
  1
ＳＳ－８４Ｎ１
 50
 0
 72
  5
  0
TEXT
  8
256
  6
CONTINUOUS
 62
     7
 10
 117.99998474121094
 20
-119.75
 11
 157.99998474121094
 21
-119.75
 40
 5
 41
 0.8
  1
セレクタＳＷ取付金具
 50
 0
 72
  5
  0
TEXT
  8
256
  6
CONTINUOUS
 62
     7
 10
 106.29998779296875
 20
-112.4499633789062
 11
 111.29998779296875
 21
-112.4499633789062
 40
 2.5
 41
 0.8
  1
品名
 50
 0
 72
  5
  0
TEXT
  8
256
  6
CONTINUOUS
 62
     7
 10
 106.29998779296875
 20
-124.45003051757811
 11
 111.29998779296875
 21
-124.45003051757811
 40
 2.5
 41
 0.8
  1
品番
 50
 0
 72
  5
  0
LINE
  8
256
  6
CONTINUOUS
 62
     7
 10
 104.99998474121094
 20
-139.5
 11
 104.99998474121094
 21
-109.5
  0
LINE
  8
256
  6
CONTINUOUS
 62
     7
 10
 104.99998474121094
 20
-109.5
 11
 200
 21
-109.5
  0
LINE
  8
256
  6
CONTINUOUS
 62
     7
 10
-193.30000000000001
 20
 136.99999721136808
 11
-193.30000000000001
 21
-139.49999999999994
  0
LINE
  8
256
  6
CONTINUOUS
 62
     7
 10
-193.30000000000001
 20
 136.99999721136808
 11
 200
 21
 136.99999721136808
  0
LINE
  8
256
  6
CONTINUOUS
 62
     7
 10
 200
 20
-139.5
 11
-193.30000000000001
 21
-139.49999999999994
  0
LINE
  8
256
  6
CONTINUOUS
 62
     7
 10
 200
 20
 136.99999721136808
 11
 200
 21
-139.5
  0
LINE
  8
0
  6
CONTINUOUS
 62
     7
 10
-19.573157028804435
 20
 91.49882206895208
 11
-5.6131560369831455
 21
 91.498822068952066
  0
LINE
  8
0
  6
CONTINUOUS
 62
     7
 10
-19.573157028804442
 20
 42.498822068952073
 11
-5.6131560369831526
 21
 42.498822068952066
  0
LINE
  8
0
  6
CONTINUOUS
 62
     7
 10
-6.5731551214558017
 20
 91.498822068952066
 11
-6.5731551214558124
 21
 42.498822068952066
  0
LINE
  8
0
  6
CONTINUOUS
 62
     7
 10
-6.5731551214558017
 20
 91.498822068952066
 11
-7.3496122567633648
 21
 88.601044590084854
  0
LINE
  8
0
  6
CONTINUOUS
 62
     7
 10
-6.5731551214558017
 20
 91.498822068952066
 11
-5.7966979861482404
 21
 88.601044590084854
  0
LINE
  8
0
  6
CONTINUOUS
 62
     7
 10
-6.5731551214558124
 20
 42.498822068952066
 11
-5.7966979861482493
 21
 45.396599547819271
  0
LINE
  8
0
  6
CONTINUOUS
 62
     7
 10
-6.5731551214558124
 20
 42.498822068952066
 11
-7.3496122567633737
 21
 45.396599547819271
  0
TEXT
  8
0
  6
CONTINUOUS
 62
     7
 10
-7.5331541709593601
 20
 65.148819060905637
 11
-7.5331543326915043
 21
 68.84881906090564
 40
 2
 41
 0.8
  1
49
 50
 90.000004039712721
 72
  5
  0
LINE
  8
0
  6
CONTINUOUS
 62
     7
 10
-17.314188675532957
 20
 66.99882206895208
 11
-10.613156036983145
 21
 66.998822068952066
  0
LINE
  8
0
  6
CONTINUOUS
 62
     7
 10
-11.573155121455795
 20
 66.998822068952066
 11
-11.573155121455795
 21
 91.498822068952066
  0
LINE
  8
0
  6
CONTINUOUS
 62
     7
 10
-11.573155121455795
 20
 66.998822068952066
 11
-10.796697986148232
 21
 69.896599547819278
  0
LINE
  8
0
  6
CONTINUOUS
 62
     7
 10
-11.573155121455795
 20
 66.998822068952066
 11
-12.349612256763358
 21
 69.896599547819278
  0
LINE
  8
0
  6
CONTINUOUS
 62
     7
 10
-11.573155121455795
 20
 91.498822068952066
 11
-12.349612256763358
 21
 88.601044590084854
  0
LINE
  8
0
  6
CONTINUOUS
 62
     7
 10
-11.573155121455795
 20
 91.498822068952066
 11
-10.796697986148232
 21
 88.601044590084854
  0
TEXT
  8
0
  6
CONTINUOUS
 62
     7
 10
-12.533156078307979
 20
 75.298820586784558
 11
-12.533156423627961
 21
 83.198820586784564
 40
 2
 41
 0.8
  1
24.5
 50
 90.000004039712721
 72
  5
  0
LINE
  8
0
  6
CONTINUOUS
 62
     7
 10
-11.573155121455795
 20
 66.998822068952066
 11
-11.573155121455809
 21
 42.498822068952073
  0
LINE
  8
0
  6
CONTINUOUS
 62
     7
 10
-11.573155121455795
 20
 66.998822068952066
 11
-12.349612256763358
 21
 64.101044590084868
  0
LINE
  8
0
  6
CONTINUOUS
 62
     7
 10
-11.573155121455795
 20
 66.998822068952066
 11
-10.796697986148235
 21
 64.101044590084854
  0
LINE
  8
0
  6
CONTINUOUS
 62
     7
 10
-11.573155121455809
 20
 42.498822068952073
 11
-10.796697986148246
 21
 45.396599547819278
  0
LINE
  8
0
  6
CONTINUOUS
 62
     7
 10
-11.573155121455809
 20
 42.498822068952073
 11
-12.349612256763368
 21
 45.396599547819278
  0
TEXT
  8
0
  6
CONTINUOUS
 62
     7
 10
-12.533156078307986
 20
 50.798820586784544
 11
-12.533156423627968
 21
 58.698820586784542
 40
 2
 41
 0.8
  1
24.5
 50
 90.000004039712721
 72
  5
  0
LINE
  8
0
  6
CONTINUOUS
 62
     7
 10
-136.57315321410715
 20
 93.498822068952123
 11
-136.57315321410712
 21
 112.49882206895212
  0
LINE
  8
0
  6
CONTINUOUS
 62
     7
 10
-21.573157028804427
 20
 93.49882206895208
 11
-21.57315702880442
 21
 112.49882206895209
  0
LINE
  8
0
  6
CONTINUOUS
 62
     7
 10
-136.57315321410712
 20
 111.49882206895212
 11
-21.573157028804427
 21
 111.49882206895209
  0
LINE
  8
0
  6
CONTINUOUS
 62
     7
 10
-136.57315321410712
 20
 111.49882206895212
 11
-133.67537573523992
 21
 110.72236493364456
  0
LINE
  8
0
  6
CONTINUOUS
 62
     7
 10
-136.57315321410712
 20
 111.49882206895212
 11
-133.67537573523992
 21
 112.27527920425969
  0
LINE
  8
0
  6
CONTINUOUS
 62
     7
 10
-21.573157028804427
 20
 111.49882206895209
 11
-24.470934507671632
 21
 112.27527920425966
  0
LINE
  8
0
  6
CONTINUOUS
 62
     7
 10
-21.573157028804427
 20
 111.49882206895209
 11
-24.470934507671632
 21
 110.72236493364453
  0
TEXT
  8
0
  6
CONTINUOUS
 62
     7
 10
-82.213155121455813
 20
 112.49882206895208
 11
-75.933155121455812
 21
 112.49882206895209
 40
 2.2000000000000002
 41
 0.8
  1
115
 50
 0
 72
  5
  0
LINE
  8
0
  6
CONTINUOUS
 62
     7
 10
-124.57315321410715
 20
 106.49882206895212
 11
-33.573157028804431
 21
 106.49882206895209
  0
LINE
  8
0
  6
CONTINUOUS
 62
     7
 10
-124.57315321410715
 20
 106.49882206895212
 11
-121.67537573523995
 21
 105.72236493364456
  0
LINE
  8
0
  6
CONTINUOUS
 62
     7
 10
-124.57315321410715
 20
 106.49882206895212
 11
-121.67537573523994
 21
 107.27527920425969
  0
LINE
  8
0
  6
CONTINUOUS
 62
     7
 10
-33.573157028804431
 20
 106.49882206895209
 11
-36.470934507671636
 21
 107.27527920425966
  0
LINE
  8
0
  6
CONTINUOUS
 62
     7
 10
-33.573157028804431
 20
 106.49882206895209
 11
-36.470934507671636
 21
 105.72236493364453
  0
TEXT
  8
0
  6
CONTINUOUS
 62
     7
 10
-81.083155121455803
 20
 107.49882206895208
 11
-77.063155121455807
 21
 107.49882206895209
 40
 2.2000000000000002
 41
 0.8
  1
91
 50
 0
 72
  5
  0
LINE
  8
0
  6
CONTINUOUS
 62
     7
 10
-33.573157028804431
 20
 106.49882206895209
 11
-21.573157028804427
 21
 106.49882206895208
  0
LINE
  8
0
  6
CONTINUOUS
 62
     7
 10
-33.573157028804431
 20
 106.49882206895209
 11
-30.675379549937226
 21
 105.72236493364453
  0
LINE
  8
0
  6
CONTINUOUS
 62
     7
 10
-33.573157028804431
 20
 106.49882206895209
 11
-30.675379549937226
 21
 107.27527920425965
  0
LINE
  8
0
  6
CONTINUOUS
 62
     7
 10
-21.573157028804427
 20
 106.49882206895208
 11
-24.470934507671632
 21
 107.27527920425965
  0
LINE
  8
0
  6
CONTINUOUS
 62
     7
 10
-21.573157028804427
 20
 106.49882206895208
 11
-24.470934507671632
 21
 105.72236493364453
  0
TEXT
  8
0
  6
CONTINUOUS
 62
     7
 10
-29.583157028804429
 20
 107.49882206895207
 11
-25.563157028804429
 21
 107.49882206895208
 40
 2.2000000000000002
 41
 0.8
  1
12
 50
 0
 72
  5
  0
LINE
  8
0
  6
CONTINUOUS
 62
     7
 10
-124.57315321410715
 20
 106.49882206895212
 11
-136.57315321410712
 21
 106.49882206895212
  0
LINE
  8
0
  6
CONTINUOUS
 62
     7
 10
-124.57315321410715
 20
 106.49882206895212
 11
-127.47093069297435
 21
 107.27527920425969
  0
LINE
  8
0
  6
CONTINUOUS
 62
     7
 10
-124.57315321410715
 20
 106.49882206895212
 11
-127.47093069297435
 21
 105.72236493364456
  0
LINE
  8
0
  6
CONTINUOUS
 62
     7
 10
-136.57315321410712
 20
 106.49882206895212
 11
-133.67537573523992
 21
 105.72236493364456
  0
LINE
  8
0
  6
CONTINUOUS
 62
     7
 10
-136.57315321410712
 20
 106.49882206895212
 11
-133.67537573523992
 21
 107.27527920425969
  0
TEXT
  8
0
  6
CONTINUOUS
 62
     7
 10
-132.58315321410714
 20
 107.49882206895211
 11
-128.56315321410716
 21
 107.49882206895212
 40
 2.2000000000000002
 41
 0.8
  1
12
 50
 0
 72
  5
  0
LINE
  8
0
  6
CONTINUOUS
 62
     7
 10
-136.57315321410715
 20
 40.498822068952116
 11
-136.57315321410715
 21
 31.498822068952116
  0
LINE
  8
0
  6
CONTINUOUS
 62
     7
 10
-131.57315321410715
 20
 59.498822068952109
 11
-131.57315321410718
 21
 31.498822068952101
  0
LINE
  8
0
  6
CONTINUOUS
 62
     7
 10
-136.57315321410715
 20
 32.498822068952116
 11
-131.57315321410718
 21
 32.498822068952109
  0
TEXT
  8
0
  6
CONTINUOUS
 62
     7
 10
-142.28392743667675
 20
 33.498822068952116
 11
-140.52392743667676
 21
 33.498822068952116
 40
 2.2000000000000002
 41
 0.8
  1
5
 50
 0
 72
  5
  0
LINE
  8
0
  6
CONTINUOUS
 62
     7
 10
-144.0439274366768
 20
 32.498822068952116
 11
-136.57315321410715
 21
 32.498822068952116
  0
LINE
  8
0
  6
CONTINUOUS
 62
     7
 10
-136.57315321410715
 20
 32.498822068952116
 11
-139.47093069297435
 21
 33.275279204259675
  0
LINE
  8
0
  6
CONTINUOUS
 62
     7
 10
-136.57315321410715
 20
 32.498822068952116
 11
-139.47093069297435
 21
 31.722364933644553
  0
LINE
  8
0
  6
CONTINUOUS
 62
     7
 10
-126.57315321410715
 20
 32.498822068952109
 11
-131.57315321410718
 21
 32.498822068952109
  0
LINE
  8
0
  6
CONTINUOUS
 62
     7
 10
-131.57315321410718
 20
 32.498822068952109
 11
-128.67537573523998
 21
 31.722364933644545
  0
LINE
  8
0
  6
CONTINUOUS
 62
     7
 10
-131.57315321410718
 20
 32.498822068952109
 11
-128.67537573523998
 21
 33.275279204259668
  0
LINE
  8
0
  6
CONTINUOUS
 62
     7
 10
-21.573157028804442
 20
 40.498822068952073
 11
-21.573157028804442
 21
 31.49882206895208
  0
LINE
  8
0
  6
CONTINUOUS
 62
     7
 10
-26.573157028804442
 20
 59.49882206895208
 11
-26.573157028804449
 21
 31.49882206895208
  0
LINE
  8
0
  6
CONTINUOUS
 62
     7
 10
-21.573157028804456
 20
 32.498822068952073
 11
-26.573157028804449
 21
 32.49882206895208
  0
TEXT
  8
0
  6
CONTINUOUS
 62
     7
 10
-19.813157028804447
 20
 33.498822068952073
 11
-18.053157028804446
 21
 33.498822068952073
 40
 2.2000000000000002
 41
 0.8
  1
5
 50
 0
 72
  5
  0
LINE
  8
0
  6
CONTINUOUS
 62
     7
 10
-16.293157028804448
 20
 32.498822068952073
 11
-21.573157028804456
 21
 32.498822068952073
  0
LINE
  8
0
  6
CONTINUOUS
 62
     7
 10
-21.573157028804456
 20
 32.498822068952073
 11
-18.675379549937251
 21
 31.72236493364451
  0
LINE
  8
0
  6
CONTINUOUS
 62
     7
 10
-21.573157028804456
 20
 32.498822068952073
 11
-18.675379549937251
 21
 33.275279204259633
  0
LINE
  8
0
  6
CONTINUOUS
 62
     7
 10
-31.573157028804442
 20
 32.498822068952087
 11
-26.573157028804449
 21
 32.49882206895208
  0
LINE
  8
0
  6
CONTINUOUS
 62
     7
 10
-26.573157028804449
 20
 32.49882206895208
 11
-29.470934507671654
 21
 33.275279204259647
  0
LINE
  8
0
  6
CONTINUOUS
 62
     7
 10
-26.573157028804449
 20
 32.49882206895208
 11
-29.470934507671654
 21
 31.722364933644521
  0
LINE
  8
0
  6
CONTINUOUS
 62
     7
 10
-26.573157028804449
 20
 32.49882206895208
 11
-131.57315321410718
 21
 32.498822068952109
  0
LINE
  8
0
  6
CONTINUOUS
 62
     7
 10
-26.573157028804449
 20
 32.49882206895208
 11
-29.470934507671654
 21
 33.27527920425964
  0
LINE
  8
0
  6
CONTINUOUS
 62
     7
 10
-26.573157028804449
 20
 32.49882206895208
 11
-29.470934507671654
 21
 31.722364933644517
  0
LINE
  8
0
  6
CONTINUOUS
 62
     7
 10
-131.57315321410718
 20
 32.498822068952109
 11
-128.67537573523998
 21
 31.722364933644545
  0
LINE
  8
0
  6
CONTINUOUS
 62
     7
 10
-131.57315321410718
 20
 32.498822068952109
 11
-128.67537573523998
 21
 33.275279204259668
  0
TEXT
  8
0
  6
CONTINUOUS
 62
     7
 10
-82.213155121455827
 20
 33.498822068952094
 11
-75.933155121455826
 21
 33.498822068952094
 40
 2.2000000000000002
 41
 0.8
  1
105
 50
 0
 72
  5
  0
LINE
  8
0
  6
CONTINUOUS
 62
     7
 10
-88.265541369532286
 20
 57.806433913526973
 11
-69.880765058682044
 21
 76.191210224377215
  0
LINE
  8
0
  6
CONTINUOUS
 62
     7
 10
-88.265541369532286
 20
 57.806433913526973
 11
-85.66746515817897
 21
 59.306433913526973
  0
LINE
  8
0
  6
CONTINUOUS
 62
     7
 10
-88.265541369532286
 20
 57.806433913526973
 11
-86.765541369532286
 21
 60.404510124880289
  0
LINE
  8
0
  6
CONTINUOUS
 62
     7
 10
-69.880765058682044
 20
 76.191210224377215
 11
-72.47884127003536
 21
 74.691210224377215
  0
LINE
  8
0
  6
CONTINUOUS
 62
     7
 10
-69.880765058682044
 20
 76.191210224377215
 11
-71.380765058682044
 21
 73.593134013023899
  0
TEXT
  8
0
  6
CONTINUOUS
 62
     7
 10
-81.586361725846473
 20
 65.899827119586035
 11
-77.145731139994965
 21
 70.340457705437558
 40
 2.2000000000000002
 41
 0.8
  1
φ26
 50
 45.000000767617259
 72
  5
  0
LINE
  8
0
  6
CONTINUOUS
 62
     7
 10
 31.734454815770441
 20
 57.806433913526931
 11
 50.119231126620697
 21
 76.191210224377173
  0
LINE
  8
0
  6
CONTINUOUS
 62
     7
 10
 31.734454815770441
 20
 57.806433913526931
 11
 34.332531027123757
 21
 59.306433913526931
  0
LINE
  8
0
  6
CONTINUOUS
 62
     7
 10
 31.734454815770441
 20
 57.806433913526931
 11
 33.234454815770441
 21
 60.404510124880247
  0
LINE
  8
0
  6
CONTINUOUS
 62
     7
 10
 50.119231126620697
 20
 76.191210224377173
 11
 47.521154915267381
 21
 74.691210224377173
  0
LINE
  8
0
  6
CONTINUOUS
 62
     7
 10
 50.119231126620697
 20
 76.191210224377173
 11
 48.619231126620697
 21
 73.593134013023857
  0
TEXT
  8
0
  6
CONTINUOUS
 62
     7
 10
 38.413634459456254
 20
 65.899827119585979
 11
 42.85426504530777
 21
 70.340457705437515
 40
 2.2000000000000002
 41
 0.8
  1
φ26
 50
 45.000000767617259
 72
  5
  0
LINE
  8
0
  6
CONTINUOUS
 62
     7
 10
 12.926844401707038
 20
 101.49882206895208
 11
 40.926842971195576
 21
 101.49882206895208
  0
LINE
  8
0
  6
CONTINUOUS
 62
     7
 10
 12.926844401707038
 20
 101.49882206895208
 11
 15.824621880574243
 21
 100.72236493364451
  0
LINE
  8
0
  6
CONTINUOUS
 62
     7
 10
 12.926844401707038
 20
 101.49882206895208
 11
 15.824621880574243
 21
 102.27527920425965
  0
LINE
  8
0
  6
CONTINUOUS
 62
     7
 10
 40.926842971195576
 20
 101.49882206895208
 11
 38.029065492328371
 21
 102.27527920425965
  0
LINE
  8
0
  6
CONTINUOUS
 62
     7
 10
 40.926842971195576
 20
 101.49882206895208
 11
 38.029065492328371
 21
 100.72236493364451
  0
TEXT
  8
0
  6
CONTINUOUS
 62
     7
 10
 24.916843686451308
 20
 102.49882206895207
 11
 28.936843686451308
 21
 102.49882206895208
 40
 2.2000000000000002
 41
 0.8
  1
28
 50
 0
 72
  5
  0
LINE
  8
0
  6
CONTINUOUS
 62
     6
 10
-141.57315321410715
 20
 76.998822068952123
 11
-133.73648397938553
 21
 68.441042579137701
  0
LINE
  8
0
  6
CONTINUOUS
 62
     6
 10
-133.73648397938553
 20
 68.441042579137701
 11
-135.12086900374965
 21
 71.102523013842486
  0
LINE
  8
0
  6
CONTINUOUS
 62
     6
 10
-133.73648397938553
 20
 68.441042579137701
 11
-136.26613679645598
 21
 70.053759735085237
  0
TEXT
  8
0
  6
CONTINUOUS
 62
     6
 10
-161.37315321410713
 20
 77.958822068952117
 11
-144.47315321410713
 21
 77.958822068952117
 40
 3
 41
 0.8
  1
２－φ５．２
 50
 0
 72
  5
  0
LINE
  8
0
  6
CONTINUOUS
 62
     6
 10
-141.57315321410715
 20
 76.998822068952123
 11
-163.77315321410717
 21
 76.998822068952123
  0
LINE
  8
0
  6
CONTINUOUS
 62
     7
 10
-30.773157931620357
 20
 16.998822307370666
 11
-10.635219552034254
 21
 16.998822307370666
  0
LINE
  8
0
  6
CONTINUOUS
 62
     7
 10
-20.57315702880447
 20
-67.001177692629341
 11
-10.635219552034254
 21
-67.001177692629341
  0
LINE
  8
0
  6
CONTINUOUS
 62
     7
 10
-11.635219552034254
 20
 16.998822307370666
 11
-11.635219552034254
 21
-67.001177692629341
  0
LINE
  8
0
  6
CONTINUOUS
 62
     7
 10
-11.635219552034254
 20
 16.998822307370666
 11
-12.411676687341817
 21
 14.101044828503461
  0
LINE
  8
0
  6
CONTINUOUS
 62
     7
 10
-11.635219552034254
 20
 16.998822307370666
 11
-10.858762416726691
 21
 14.101044828503461
  0
LINE
  8
0
  6
CONTINUOUS
 62
     7
 10
-11.635219552034254
 20
-67.001177692629341
 11
-10.858762416726691
 21
-64.103400213762143
  0
LINE
  8
0
  6
CONTINUOUS
 62
     7
 10
-11.635219552034254
 20
-67.001177692629341
 11
-12.411676687341817
 21
-64.103400213762143
  0
TEXT
  8
0
  6
CONTINUOUS
 62
     7
 10
-12.435219552034251
 20
-27.001177692629341
 11
-12.435219552034251
 21
-23.001177692629341
 40
 2.5
 41
 0.8
  1
84
 50
 90.000001535234517
 72
  5
  0
LINE
  8
0
  6
CONTINUOUS
 62
     7
 10
 96.926844401707029
 20
 92.498822068952038
 11
 96.926844401707029
 21
 107.49882206895204
  0
LINE
  8
0
  6
CONTINUOUS
 62
     7
 10
 12.926844401707038
 20
 92.498822068952066
 11
 12.926844401707038
 21
 107.49882206895204
  0
LINE
  8
0
  6
CONTINUOUS
 62
     7
 10
 12.926844401707038
 20
 106.49882206895204
 11
 96.926844401707029
 21
 106.49882206895204
  0
LINE
  8
0
  6
CONTINUOUS
 62
     7
 10
 12.926844401707038
 20
 106.49882206895204
 11
 15.824621880574243
 21
 105.72236493364447
  0
LINE
  8
0
  6
CONTINUOUS
 62
     7
 10
 12.926844401707038
 20
 106.49882206895204
 11
 15.824621880574243
 21
 107.2752792042596
  0
LINE
  8
0
  6
CONTINUOUS
 62
     7
 10
 96.926844401707029
 20
 106.49882206895204
 11
 94.029066922839831
 21
 107.2752792042596
  0
LINE
  8
0
  6
CONTINUOUS
 62
     7
 10
 96.926844401707029
 20
 106.49882206895204
 11
 94.029066922839831
 21
 105.72236493364447
  0
TEXT
  8
0
  6
CONTINUOUS
 62
     7
 10
 52.926844401707037
 20
 107.29882206895203
 11
 56.926844401707037
 21
 107.29882206895203
 40
 2.5
 41
 0.8
  1
84
 50
 0
 72
  5
  0
ENDSEC
  0
EOF
