  0
SECTION
  2
HEADER
  9
$INSBASE
 10
0.0
20
0.0
  9
$REGENMODE
 70
     1
  9
$DRAGMODE
 70
     1
  9
$DIMTAD
 70
     1
  9
$EXTMIN
 10
-52.500000
 20
-37.125000
 30
 0.0
  9
$EXTMAX
 10
52.500000
 20
37.125000
 30
 0.0
  9
$LUPREC
 70
    3
  9
$AUPREC
 70
    3
  9
$LTSCALE
 40
26.250000
  0
ENDSEC
  0
SECTION
  2
TABLES
  0
TABLE
  2
LTYPE
 70
     6
  0
LTYPE
  2
CONTINUOUS
 70
    64
  3
SOLID
 72
    65
 73
     0
 40
0.0
  0
LTYPE
  2
DASHED2
 70
    64
  3
_ _ _ _ _ _ _ _ _ _ _ _ _ _ _ _ _ _ _ _ _ _ 
 72
    65
 73
     2
 40
0.5
 49
0.25
 49
-0.25
  0
LTYPE
  2
DASHED
 70
    64
  3
__ __ __ __ __ __ __ __ __ __ __ __ __ __ __
 72
    65
 73
     2
 40
0.75
 49
0.5
 49
-0.25
  0
LTYPE
  2
DASHEDX2
 70
    64
  3
____  ____  ____  ____  ____  ____  ____  __
 72
    65
 73
     2
 40
1.5
 49
1.0
 49
-0.5
  0
LTYPE
  2
DOT
 70
    64
  3
............................................
 72
    65
 73
     2
 40
0.25
 49
0
 49
-0.25
  0
LTYPE
  2
DASHDOT
 70
    64
  3
__ . __ . __ . __ . __ . __ . __ . __ . __ .
 72
    65
 73
     4
 40
1.0
 49
0.5
 49
-0.25
 49
0.0
 49
-0.25
  0
LTYPE
  2
CENTER
 70
    64
  3
____ _ ____ _ ____ _ ____ _ ____ _ ____ _ __
 72
    65
 73
     4
 40
2.0
 49
1.25
 49
-0.25
 49
0.25
 49
-0.25
  0
LTYPE
  2
DIVIDE
 70
    64
  3
__ . . __ . . __ . . __ . . __ . . __ . . __
 72
    65
 73
     6
 40
1.25
 49
0.5
 49
-0.25
 49
0.0
 49
-0.25
 49
0.0
 49
-0.25
  0
LTYPE
  2
PHANTOM2
 70
    64
  3
___ _ _ ___ _ _ ___ _ _ ___ _ _ ___ _ _ ___ 
 72
    65
 73
     6
 40
1.25
 49
0.625
 49
-0.125
 49
0.125
 49
-0.125
 49
0.125
 49
-0.125
  0
LTYPE
  2
DOTX2
 70
    64
  3
. . . . . . . . . . . . . . . . . . . . . . 
 72
    65
 73
     2
 40
0.5
 49
0
 49
-0.5
  0
ENDTAB
  0
TABLE
  2
LAYER
 70
   255
  0
LAYER
  2
0
 70
    64
 62
     7
  6
CONTINUOUS
  0
LAYER
  2
1
 70
    64
 62
     7
  6
CONTINUOUS
  0
LAYER
  2
2
 70
    64
 62
     7
  6
CONTINUOUS
  0
LAYER
  2
3
 70
    64
 62
     7
  6
CONTINUOUS
  0
LAYER
  2
4
 70
    64
 62
     7
  6
CONTINUOUS
  0
LAYER
  2
5
 70
    64
 62
     7
  6
CONTINUOUS
  0
LAYER
  2
6
 70
    64
 62
     7
  6
CONTINUOUS
  0
LAYER
  2
7
 70
    64
 62
     7
  6
CONTINUOUS
  0
LAYER
  2
8
 70
    64
 62
     7
  6
CONTINUOUS
  0
LAYER
  2
9
 70
    64
 62
     7
  6
CONTINUOUS
  0
LAYER
  2
10
 70
    64
 62
     7
  6
CONTINUOUS
  0
LAYER
  2
11
 70
    64
 62
     7
  6
CONTINUOUS
  0
LAYER
  2
12
 70
    64
 62
     7
  6
CONTINUOUS
  0
LAYER
  2
13
 70
    64
 62
     7
  6
CONTINUOUS
  0
LAYER
  2
14
 70
    64
 62
     7
  6
CONTINUOUS
  0
LAYER
  2
15
 70
    64
 62
     7
  6
CONTINUOUS
  0
LAYER
  2
16
 70
    64
 62
     7
  6
CONTINUOUS
  0
LAYER
  2
17
 70
    64
 62
     7
  6
CONTINUOUS
  0
LAYER
  2
18
 70
    64
 62
     7
  6
CONTINUOUS
  0
LAYER
  2
19
 70
    64
 62
     7
  6
CONTINUOUS
  0
LAYER
  2
20
 70
    64
 62
     7
  6
CONTINUOUS
  0
LAYER
  2
21
 70
    64
 62
     7
  6
CONTINUOUS
  0
LAYER
  2
22
 70
    64
 62
     7
  6
CONTINUOUS
  0
LAYER
  2
23
 70
    64
 62
     7
  6
CONTINUOUS
  0
LAYER
  2
24
 70
    64
 62
     7
  6
CONTINUOUS
  0
LAYER
  2
25
 70
    64
 62
     7
  6
CONTINUOUS
  0
LAYER
  2
26
 70
    64
 62
     7
  6
CONTINUOUS
  0
LAYER
  2
27
 70
    64
 62
     7
  6
CONTINUOUS
  0
LAYER
  2
28
 70
    64
 62
     7
  6
CONTINUOUS
  0
LAYER
  2
29
 70
    64
 62
     7
  6
CONTINUOUS
  0
LAYER
  2
30
 70
    64
 62
     7
  6
CONTINUOUS
  0
LAYER
  2
31
 70
    64
 62
     7
  6
CONTINUOUS
  0
LAYER
  2
32
 70
    64
 62
     7
  6
CONTINUOUS
  0
LAYER
  2
33
 70
    64
 62
     7
  6
CONTINUOUS
  0
LAYER
  2
34
 70
    64
 62
     7
  6
CONTINUOUS
  0
LAYER
  2
35
 70
    64
 62
     7
  6
CONTINUOUS
  0
LAYER
  2
36
 70
    64
 62
     7
  6
CONTINUOUS
  0
LAYER
  2
37
 70
    64
 62
     7
  6
CONTINUOUS
  0
LAYER
  2
38
 70
    64
 62
     7
  6
CONTINUOUS
  0
LAYER
  2
39
 70
    64
 62
     7
  6
CONTINUOUS
  0
LAYER
  2
40
 70
    64
 62
     7
  6
CONTINUOUS
  0
LAYER
  2
41
 70
    64
 62
     7
  6
CONTINUOUS
  0
LAYER
  2
42
 70
    64
 62
     7
  6
CONTINUOUS
  0
LAYER
  2
43
 70
    64
 62
     7
  6
CONTINUOUS
  0
LAYER
  2
44
 70
    64
 62
     7
  6
CONTINUOUS
  0
LAYER
  2
45
 70
    64
 62
     7
  6
CONTINUOUS
  0
LAYER
  2
46
 70
    64
 62
     7
  6
CONTINUOUS
  0
LAYER
  2
47
 70
    64
 62
     7
  6
CONTINUOUS
  0
LAYER
  2
48
 70
    64
 62
     7
  6
CONTINUOUS
  0
LAYER
  2
49
 70
    64
 62
     7
  6
CONTINUOUS
  0
LAYER
  2
50
 70
    64
 62
     7
  6
CONTINUOUS
  0
LAYER
  2
51
 70
    64
 62
     7
  6
CONTINUOUS
  0
LAYER
  2
52
 70
    64
 62
     7
  6
CONTINUOUS
  0
LAYER
  2
53
 70
    64
 62
     7
  6
CONTINUOUS
  0
LAYER
  2
54
 70
    64
 62
     7
  6
CONTINUOUS
  0
LAYER
  2
55
 70
    64
 62
     7
  6
CONTINUOUS
  0
LAYER
  2
56
 70
    64
 62
     7
  6
CONTINUOUS
  0
LAYER
  2
57
 70
    64
 62
     7
  6
CONTINUOUS
  0
LAYER
  2
58
 70
    64
 62
     7
  6
CONTINUOUS
  0
LAYER
  2
59
 70
    64
 62
     7
  6
CONTINUOUS
  0
LAYER
  2
60
 70
    64
 62
     7
  6
CONTINUOUS
  0
LAYER
  2
61
 70
    64
 62
     7
  6
CONTINUOUS
  0
LAYER
  2
62
 70
    64
 62
     7
  6
CONTINUOUS
  0
LAYER
  2
63
 70
    64
 62
     7
  6
CONTINUOUS
  0
LAYER
  2
64
 70
    64
 62
     7
  6
CONTINUOUS
  0
LAYER
  2
65
 70
    64
 62
     7
  6
CONTINUOUS
  0
LAYER
  2
66
 70
    64
 62
     7
  6
CONTINUOUS
  0
LAYER
  2
67
 70
    64
 62
     7
  6
CONTINUOUS
  0
LAYER
  2
68
 70
    64
 62
     7
  6
CONTINUOUS
  0
LAYER
  2
69
 70
    64
 62
     7
  6
CONTINUOUS
  0
LAYER
  2
70
 70
    64
 62
     7
  6
CONTINUOUS
  0
LAYER
  2
71
 70
    64
 62
     7
  6
CONTINUOUS
  0
LAYER
  2
72
 70
    64
 62
     7
  6
CONTINUOUS
  0
LAYER
  2
73
 70
    64
 62
     7
  6
CONTINUOUS
  0
LAYER
  2
74
 70
    64
 62
     7
  6
CONTINUOUS
  0
LAYER
  2
75
 70
    64
 62
     7
  6
CONTINUOUS
  0
LAYER
  2
76
 70
    64
 62
     7
  6
CONTINUOUS
  0
LAYER
  2
77
 70
    64
 62
     7
  6
CONTINUOUS
  0
LAYER
  2
78
 70
    64
 62
     7
  6
CONTINUOUS
  0
LAYER
  2
79
 70
    64
 62
     7
  6
CONTINUOUS
  0
LAYER
  2
80
 70
    64
 62
     7
  6
CONTINUOUS
  0
LAYER
  2
81
 70
    64
 62
     7
  6
CONTINUOUS
  0
LAYER
  2
82
 70
    64
 62
     7
  6
CONTINUOUS
  0
LAYER
  2
83
 70
    64
 62
     7
  6
CONTINUOUS
  0
LAYER
  2
84
 70
    64
 62
     7
  6
CONTINUOUS
  0
LAYER
  2
85
 70
    64
 62
     7
  6
CONTINUOUS
  0
LAYER
  2
86
 70
    64
 62
     7
  6
CONTINUOUS
  0
LAYER
  2
87
 70
    64
 62
     7
  6
CONTINUOUS
  0
LAYER
  2
88
 70
    64
 62
     7
  6
CONTINUOUS
  0
LAYER
  2
89
 70
    64
 62
     7
  6
CONTINUOUS
  0
LAYER
  2
90
 70
    64
 62
     7
  6
CONTINUOUS
  0
LAYER
  2
91
 70
    64
 62
     7
  6
CONTINUOUS
  0
LAYER
  2
92
 70
    64
 62
     7
  6
CONTINUOUS
  0
LAYER
  2
93
 70
    64
 62
     7
  6
CONTINUOUS
  0
LAYER
  2
94
 70
    64
 62
     7
  6
CONTINUOUS
  0
LAYER
  2
95
 70
    64
 62
     7
  6
CONTINUOUS
  0
LAYER
  2
96
 70
    64
 62
     7
  6
CONTINUOUS
  0
LAYER
  2
97
 70
    64
 62
     7
  6
CONTINUOUS
  0
LAYER
  2
98
 70
    64
 62
     7
  6
CONTINUOUS
  0
LAYER
  2
99
 70
    64
 62
     7
  6
CONTINUOUS
  0
LAYER
  2
100
 70
    64
 62
     7
  6
CONTINUOUS
  0
LAYER
  2
101
 70
    64
 62
     7
  6
CONTINUOUS
  0
LAYER
  2
102
 70
    64
 62
     7
  6
CONTINUOUS
  0
LAYER
  2
103
 70
    64
 62
     7
  6
CONTINUOUS
  0
LAYER
  2
104
 70
    64
 62
     7
  6
CONTINUOUS
  0
LAYER
  2
105
 70
    64
 62
     7
  6
CONTINUOUS
  0
LAYER
  2
106
 70
    64
 62
     7
  6
CONTINUOUS
  0
LAYER
  2
107
 70
    64
 62
     7
  6
CONTINUOUS
  0
LAYER
  2
108
 70
    64
 62
     7
  6
CONTINUOUS
  0
LAYER
  2
109
 70
    64
 62
     7
  6
CONTINUOUS
  0
LAYER
  2
110
 70
    64
 62
     7
  6
CONTINUOUS
  0
LAYER
  2
111
 70
    64
 62
     7
  6
CONTINUOUS
  0
LAYER
  2
112
 70
    64
 62
     7
  6
CONTINUOUS
  0
LAYER
  2
113
 70
    64
 62
     7
  6
CONTINUOUS
  0
LAYER
  2
114
 70
    64
 62
     7
  6
CONTINUOUS
  0
LAYER
  2
115
 70
    64
 62
     7
  6
CONTINUOUS
  0
LAYER
  2
116
 70
    64
 62
     7
  6
CONTINUOUS
  0
LAYER
  2
117
 70
    64
 62
     7
  6
CONTINUOUS
  0
LAYER
  2
118
 70
    64
 62
     7
  6
CONTINUOUS
  0
LAYER
  2
119
 70
    64
 62
     7
  6
CONTINUOUS
  0
LAYER
  2
120
 70
    64
 62
     7
  6
CONTINUOUS
  0
LAYER
  2
121
 70
    64
 62
     7
  6
CONTINUOUS
  0
LAYER
  2
122
 70
    64
 62
     7
  6
CONTINUOUS
  0
LAYER
  2
123
 70
    64
 62
     7
  6
CONTINUOUS
  0
LAYER
  2
124
 70
    64
 62
     7
  6
CONTINUOUS
  0
LAYER
  2
125
 70
    64
 62
     7
  6
CONTINUOUS
  0
LAYER
  2
126
 70
    64
 62
     7
  6
CONTINUOUS
  0
LAYER
  2
127
 70
    64
 62
     7
  6
CONTINUOUS
  0
LAYER
  2
128
 70
    64
 62
     7
  6
CONTINUOUS
  0
LAYER
  2
129
 70
    64
 62
     7
  6
CONTINUOUS
  0
LAYER
  2
130
 70
    64
 62
     7
  6
CONTINUOUS
  0
LAYER
  2
131
 70
    64
 62
     7
  6
CONTINUOUS
  0
LAYER
  2
132
 70
    64
 62
     7
  6
CONTINUOUS
  0
LAYER
  2
133
 70
    64
 62
     7
  6
CONTINUOUS
  0
LAYER
  2
134
 70
    64
 62
     7
  6
CONTINUOUS
  0
LAYER
  2
135
 70
    64
 62
     7
  6
CONTINUOUS
  0
LAYER
  2
136
 70
    64
 62
     7
  6
CONTINUOUS
  0
LAYER
  2
137
 70
    64
 62
     7
  6
CONTINUOUS
  0
LAYER
  2
138
 70
    64
 62
     7
  6
CONTINUOUS
  0
LAYER
  2
139
 70
    64
 62
     7
  6
CONTINUOUS
  0
LAYER
  2
140
 70
    64
 62
     7
  6
CONTINUOUS
  0
LAYER
  2
141
 70
    64
 62
     7
  6
CONTINUOUS
  0
LAYER
  2
142
 70
    64
 62
     7
  6
CONTINUOUS
  0
LAYER
  2
143
 70
    64
 62
     7
  6
CONTINUOUS
  0
LAYER
  2
144
 70
    64
 62
     7
  6
CONTINUOUS
  0
LAYER
  2
145
 70
    64
 62
     7
  6
CONTINUOUS
  0
LAYER
  2
146
 70
    64
 62
     7
  6
CONTINUOUS
  0
LAYER
  2
147
 70
    64
 62
     7
  6
CONTINUOUS
  0
LAYER
  2
148
 70
    64
 62
     7
  6
CONTINUOUS
  0
LAYER
  2
149
 70
    64
 62
     7
  6
CONTINUOUS
  0
LAYER
  2
150
 70
    64
 62
     7
  6
CONTINUOUS
  0
LAYER
  2
151
 70
    64
 62
     7
  6
CONTINUOUS
  0
LAYER
  2
152
 70
    64
 62
     7
  6
CONTINUOUS
  0
LAYER
  2
153
 70
    64
 62
     7
  6
CONTINUOUS
  0
LAYER
  2
154
 70
    64
 62
     7
  6
CONTINUOUS
  0
LAYER
  2
155
 70
    64
 62
     7
  6
CONTINUOUS
  0
LAYER
  2
156
 70
    64
 62
     7
  6
CONTINUOUS
  0
LAYER
  2
157
 70
    64
 62
     7
  6
CONTINUOUS
  0
LAYER
  2
158
 70
    64
 62
     7
  6
CONTINUOUS
  0
LAYER
  2
159
 70
    64
 62
     7
  6
CONTINUOUS
  0
LAYER
  2
160
 70
    64
 62
     7
  6
CONTINUOUS
  0
LAYER
  2
161
 70
    64
 62
     7
  6
CONTINUOUS
  0
LAYER
  2
162
 70
    64
 62
     7
  6
CONTINUOUS
  0
LAYER
  2
163
 70
    64
 62
     7
  6
CONTINUOUS
  0
LAYER
  2
164
 70
    64
 62
     7
  6
CONTINUOUS
  0
LAYER
  2
165
 70
    64
 62
     7
  6
CONTINUOUS
  0
LAYER
  2
166
 70
    64
 62
     7
  6
CONTINUOUS
  0
LAYER
  2
167
 70
    64
 62
     7
  6
CONTINUOUS
  0
LAYER
  2
168
 70
    64
 62
     7
  6
CONTINUOUS
  0
LAYER
  2
169
 70
    64
 62
     7
  6
CONTINUOUS
  0
LAYER
  2
170
 70
    64
 62
     7
  6
CONTINUOUS
  0
LAYER
  2
171
 70
    64
 62
     7
  6
CONTINUOUS
  0
LAYER
  2
172
 70
    64
 62
     7
  6
CONTINUOUS
  0
LAYER
  2
173
 70
    64
 62
     7
  6
CONTINUOUS
  0
LAYER
  2
174
 70
    64
 62
     7
  6
CONTINUOUS
  0
LAYER
  2
175
 70
    64
 62
     7
  6
CONTINUOUS
  0
LAYER
  2
176
 70
    64
 62
     7
  6
CONTINUOUS
  0
LAYER
  2
177
 70
    64
 62
     7
  6
CONTINUOUS
  0
LAYER
  2
178
 70
    64
 62
     7
  6
CONTINUOUS
  0
LAYER
  2
179
 70
    64
 62
     7
  6
CONTINUOUS
  0
LAYER
  2
180
 70
    64
 62
     7
  6
CONTINUOUS
  0
LAYER
  2
181
 70
    64
 62
     7
  6
CONTINUOUS
  0
LAYER
  2
182
 70
    64
 62
     7
  6
CONTINUOUS
  0
LAYER
  2
183
 70
    64
 62
     7
  6
CONTINUOUS
  0
LAYER
  2
184
 70
    64
 62
     7
  6
CONTINUOUS
  0
LAYER
  2
185
 70
    64
 62
     7
  6
CONTINUOUS
  0
LAYER
  2
186
 70
    64
 62
     7
  6
CONTINUOUS
  0
LAYER
  2
187
 70
    64
 62
     7
  6
CONTINUOUS
  0
LAYER
  2
188
 70
    64
 62
     7
  6
CONTINUOUS
  0
LAYER
  2
189
 70
    64
 62
     7
  6
CONTINUOUS
  0
LAYER
  2
190
 70
    64
 62
     7
  6
CONTINUOUS
  0
LAYER
  2
191
 70
    64
 62
     7
  6
CONTINUOUS
  0
LAYER
  2
192
 70
    64
 62
     7
  6
CONTINUOUS
  0
LAYER
  2
193
 70
    64
 62
     7
  6
CONTINUOUS
  0
LAYER
  2
194
 70
    64
 62
     7
  6
CONTINUOUS
  0
LAYER
  2
195
 70
    64
 62
     7
  6
CONTINUOUS
  0
LAYER
  2
196
 70
    64
 62
     7
  6
CONTINUOUS
  0
LAYER
  2
197
 70
    64
 62
     7
  6
CONTINUOUS
  0
LAYER
  2
198
 70
    64
 62
     7
  6
CONTINUOUS
  0
LAYER
  2
199
 70
    64
 62
     7
  6
CONTINUOUS
  0
LAYER
  2
200
 70
    64
 62
     7
  6
CONTINUOUS
  0
LAYER
  2
201
 70
    64
 62
     7
  6
CONTINUOUS
  0
LAYER
  2
202
 70
    64
 62
     7
  6
CONTINUOUS
  0
LAYER
  2
203
 70
    64
 62
     7
  6
CONTINUOUS
  0
LAYER
  2
204
 70
    64
 62
     7
  6
CONTINUOUS
  0
LAYER
  2
205
 70
    64
 62
     7
  6
CONTINUOUS
  0
LAYER
  2
206
 70
    64
 62
     7
  6
CONTINUOUS
  0
LAYER
  2
207
 70
    64
 62
     7
  6
CONTINUOUS
  0
LAYER
  2
208
 70
    64
 62
     7
  6
CONTINUOUS
  0
LAYER
  2
209
 70
    64
 62
     7
  6
CONTINUOUS
  0
LAYER
  2
210
 70
    64
 62
     7
  6
CONTINUOUS
  0
LAYER
  2
211
 70
    64
 62
     7
  6
CONTINUOUS
  0
LAYER
  2
212
 70
    64
 62
     7
  6
CONTINUOUS
  0
LAYER
  2
213
 70
    64
 62
     7
  6
CONTINUOUS
  0
LAYER
  2
214
 70
    64
 62
     7
  6
CONTINUOUS
  0
LAYER
  2
215
 70
    64
 62
     7
  6
CONTINUOUS
  0
LAYER
  2
216
 70
    64
 62
     7
  6
CONTINUOUS
  0
LAYER
  2
217
 70
    64
 62
     7
  6
CONTINUOUS
  0
LAYER
  2
218
 70
    64
 62
     7
  6
CONTINUOUS
  0
LAYER
  2
219
 70
    64
 62
     7
  6
CONTINUOUS
  0
LAYER
  2
220
 70
    64
 62
     7
  6
CONTINUOUS
  0
LAYER
  2
221
 70
    64
 62
     7
  6
CONTINUOUS
  0
LAYER
  2
222
 70
    64
 62
     7
  6
CONTINUOUS
  0
LAYER
  2
223
 70
    64
 62
     7
  6
CONTINUOUS
  0
LAYER
  2
224
 70
    64
 62
     7
  6
CONTINUOUS
  0
LAYER
  2
225
 70
    64
 62
     7
  6
CONTINUOUS
  0
LAYER
  2
226
 70
    64
 62
     7
  6
CONTINUOUS
  0
LAYER
  2
227
 70
    64
 62
     7
  6
CONTINUOUS
  0
LAYER
  2
228
 70
    64
 62
     7
  6
CONTINUOUS
  0
LAYER
  2
229
 70
    64
 62
     7
  6
CONTINUOUS
  0
LAYER
  2
230
 70
    64
 62
     7
  6
CONTINUOUS
  0
LAYER
  2
231
 70
    64
 62
     7
  6
CONTINUOUS
  0
LAYER
  2
232
 70
    64
 62
     7
  6
CONTINUOUS
  0
LAYER
  2
233
 70
    64
 62
     7
  6
CONTINUOUS
  0
LAYER
  2
234
 70
    64
 62
     7
  6
CONTINUOUS
  0
LAYER
  2
235
 70
    64
 62
     7
  6
CONTINUOUS
  0
LAYER
  2
236
 70
    64
 62
     7
  6
CONTINUOUS
  0
LAYER
  2
237
 70
    64
 62
     7
  6
CONTINUOUS
  0
LAYER
  2
238
 70
    64
 62
     7
  6
CONTINUOUS
  0
LAYER
  2
239
 70
    64
 62
     7
  6
CONTINUOUS
  0
LAYER
  2
240
 70
    64
 62
     7
  6
CONTINUOUS
  0
LAYER
  2
241
 70
    64
 62
     7
  6
CONTINUOUS
  0
LAYER
  2
242
 70
    64
 62
     7
  6
CONTINUOUS
  0
LAYER
  2
243
 70
    64
 62
     7
  6
CONTINUOUS
  0
LAYER
  2
244
 70
    64
 62
     7
  6
CONTINUOUS
  0
LAYER
  2
245
 70
    64
 62
     7
  6
CONTINUOUS
  0
LAYER
  2
246
 70
    64
 62
     7
  6
CONTINUOUS
  0
LAYER
  2
247
 70
    64
 62
     7
  6
CONTINUOUS
  0
LAYER
  2
248
 70
    64
 62
     7
  6
CONTINUOUS
  0
LAYER
  2
249
 70
    64
 62
     7
  6
CONTINUOUS
  0
LAYER
  2
250
 70
    64
 62
     7
  6
CONTINUOUS
  0
LAYER
  2
251
 70
    64
 62
     7
  6
CONTINUOUS
  0
LAYER
  2
252
 70
    64
 62
     7
  6
CONTINUOUS
  0
LAYER
  2
253
 70
    64
 62
     7
  6
CONTINUOUS
  0
LAYER
  2
254
 70
    64
 62
     7
  6
CONTINUOUS
  0
LAYER
  2
255
 70
    64
 62
     7
  6
CONTINUOUS
  0
ENDTAB
  0
TABLE
  2
STYLE
 70
     2
  0
STYLE
  2
STANDARD
 70
    64
 40
0.0
 41
1.0
 50
0.0
 71
     0
 42
3.000000
  3
TXT
  4
BIGFONT
  0
ENDTAB
  0
ENDSEC
  0
SECTION
  2
ENTITIES
  0
LINE
  8
0
  6
CONTINUOUS
 62
     3
 10
-7.7073717690094075
 20
-7.2279395496416798
 11
 5.2926282309905961
 21
-7.2279395496416798
  0
ARC
  8
0
  6
CONTINUOUS
 62
     3
 10
-7.7073717690094075
 20
-6.7279395496416807
 40
 0.5
 50
 180.00000307046903
 51
-90.000001535234532
  0
LINE
  8
0
  6
CONTINUOUS
 62
     3
 10
 7.7926282309905961
 20
-1.227939549641679
 11
 7.7926282309905961
 21
 0.7720604503583175
  0
ARC
  8
0
  6
CONTINUOUS
 62
     3
 10
 7.2926282309905961
 20
-1.227939549641679
 40
 0.5
 50
-90.000001535234532
 51
 0
  0
LINE
  8
0
  6
CONTINUOUS
 62
     3
 10
-8.2073717690094075
 20
 0.7720604503583175
 11
-8.2073717690094075
 21
-6.7279395496416807
  0
LINE
  8
0
  6
CONTINUOUS
 62
     3
 10
-4.7073717690094075
 20
-4.227939549641679
 11
 5.2926282309905961
 21
-4.227939549641679
  0
ARC
  8
0
  6
CONTINUOUS
 62
     3
 10
-4.7073717690094075
 20
-3.727939549641679
 40
 0.5
 50
 180.00000307046903
 51
-90.000001535234532
  0
LINE
  8
0
  6
CONTINUOUS
 62
     3
 10
 5.7926282309905961
 20
-4.727939549641679
 11
 5.7926282309905961
 21
-6.7279395496416807
  0
ARC
  8
0
  6
CONTINUOUS
 62
     3
 10
 5.2926282309905961
 20
-6.7279395496416807
 40
 0.5
 50
-90.000001535234532
 51
 0
  0
ARC
  8
0
  6
CONTINUOUS
 62
     3
 10
 5.2926282309905961
 20
-4.727939549641679
 40
 0.5
 50
 0
 51
 90.000001535234517
  0
LINE
  8
0
  6
CONTINUOUS
 62
     3
 10
 7.2926282309905961
 20
-1.727939549641679
 11
 6.5426282309905961
 21
-1.727939549641679
  0
LINE
  8
0
  6
CONTINUOUS
 62
     3
 10
 6.0426282309905961
 20
-1.727939549641679
 11
 5.0426282309905925
 21
-1.727939549641679
  0
LINE
  8
0
  6
CONTINUOUS
 62
     3
 10
 4.5426282309905925
 20
-1.727939549641679
 11
-4.7073717690094075
 21
-1.727939549641679
  0
LINE
  8
0
  6
CONTINUOUS
 62
     3
 10
-4.5948539627054625
 20
 1.272060450358321
 11
 4.1801104246866529
 21
 1.272060450358321
  0
ARC
  8
0
  6
CONTINUOUS
 62
     3
 10
-0.2073717690094039
 20
 0.7720604503583175
 40
 8
 50
 0
 51
 180.00000307046903
  0
ARC
  8
0
  6
CONTINUOUS
 62
     3
 10
-0.2073717690094039
 20
 0.7720604503583175
 40
 5
 50
 11.563368580462461
 51
 167.16041444454504
  0
LINE
  8
0
  6
CONTINUOUS
 62
     3
 10
-5.2073717690094075
 20
-2.2279395496416781
 11
-5.2073717690094075
 21
-3.727939549641679
  0
ARC
  8
0
  6
CONTINUOUS
 62
     3
 10
-4.7073717690094075
 20
-2.2279395496416781
 40
 0.5
 50
 90.000001535234517
 51
 180.00000307046903
  0
ARC
  8
0
  6
CONTINUOUS
 62
     3
 10
-4.5948539627054625
 20
 1.772060450358321
 40
 0.5
 50
 167.16041444454513
 51
-90.000001535234532
  0
ARC
  8
0
  6
CONTINUOUS
 62
     3
 10
 4.1801104246866529
 20
 1.772060450358321
 40
 0.5
 50
-90.000001535234532
 51
 0
  0
LINE
  8
0
  6
CONTINUOUS
 62
     3
 10
 6.0426282309905961
 20
-1.727939549641679
 11
 6.2926282309905961
 21
-2.2279395496416781
  0
LINE
  8
0
  6
CONTINUOUS
 62
     3
 10
 6.5426282309905961
 20
-1.727939549641679
 11
 6.2926282309905961
 21
-2.2279395496416781
  0
LINE
  8
0
  6
CONTINUOUS
 62
     3
 10
 4.5426282309905925
 20
-1.727939549641679
 11
 4.7926282309905925
 21
-2.2279395496416781
  0
LINE
  8
0
  6
CONTINUOUS
 62
     3
 10
 5.0426282309905925
 20
-1.727939549641679
 11
 4.7926282309905925
 21
-2.2279395496416781
  0
LINE
  8
0
  6
DASHDOT
 62
     7
 10
 4.7926282309905925
 20
-2.7279395496416781
 11
 4.7926282309905925
 21
-0.977939549641679
  0
LINE
  8
0
  6
DASHDOT
 62
     7
 10
 6.292628230990589
 20
-0.977939549641679
 11
 6.292628230990589
 21
-2.7279395496416781
  0
CIRCLE
  8
0
  6
CONTINUOUS
 62
     2
 10
-1.5173046291335179
 20
 7.5773809057482726
 40
 0.25
  0
CIRCLE
  8
0
  6
CONTINUOUS
 62
     2
 10
-4.4018439693210514
 20
 5.6543546789565866
 40
 0.25
  0
CIRCLE
  8
0
  6
CONTINUOUS
 62
     2
 10
 2.9697565667137553
 20
 6.6158677923524305
 40
 0.25
  0
CIRCLE
  8
0
  6
CONTINUOUS
 62
     2
 10
 5.5337915357693372
 20
 3.0903197099010029
 40
 0.25
  0
CIRCLE
  8
0
  6
CONTINUOUS
 62
     2
 10
 1.0467303399220622
 20
 0.526284740845421
 40
 0.25
  0
CIRCLE
  8
0
  6
CONTINUOUS
 62
     2
 10
-1.8378090002654606
 20
-0.4352283725504229
 40
 0.25
  0
CIRCLE
  8
0
  6
CONTINUOUS
 62
     2
 10
-4.4018439693210514
 20
 0.2057803697134721
 40
 0.25
  0
CIRCLE
  8
0
  6
CONTINUOUS
 62
     2
 10
-7.2863833095085813
 20
-0.1147240014184749
 40
 0.25
  0
CIRCLE
  8
0
  6
CONTINUOUS
 62
     2
 10
-6.6453745672446818
 20
-5.5632983106615903
 40
 0.25
  0
CIRCLE
  8
0
  6
CONTINUOUS
 62
     2
 10
-6.6453745672446818
 20
 3.7313284521648988
 40
 0.25
  0
CIRCLE
  8
0
  6
CONTINUOUS
 62
     2
 10
-2.1583133713974139
 20
-5.8838026817935383
 40
 0.25
  0
CIRCLE
  8
0
  6
CONTINUOUS
 62
     2
 10
 1.0467303399220622
 20
-4.9222895683976944
 40
 0.25
  0
CIRCLE
  8
0
  6
CONTINUOUS
 62
     2
 10
 3.3416866286025879
 20
-5.8838026817935383
 40
 0.25
  0
LINE
  8
256
  6
CONTINUOUS
 62
     7
 10
-48.325000000000003
 20
 31.249999114063371
 11
-23.325000000000003
 21
 31.249999114063371
  0
LINE
  8
256
  6
CONTINUOUS
 62
     7
 10
-23.325000000000003
 20
 31.249999114063375
 11
-23.325000000000003
 21
 34.249999302842021
  0
TEXT
  8
256
  6
CONTINUOUS
 62
     7
 10
-47.075000000000003
 20
 31.999999012044029
 11
-35.075000000000003
 21
 31.999999012044029
 40
 1.5
 41
 1
  1
Ｉ－４４０３１Ｄ
 50
 0
 72
  5
  0
LINE
  8
256
  6
CONTINUOUS
 62
     7
 10
-48.325000000000003
 20
 34.249999302842021
 11
-48.325000000000003
 21
-34.874999999999986
  0
LINE
  8
256
  6
CONTINUOUS
 62
     7
 10
 26.249996185302734
 20
-30.375
 11
 50
 21
-30.375
  0
LINE
  8
256
  6
CONTINUOUS
 62
     7
 10
 42.749996185302734
 20
-27.375
 11
 42.749996185302734
 21
-30.375
  0
TEXT
  8
256
  6
CONTINUOUS
 62
     7
 10
 30.499996185302734
 20
-29.9375
 11
 38.499996185302734
 21
-29.9375
 40
 1.25
 41
 0.8
  1
レストンＮｏ．２
 50
 0
 72
  5
  0
TEXT
  8
256
  6
CONTINUOUS
 62
     7
 10
 26.574996948242187
 20
-28.112490844726551
 11
 27.824996948242188
 21
-28.112490844726551
 40
 0.625
 41
 0.8
  1
品名
 50
 0
 72
  5
  0
TEXT
  8
256
  6
CONTINUOUS
 62
     7
 10
 26.574996948242187
 20
-31.112507629394528
 11
 27.824996948242188
 21
-31.112507629394528
 40
 0.625
 41
 0.8
  1
品番
 50
 0
 72
  5
  0
LINE
  8
256
  6
CONTINUOUS
 62
     7
 10
 26.249996185302734
 20
-34.875
 11
 26.249996185302734
 21
-27.375
  0
LINE
  8
256
  6
CONTINUOUS
 62
     7
 10
 26.249996185302734
 20
-27.375
 11
 50
 21
-27.375
  0
LINE
  8
256
  6
CONTINUOUS
 62
     7
 10
-48.325000000000003
 20
 34.249999302842021
 11
 50
 21
 34.249999302842021
  0
LINE
  8
256
  6
CONTINUOUS
 62
     7
 10
 50
 20
-34.875
 11
-48.325000000000003
 21
-34.874999999999986
  0
LINE
  8
256
  6
CONTINUOUS
 62
     7
 10
 50
 20
 34.249999302842021
 11
 50
 21
-34.875
  0
LINE
  8
0
  6
CONTINUOUS
 62
     7
 10
 7.7926282309905961
 20
 1.2720604503583175
 11
 7.7926282309905961
 21
 12.022060450358319
  0
LINE
  8
0
  6
CONTINUOUS
 62
     7
 10
-8.2073717690094039
 20
 1.7720604503583193
 11
-8.2073717690094039
 21
 12.022060450358319
  0
LINE
  8
0
  6
CONTINUOUS
 62
     7
 10
 7.7926282309905961
 20
 11.772060450358319
 11
-8.2073717690094039
 21
 11.772060450358319
  0
LINE
  8
0
  6
CONTINUOUS
 62
     7
 10
 7.7926282309905961
 20
 11.772060450358319
 11
 7.0681838612737948
 21
 11.966174734185209
  0
LINE
  8
0
  6
CONTINUOUS
 62
     7
 10
 7.7926282309905961
 20
 11.772060450358319
 11
 7.0681838612737948
 21
 11.577946166531429
  0
LINE
  8
0
  6
CONTINUOUS
 62
     7
 10
-8.2073717690094039
 20
 11.772060450358319
 11
-7.4829273992926026
 21
 11.577946166531429
  0
LINE
  8
0
  6
CONTINUOUS
 62
     7
 10
-8.2073717690094039
 20
 11.772060450358319
 11
-7.4829273992926026
 21
 11.966174734185209
  0
TEXT
  8
0
  6
CONTINUOUS
 62
     7
 10
-0.7098717690093992
 20
 12.022060450358317
 11
 0.2951282309906009
 21
 12.022060450358317
 40
 0.55
 41
 0.8
  1
16
 50
 0
 72
  5
  0
LINE
  8
0
  6
CONTINUOUS
 62
     7
 10
-5.207371769009411
 20
-1.727939549641679
 11
-5.207371769009411
 21
 10.522060450358319
  0
LINE
  8
0
  6
CONTINUOUS
 62
     7
 10
-5.207371769009411
 20
 10.272060450358319
 11
-8.2073717690094039
 21
 10.272060450358319
  0
LINE
  8
0
  6
CONTINUOUS
 62
     7
 10
-5.207371769009411
 20
 10.272060450358319
 11
-5.9318161387262123
 21
 10.466174734185209
  0
LINE
  8
0
  6
CONTINUOUS
 62
     7
 10
-5.207371769009411
 20
 10.272060450358319
 11
-5.9318161387262123
 21
 10.077946166531429
  0
LINE
  8
0
  6
CONTINUOUS
 62
     7
 10
-8.2073717690094039
 20
 10.272060450358319
 11
-7.4829273992926026
 21
 10.077946166531429
  0
LINE
  8
0
  6
CONTINUOUS
 62
     7
 10
-8.2073717690094039
 20
 10.272060450358319
 11
-7.4829273992926026
 21
 10.466174734185209
  0
TEXT
  8
0
  6
CONTINUOUS
 62
     7
 10
-6.9273717690094072
 20
 10.522060450358317
 11
-6.4873717690094068
 21
 10.522060450358317
 40
 0.55
 41
 0.8
  1
3
 50
 0
 72
  5
  0
LINE
  8
0
  6
CONTINUOUS
 62
     7
 10
-8.2073717690094075
 20
-7.2279395496416798
 11
-11.457371769009404
 21
-7.2279395496416798
  0
LINE
  8
0
  6
CONTINUOUS
 62
     7
 10
-1.2073717690094075
 20
 8.7720604503583193
 11
-11.457371769009404
 21
 8.7720604503583193
  0
LINE
  8
0
  6
CONTINUOUS
 62
     7
 10
-11.207371769009407
 20
-7.2279395496416798
 11
-11.207371769009407
 21
 8.7720604503583193
  0
LINE
  8
0
  6
CONTINUOUS
 62
     7
 10
-11.207371769009407
 20
-7.2279395496416798
 11
-11.013257485182518
 21
-6.5034951799248786
  0
LINE
  8
0
  6
CONTINUOUS
 62
     7
 10
-11.207371769009407
 20
-7.2279395496416798
 11
-11.401486052836297
 21
-6.5034951799248786
  0
LINE
  8
0
  6
CONTINUOUS
 62
     7
 10
-11.207371769009407
 20
 8.7720604503583193
 11
-11.401486052836297
 21
 8.047616080641518
  0
LINE
  8
0
  6
CONTINUOUS
 62
     7
 10
-11.207371769009407
 20
 8.7720604503583193
 11
-11.013257485182518
 21
 8.047616080641518
  0
TEXT
  8
0
  6
CONTINUOUS
 62
     7
 10
-11.457371769009406
 20
-0.2954395496416825
 11
-11.457371769009406
 21
 1.8395604503583174
 40
 0.55
 41
 0.8
  1
(16)
 50
 90.000001535234517
 72
  5
  0
LINE
  8
0
  6
CONTINUOUS
 62
     7
 10
 1.2926282309905943
 20
 8.7720604503583193
 11
 11.042628230990596
 21
 8.7720604503583193
  0
LINE
  8
0
  6
CONTINUOUS
 62
     7
 10
 7.7926282309905961
 20
-1.727939549641679
 11
 11.042628230990596
 21
-1.727939549641679
  0
LINE
  8
0
  6
CONTINUOUS
 62
     7
 10
 10.792628230990596
 20
 8.7720604503583193
 11
 10.792628230990596
 21
-1.727939549641679
  0
LINE
  8
0
  6
CONTINUOUS
 62
     7
 10
 10.792628230990596
 20
 8.7720604503583193
 11
 10.598513947163706
 21
 8.047616080641518
  0
LINE
  8
0
  6
CONTINUOUS
 62
     7
 10
 10.792628230990596
 20
 8.7720604503583193
 11
 10.986742514817486
 21
 8.047616080641518
  0
LINE
  8
0
  6
CONTINUOUS
 62
     7
 10
 10.792628230990596
 20
-1.727939549641679
 11
 10.986742514817486
 21
-1.0034951799248777
  0
LINE
  8
0
  6
CONTINUOUS
 62
     7
 10
 10.792628230990596
 20
-1.727939549641679
 11
 10.598513947163706
 21
-1.0034951799248777
  0
TEXT
  8
0
  6
CONTINUOUS
 62
     7
 10
 10.542628230990594
 20
 2.4545604503583185
 11
 10.542628230990594
 21
 4.5895604503583183
 40
 0.55
 41
 0.8
  1
10.5
 50
 90.000001535234517
 72
  5
  0
LINE
  8
0
  6
CONTINUOUS
 62
     7
 10
 5.7926282309905961
 20
-4.227939549641679
 11
 11.042628230990596
 21
-4.227939549641679
  0
LINE
  8
0
  6
CONTINUOUS
 62
     7
 10
 10.792628230990596
 20
-4.227939549641679
 11
 10.792628230990596
 21
-1.727939549641679
  0
LINE
  8
0
  6
CONTINUOUS
 62
     7
 10
 10.792628230990596
 20
-4.227939549641679
 11
 10.986742514817486
 21
-3.5034951799248777
  0
LINE
  8
0
  6
CONTINUOUS
 62
     7
 10
 10.792628230990596
 20
-4.227939549641679
 11
 10.598513947163706
 21
-3.5034951799248777
  0
LINE
  8
0
  6
CONTINUOUS
 62
     7
 10
 10.792628230990596
 20
-1.727939549641679
 11
 10.598513947163706
 21
-2.4523839193584802
  0
LINE
  8
0
  6
CONTINUOUS
 62
     7
 10
 10.792628230990596
 20
-1.727939549641679
 11
 10.986742514817486
 21
-2.4523839193584802
  0
TEXT
  8
0
  6
CONTINUOUS
 62
     7
 10
 11.842628230990595
 20
-3.76293954964168
 11
 11.842628230990595
 21
-2.1929395496416797
 40
 0.55
 41
 0.8
  1
2.5
 50
 90.000001535234517
 72
  5
  0
LINE
  8
0
  6
CONTINUOUS
 62
     7
 10
 5.7926282309905961
 20
-7.2279395496416798
 11
 11.042628230990596
 21
-7.2279395496416798
  0
LINE
  8
0
  6
CONTINUOUS
 62
     7
 10
 10.792628230990596
 20
-7.2279395496416798
 11
 10.792628230990596
 21
-4.227939549641679
  0
LINE
  8
0
  6
CONTINUOUS
 62
     7
 10
 10.792628230990596
 20
-7.2279395496416798
 11
 10.986742514817486
 21
-6.5034951799248786
  0
LINE
  8
0
  6
CONTINUOUS
 62
     7
 10
 10.792628230990596
 20
-7.2279395496416798
 11
 10.598513947163706
 21
-6.5034951799248786
  0
LINE
  8
0
  6
CONTINUOUS
 62
     7
 10
 10.792628230990596
 20
-4.227939549641679
 11
 10.598513947163706
 21
-4.9523839193584802
  0
LINE
  8
0
  6
CONTINUOUS
 62
     7
 10
 10.792628230990596
 20
-4.227939549641679
 11
 10.986742514817486
 21
-4.9523839193584802
  0
TEXT
  8
0
  6
CONTINUOUS
 62
     7
 10
 10.542628230990594
 20
-5.9479395496416796
 11
 10.542628230990594
 21
-5.5079395496416801
 40
 0.55
 41
 0.8
  1
3
 50
 90.000001535234517
 72
  5
  0
LINE
  8
0
  6
CONTINUOUS
 62
     7
 10
-8.2073717690094075
 20
-7.2279395496416798
 11
-8.2073717690094075
 21
-10.477939549641679
  0
LINE
  8
0
  6
CONTINUOUS
 62
     7
 10
 5.7926282309905961
 20
-7.2279395496416798
 11
 5.7926282309905961
 21
-10.477939549641679
  0
LINE
  8
0
  6
CONTINUOUS
 62
     7
 10
-8.2073717690094075
 20
-10.227939549641679
 11
 5.7926282309905961
 21
-10.227939549641679
  0
LINE
  8
0
  6
CONTINUOUS
 62
     7
 10
-8.2073717690094075
 20
-10.227939549641679
 11
-7.4829273992926062
 21
-10.422053833468569
  0
LINE
  8
0
  6
CONTINUOUS
 62
     7
 10
-8.2073717690094075
 20
-10.227939549641679
 11
-7.4829273992926062
 21
-10.033825265814789
  0
LINE
  8
0
  6
CONTINUOUS
 62
     7
 10
 5.7926282309905961
 20
-10.227939549641679
 11
 5.0681838612737948
 21
-10.033825265814789
  0
LINE
  8
0
  6
CONTINUOUS
 62
     7
 10
 5.7926282309905961
 20
-10.227939549641679
 11
 5.0681838612737948
 21
-10.422053833468569
  0
TEXT
  8
0
  6
CONTINUOUS
 62
     7
 10
-1.7098717690094063
 20
-9.977939549641679
 11
-0.7048717690094062
 21
-9.977939549641679
 40
 0.55
 41
 0.8
  1
14
 50
 0
 72
  5
  0
LINE
  8
0
  6
CONTINUOUS
 62
     7
 10
 4.5426282309905925
 20
-1.2279395496416772
 11
 4.5426282309905925
 21
-0.4779395496416798
  0
LINE
  8
0
  6
CONTINUOUS
 62
     7
 10
 5.0426282309905925
 20
-1.2279395496416772
 11
 5.0426282309905925
 21
-0.4779395496416798
  0
LINE
  8
0
  6
CONTINUOUS
 62
     7
 10
 4.5426282309905925
 20
-0.727939549641679
 11
 5.0426282309905925
 21
-0.727939549641679
  0
TEXT
  8
0
  6
CONTINUOUS
 62
     7
 10
 2.5326282309905932
 20
-0.4779395496416795
 11
 4.1026282309905939
 21
-0.4779395496416795
 40
 0.55
 41
 0.8
  1
0.5
 50
 0
 72
  5
  0
LINE
  8
0
  6
CONTINUOUS
 62
     7
 10
 2.0926282309905915
 20
-0.727939549641679
 11
 4.5426282309905925
 21
-0.727939549641679
  0
LINE
  8
0
  6
CONTINUOUS
 62
     7
 10
 4.5426282309905925
 20
-0.727939549641679
 11
 3.8181838612737913
 21
-0.5338252658147884
  0
LINE
  8
0
  6
CONTINUOUS
 62
     7
 10
 4.5426282309905925
 20
-0.727939549641679
 11
 3.8181838612737913
 21
-0.9220538334685695
  0
LINE
  8
0
  6
CONTINUOUS
 62
     7
 10
 6.292628230990589
 20
-0.727939549641679
 11
 5.0426282309905925
 21
-0.727939549641679
  0
LINE
  8
0
  6
CONTINUOUS
 62
     7
 10
 5.0426282309905925
 20
-0.727939549641679
 11
 5.7670726007073938
 21
-0.9220538334685695
  0
LINE
  8
0
  6
CONTINUOUS
 62
     7
 10
 5.0426282309905925
 20
-0.727939549641679
 11
 5.7670726007073938
 21
-0.5338252658147884
  0
LINE
  8
0
  6
CONTINUOUS
 62
     7
 10
 6.292628230990589
 20
-2.7279395496416781
 11
 6.292628230990589
 21
-3.977939549641679
  0
LINE
  8
0
  6
CONTINUOUS
 62
     7
 10
 7.7926282309905961
 20
-1.727939549641679
 11
 7.7926282309905961
 21
-3.977939549641679
  0
LINE
  8
0
  6
CONTINUOUS
 62
     7
 10
 6.292628230990589
 20
-3.727939549641679
 11
 7.7926282309905961
 21
-3.727939549641679
  0
LINE
  8
0
  6
CONTINUOUS
 62
     7
 10
 6.292628230990589
 20
-3.727939549641679
 11
 7.0170726007073903
 21
-3.9220538334685697
  0
LINE
  8
0
  6
CONTINUOUS
 62
     7
 10
 6.292628230990589
 20
-3.727939549641679
 11
 7.0170726007073903
 21
-3.5338252658147882
  0
LINE
  8
0
  6
CONTINUOUS
 62
     7
 10
 7.7926282309905961
 20
-3.727939549641679
 11
 7.0681838612737948
 21
-3.5338252658147882
  0
LINE
  8
0
  6
CONTINUOUS
 62
     7
 10
 7.7926282309905961
 20
-3.727939549641679
 11
 7.0681838612737948
 21
-3.9220538334685697
  0
TEXT
  8
0
  6
CONTINUOUS
 62
     7
 10
 6.2576282309905951
 20
-3.4779395496416798
 11
 7.8276282309905953
 21
-3.4779395496416794
 40
 0.55
 41
 0.8
  1
1.5
 50
 0
 72
  5
  0
LINE
  8
0
  6
CONTINUOUS
 62
     7
 10
 4.7926282309905925
 20
-2.7279395496416781
 11
 4.7926282309905925
 21
-3.977939549641679
  0
LINE
  8
0
  6
CONTINUOUS
 62
     7
 10
 6.292628230990589
 20
-3.727939549641679
 11
 4.7926282309905925
 21
-3.727939549641679
  0
LINE
  8
0
  6
CONTINUOUS
 62
     7
 10
 6.292628230990589
 20
-3.727939549641679
 11
 5.5681838612737877
 21
-3.5338252658147882
  0
LINE
  8
0
  6
CONTINUOUS
 62
     7
 10
 6.292628230990589
 20
-3.727939549641679
 11
 5.5681838612737877
 21
-3.9220538334685697
  0
LINE
  8
0
  6
CONTINUOUS
 62
     7
 10
 4.7926282309905925
 20
-3.727939549641679
 11
 5.5170726007073938
 21
-3.9220538334685697
  0
LINE
  8
0
  6
CONTINUOUS
 62
     7
 10
 4.7926282309905925
 20
-3.727939549641679
 11
 5.5170726007073938
 21
-3.5338252658147882
  0
TEXT
  8
0
  6
CONTINUOUS
 62
     7
 10
 4.7576282309905915
 20
-3.4779395496416798
 11
 6.3276282309905918
 21
-3.4779395496416794
 40
 0.55
 41
 0.8
  1
1.5
 50
 0
 72
  5
  0
ENDSEC
  0
EOF
