  0
SECTION
  2
HEADER
  9
$INSBASE
 10
0.0
20
0.0
  9
$REGENMODE
 70
     1
  9
$DRAGMODE
 70
     1
  9
$DIMTAD
 70
     1
  9
$EXTMIN
 10
-210.000000
 20
-148.500000
 30
 0.0
  9
$EXTMAX
 10
210.000000
 20
148.500000
 30
 0.0
  9
$LUPREC
 70
    3
  9
$AUPREC
 70
    3
  9
$LTSCALE
 40
26.250000
  0
ENDSEC
  0
SECTION
  2
TABLES
  0
TABLE
  2
LTYPE
 70
     6
  0
LTYPE
  2
CONTINUOUS
 70
    64
  3
SOLID
 72
    65
 73
     0
 40
0.0
  0
LTYPE
  2
DASHED2
 70
    64
  3
_ _ _ _ _ _ _ _ _ _ _ _ _ _ _ _ _ _ _ _ _ _ 
 72
    65
 73
     2
 40
0.5
 49
0.25
 49
-0.25
  0
LTYPE
  2
DASHED
 70
    64
  3
__ __ __ __ __ __ __ __ __ __ __ __ __ __ __
 72
    65
 73
     2
 40
0.75
 49
0.5
 49
-0.25
  0
LTYPE
  2
DASHEDX2
 70
    64
  3
____  ____  ____  ____  ____  ____  ____  __
 72
    65
 73
     2
 40
1.5
 49
1.0
 49
-0.5
  0
LTYPE
  2
DOT
 70
    64
  3
............................................
 72
    65
 73
     2
 40
0.25
 49
0
 49
-0.25
  0
LTYPE
  2
DASHDOT
 70
    64
  3
__ . __ . __ . __ . __ . __ . __ . __ . __ .
 72
    65
 73
     4
 40
1.0
 49
0.5
 49
-0.25
 49
0.0
 49
-0.25
  0
LTYPE
  2
CENTER
 70
    64
  3
____ _ ____ _ ____ _ ____ _ ____ _ ____ _ __
 72
    65
 73
     4
 40
2.0
 49
1.25
 49
-0.25
 49
0.25
 49
-0.25
  0
LTYPE
  2
DIVIDE
 70
    64
  3
__ . . __ . . __ . . __ . . __ . . __ . . __
 72
    65
 73
     6
 40
1.25
 49
0.5
 49
-0.25
 49
0.0
 49
-0.25
 49
0.0
 49
-0.25
  0
LTYPE
  2
PHANTOM2
 70
    64
  3
___ _ _ ___ _ _ ___ _ _ ___ _ _ ___ _ _ ___ 
 72
    65
 73
     6
 40
1.25
 49
0.625
 49
-0.125
 49
0.125
 49
-0.125
 49
0.125
 49
-0.125
  0
LTYPE
  2
DOTX2
 70
    64
  3
. . . . . . . . . . . . . . . . . . . . . . 
 72
    65
 73
     2
 40
0.5
 49
0
 49
-0.5
  0
ENDTAB
  0
TABLE
  2
LAYER
 70
   255
  0
LAYER
  2
0
 70
    64
 62
     7
  6
CONTINUOUS
  0
LAYER
  2
1
 70
    64
 62
     7
  6
CONTINUOUS
  0
LAYER
  2
2
 70
    64
 62
     7
  6
CONTINUOUS
  0
LAYER
  2
3
 70
    64
 62
     7
  6
CONTINUOUS
  0
LAYER
  2
4
 70
    64
 62
     7
  6
CONTINUOUS
  0
LAYER
  2
5
 70
    64
 62
     7
  6
CONTINUOUS
  0
LAYER
  2
6
 70
    64
 62
     7
  6
CONTINUOUS
  0
LAYER
  2
7
 70
    64
 62
     7
  6
CONTINUOUS
  0
LAYER
  2
8
 70
    64
 62
     7
  6
CONTINUOUS
  0
LAYER
  2
9
 70
    64
 62
     7
  6
CONTINUOUS
  0
LAYER
  2
10
 70
    64
 62
     7
  6
CONTINUOUS
  0
LAYER
  2
11
 70
    64
 62
     7
  6
CONTINUOUS
  0
LAYER
  2
12
 70
    64
 62
     7
  6
CONTINUOUS
  0
LAYER
  2
13
 70
    64
 62
     7
  6
CONTINUOUS
  0
LAYER
  2
14
 70
    64
 62
     7
  6
CONTINUOUS
  0
LAYER
  2
15
 70
    64
 62
     7
  6
CONTINUOUS
  0
LAYER
  2
16
 70
    64
 62
     7
  6
CONTINUOUS
  0
LAYER
  2
17
 70
    64
 62
     7
  6
CONTINUOUS
  0
LAYER
  2
18
 70
    64
 62
     7
  6
CONTINUOUS
  0
LAYER
  2
19
 70
    64
 62
     7
  6
CONTINUOUS
  0
LAYER
  2
20
 70
    64
 62
     7
  6
CONTINUOUS
  0
LAYER
  2
21
 70
    64
 62
     7
  6
CONTINUOUS
  0
LAYER
  2
22
 70
    64
 62
     7
  6
CONTINUOUS
  0
LAYER
  2
23
 70
    64
 62
     7
  6
CONTINUOUS
  0
LAYER
  2
24
 70
    64
 62
     7
  6
CONTINUOUS
  0
LAYER
  2
25
 70
    64
 62
     7
  6
CONTINUOUS
  0
LAYER
  2
26
 70
    64
 62
     7
  6
CONTINUOUS
  0
LAYER
  2
27
 70
    64
 62
     7
  6
CONTINUOUS
  0
LAYER
  2
28
 70
    64
 62
     7
  6
CONTINUOUS
  0
LAYER
  2
29
 70
    64
 62
     7
  6
CONTINUOUS
  0
LAYER
  2
30
 70
    64
 62
     7
  6
CONTINUOUS
  0
LAYER
  2
31
 70
    64
 62
     7
  6
CONTINUOUS
  0
LAYER
  2
32
 70
    64
 62
     7
  6
CONTINUOUS
  0
LAYER
  2
33
 70
    64
 62
     7
  6
CONTINUOUS
  0
LAYER
  2
34
 70
    64
 62
     7
  6
CONTINUOUS
  0
LAYER
  2
35
 70
    64
 62
     7
  6
CONTINUOUS
  0
LAYER
  2
36
 70
    64
 62
     7
  6
CONTINUOUS
  0
LAYER
  2
37
 70
    64
 62
     7
  6
CONTINUOUS
  0
LAYER
  2
38
 70
    64
 62
     7
  6
CONTINUOUS
  0
LAYER
  2
39
 70
    64
 62
     7
  6
CONTINUOUS
  0
LAYER
  2
40
 70
    64
 62
     7
  6
CONTINUOUS
  0
LAYER
  2
41
 70
    64
 62
     7
  6
CONTINUOUS
  0
LAYER
  2
42
 70
    64
 62
     7
  6
CONTINUOUS
  0
LAYER
  2
43
 70
    64
 62
     7
  6
CONTINUOUS
  0
LAYER
  2
44
 70
    64
 62
     7
  6
CONTINUOUS
  0
LAYER
  2
45
 70
    64
 62
     7
  6
CONTINUOUS
  0
LAYER
  2
46
 70
    64
 62
     7
  6
CONTINUOUS
  0
LAYER
  2
47
 70
    64
 62
     7
  6
CONTINUOUS
  0
LAYER
  2
48
 70
    64
 62
     7
  6
CONTINUOUS
  0
LAYER
  2
49
 70
    64
 62
     7
  6
CONTINUOUS
  0
LAYER
  2
50
 70
    64
 62
     7
  6
CONTINUOUS
  0
LAYER
  2
51
 70
    64
 62
     7
  6
CONTINUOUS
  0
LAYER
  2
52
 70
    64
 62
     7
  6
CONTINUOUS
  0
LAYER
  2
53
 70
    64
 62
     7
  6
CONTINUOUS
  0
LAYER
  2
54
 70
    64
 62
     7
  6
CONTINUOUS
  0
LAYER
  2
55
 70
    64
 62
     7
  6
CONTINUOUS
  0
LAYER
  2
56
 70
    64
 62
     7
  6
CONTINUOUS
  0
LAYER
  2
57
 70
    64
 62
     7
  6
CONTINUOUS
  0
LAYER
  2
58
 70
    64
 62
     7
  6
CONTINUOUS
  0
LAYER
  2
59
 70
    64
 62
     7
  6
CONTINUOUS
  0
LAYER
  2
60
 70
    64
 62
     7
  6
CONTINUOUS
  0
LAYER
  2
61
 70
    64
 62
     7
  6
CONTINUOUS
  0
LAYER
  2
62
 70
    64
 62
     7
  6
CONTINUOUS
  0
LAYER
  2
63
 70
    64
 62
     7
  6
CONTINUOUS
  0
LAYER
  2
64
 70
    64
 62
     7
  6
CONTINUOUS
  0
LAYER
  2
65
 70
    64
 62
     7
  6
CONTINUOUS
  0
LAYER
  2
66
 70
    64
 62
     7
  6
CONTINUOUS
  0
LAYER
  2
67
 70
    64
 62
     7
  6
CONTINUOUS
  0
LAYER
  2
68
 70
    64
 62
     7
  6
CONTINUOUS
  0
LAYER
  2
69
 70
    64
 62
     7
  6
CONTINUOUS
  0
LAYER
  2
70
 70
    64
 62
     7
  6
CONTINUOUS
  0
LAYER
  2
71
 70
    64
 62
     7
  6
CONTINUOUS
  0
LAYER
  2
72
 70
    64
 62
     7
  6
CONTINUOUS
  0
LAYER
  2
73
 70
    64
 62
     7
  6
CONTINUOUS
  0
LAYER
  2
74
 70
    64
 62
     7
  6
CONTINUOUS
  0
LAYER
  2
75
 70
    64
 62
     7
  6
CONTINUOUS
  0
LAYER
  2
76
 70
    64
 62
     7
  6
CONTINUOUS
  0
LAYER
  2
77
 70
    64
 62
     7
  6
CONTINUOUS
  0
LAYER
  2
78
 70
    64
 62
     7
  6
CONTINUOUS
  0
LAYER
  2
79
 70
    64
 62
     7
  6
CONTINUOUS
  0
LAYER
  2
80
 70
    64
 62
     7
  6
CONTINUOUS
  0
LAYER
  2
81
 70
    64
 62
     7
  6
CONTINUOUS
  0
LAYER
  2
82
 70
    64
 62
     7
  6
CONTINUOUS
  0
LAYER
  2
83
 70
    64
 62
     7
  6
CONTINUOUS
  0
LAYER
  2
84
 70
    64
 62
     7
  6
CONTINUOUS
  0
LAYER
  2
85
 70
    64
 62
     7
  6
CONTINUOUS
  0
LAYER
  2
86
 70
    64
 62
     7
  6
CONTINUOUS
  0
LAYER
  2
87
 70
    64
 62
     7
  6
CONTINUOUS
  0
LAYER
  2
88
 70
    64
 62
     7
  6
CONTINUOUS
  0
LAYER
  2
89
 70
    64
 62
     7
  6
CONTINUOUS
  0
LAYER
  2
90
 70
    64
 62
     7
  6
CONTINUOUS
  0
LAYER
  2
91
 70
    64
 62
     7
  6
CONTINUOUS
  0
LAYER
  2
92
 70
    64
 62
     7
  6
CONTINUOUS
  0
LAYER
  2
93
 70
    64
 62
     7
  6
CONTINUOUS
  0
LAYER
  2
94
 70
    64
 62
     7
  6
CONTINUOUS
  0
LAYER
  2
95
 70
    64
 62
     7
  6
CONTINUOUS
  0
LAYER
  2
96
 70
    64
 62
     7
  6
CONTINUOUS
  0
LAYER
  2
97
 70
    64
 62
     7
  6
CONTINUOUS
  0
LAYER
  2
98
 70
    64
 62
     7
  6
CONTINUOUS
  0
LAYER
  2
99
 70
    64
 62
     7
  6
CONTINUOUS
  0
LAYER
  2
100
 70
    64
 62
     7
  6
CONTINUOUS
  0
LAYER
  2
101
 70
    64
 62
     7
  6
CONTINUOUS
  0
LAYER
  2
102
 70
    64
 62
     7
  6
CONTINUOUS
  0
LAYER
  2
103
 70
    64
 62
     7
  6
CONTINUOUS
  0
LAYER
  2
104
 70
    64
 62
     7
  6
CONTINUOUS
  0
LAYER
  2
105
 70
    64
 62
     7
  6
CONTINUOUS
  0
LAYER
  2
106
 70
    64
 62
     7
  6
CONTINUOUS
  0
LAYER
  2
107
 70
    64
 62
     7
  6
CONTINUOUS
  0
LAYER
  2
108
 70
    64
 62
     7
  6
CONTINUOUS
  0
LAYER
  2
109
 70
    64
 62
     7
  6
CONTINUOUS
  0
LAYER
  2
110
 70
    64
 62
     7
  6
CONTINUOUS
  0
LAYER
  2
111
 70
    64
 62
     7
  6
CONTINUOUS
  0
LAYER
  2
112
 70
    64
 62
     7
  6
CONTINUOUS
  0
LAYER
  2
113
 70
    64
 62
     7
  6
CONTINUOUS
  0
LAYER
  2
114
 70
    64
 62
     7
  6
CONTINUOUS
  0
LAYER
  2
115
 70
    64
 62
     7
  6
CONTINUOUS
  0
LAYER
  2
116
 70
    64
 62
     7
  6
CONTINUOUS
  0
LAYER
  2
117
 70
    64
 62
     7
  6
CONTINUOUS
  0
LAYER
  2
118
 70
    64
 62
     7
  6
CONTINUOUS
  0
LAYER
  2
119
 70
    64
 62
     7
  6
CONTINUOUS
  0
LAYER
  2
120
 70
    64
 62
     7
  6
CONTINUOUS
  0
LAYER
  2
121
 70
    64
 62
     7
  6
CONTINUOUS
  0
LAYER
  2
122
 70
    64
 62
     7
  6
CONTINUOUS
  0
LAYER
  2
123
 70
    64
 62
     7
  6
CONTINUOUS
  0
LAYER
  2
124
 70
    64
 62
     7
  6
CONTINUOUS
  0
LAYER
  2
125
 70
    64
 62
     7
  6
CONTINUOUS
  0
LAYER
  2
126
 70
    64
 62
     7
  6
CONTINUOUS
  0
LAYER
  2
127
 70
    64
 62
     7
  6
CONTINUOUS
  0
LAYER
  2
128
 70
    64
 62
     7
  6
CONTINUOUS
  0
LAYER
  2
129
 70
    64
 62
     7
  6
CONTINUOUS
  0
LAYER
  2
130
 70
    64
 62
     7
  6
CONTINUOUS
  0
LAYER
  2
131
 70
    64
 62
     7
  6
CONTINUOUS
  0
LAYER
  2
132
 70
    64
 62
     7
  6
CONTINUOUS
  0
LAYER
  2
133
 70
    64
 62
     7
  6
CONTINUOUS
  0
LAYER
  2
134
 70
    64
 62
     7
  6
CONTINUOUS
  0
LAYER
  2
135
 70
    64
 62
     7
  6
CONTINUOUS
  0
LAYER
  2
136
 70
    64
 62
     7
  6
CONTINUOUS
  0
LAYER
  2
137
 70
    64
 62
     7
  6
CONTINUOUS
  0
LAYER
  2
138
 70
    64
 62
     7
  6
CONTINUOUS
  0
LAYER
  2
139
 70
    64
 62
     7
  6
CONTINUOUS
  0
LAYER
  2
140
 70
    64
 62
     7
  6
CONTINUOUS
  0
LAYER
  2
141
 70
    64
 62
     7
  6
CONTINUOUS
  0
LAYER
  2
142
 70
    64
 62
     7
  6
CONTINUOUS
  0
LAYER
  2
143
 70
    64
 62
     7
  6
CONTINUOUS
  0
LAYER
  2
144
 70
    64
 62
     7
  6
CONTINUOUS
  0
LAYER
  2
145
 70
    64
 62
     7
  6
CONTINUOUS
  0
LAYER
  2
146
 70
    64
 62
     7
  6
CONTINUOUS
  0
LAYER
  2
147
 70
    64
 62
     7
  6
CONTINUOUS
  0
LAYER
  2
148
 70
    64
 62
     7
  6
CONTINUOUS
  0
LAYER
  2
149
 70
    64
 62
     7
  6
CONTINUOUS
  0
LAYER
  2
150
 70
    64
 62
     7
  6
CONTINUOUS
  0
LAYER
  2
151
 70
    64
 62
     7
  6
CONTINUOUS
  0
LAYER
  2
152
 70
    64
 62
     7
  6
CONTINUOUS
  0
LAYER
  2
153
 70
    64
 62
     7
  6
CONTINUOUS
  0
LAYER
  2
154
 70
    64
 62
     7
  6
CONTINUOUS
  0
LAYER
  2
155
 70
    64
 62
     7
  6
CONTINUOUS
  0
LAYER
  2
156
 70
    64
 62
     7
  6
CONTINUOUS
  0
LAYER
  2
157
 70
    64
 62
     7
  6
CONTINUOUS
  0
LAYER
  2
158
 70
    64
 62
     7
  6
CONTINUOUS
  0
LAYER
  2
159
 70
    64
 62
     7
  6
CONTINUOUS
  0
LAYER
  2
160
 70
    64
 62
     7
  6
CONTINUOUS
  0
LAYER
  2
161
 70
    64
 62
     7
  6
CONTINUOUS
  0
LAYER
  2
162
 70
    64
 62
     7
  6
CONTINUOUS
  0
LAYER
  2
163
 70
    64
 62
     7
  6
CONTINUOUS
  0
LAYER
  2
164
 70
    64
 62
     7
  6
CONTINUOUS
  0
LAYER
  2
165
 70
    64
 62
     7
  6
CONTINUOUS
  0
LAYER
  2
166
 70
    64
 62
     7
  6
CONTINUOUS
  0
LAYER
  2
167
 70
    64
 62
     7
  6
CONTINUOUS
  0
LAYER
  2
168
 70
    64
 62
     7
  6
CONTINUOUS
  0
LAYER
  2
169
 70
    64
 62
     7
  6
CONTINUOUS
  0
LAYER
  2
170
 70
    64
 62
     7
  6
CONTINUOUS
  0
LAYER
  2
171
 70
    64
 62
     7
  6
CONTINUOUS
  0
LAYER
  2
172
 70
    64
 62
     7
  6
CONTINUOUS
  0
LAYER
  2
173
 70
    64
 62
     7
  6
CONTINUOUS
  0
LAYER
  2
174
 70
    64
 62
     7
  6
CONTINUOUS
  0
LAYER
  2
175
 70
    64
 62
     7
  6
CONTINUOUS
  0
LAYER
  2
176
 70
    64
 62
     7
  6
CONTINUOUS
  0
LAYER
  2
177
 70
    64
 62
     7
  6
CONTINUOUS
  0
LAYER
  2
178
 70
    64
 62
     7
  6
CONTINUOUS
  0
LAYER
  2
179
 70
    64
 62
     7
  6
CONTINUOUS
  0
LAYER
  2
180
 70
    64
 62
     7
  6
CONTINUOUS
  0
LAYER
  2
181
 70
    64
 62
     7
  6
CONTINUOUS
  0
LAYER
  2
182
 70
    64
 62
     7
  6
CONTINUOUS
  0
LAYER
  2
183
 70
    64
 62
     7
  6
CONTINUOUS
  0
LAYER
  2
184
 70
    64
 62
     7
  6
CONTINUOUS
  0
LAYER
  2
185
 70
    64
 62
     7
  6
CONTINUOUS
  0
LAYER
  2
186
 70
    64
 62
     7
  6
CONTINUOUS
  0
LAYER
  2
187
 70
    64
 62
     7
  6
CONTINUOUS
  0
LAYER
  2
188
 70
    64
 62
     7
  6
CONTINUOUS
  0
LAYER
  2
189
 70
    64
 62
     7
  6
CONTINUOUS
  0
LAYER
  2
190
 70
    64
 62
     7
  6
CONTINUOUS
  0
LAYER
  2
191
 70
    64
 62
     7
  6
CONTINUOUS
  0
LAYER
  2
192
 70
    64
 62
     7
  6
CONTINUOUS
  0
LAYER
  2
193
 70
    64
 62
     7
  6
CONTINUOUS
  0
LAYER
  2
194
 70
    64
 62
     7
  6
CONTINUOUS
  0
LAYER
  2
195
 70
    64
 62
     7
  6
CONTINUOUS
  0
LAYER
  2
196
 70
    64
 62
     7
  6
CONTINUOUS
  0
LAYER
  2
197
 70
    64
 62
     7
  6
CONTINUOUS
  0
LAYER
  2
198
 70
    64
 62
     7
  6
CONTINUOUS
  0
LAYER
  2
199
 70
    64
 62
     7
  6
CONTINUOUS
  0
LAYER
  2
200
 70
    64
 62
     7
  6
CONTINUOUS
  0
LAYER
  2
201
 70
    64
 62
     7
  6
CONTINUOUS
  0
LAYER
  2
202
 70
    64
 62
     7
  6
CONTINUOUS
  0
LAYER
  2
203
 70
    64
 62
     7
  6
CONTINUOUS
  0
LAYER
  2
204
 70
    64
 62
     7
  6
CONTINUOUS
  0
LAYER
  2
205
 70
    64
 62
     7
  6
CONTINUOUS
  0
LAYER
  2
206
 70
    64
 62
     7
  6
CONTINUOUS
  0
LAYER
  2
207
 70
    64
 62
     7
  6
CONTINUOUS
  0
LAYER
  2
208
 70
    64
 62
     7
  6
CONTINUOUS
  0
LAYER
  2
209
 70
    64
 62
     7
  6
CONTINUOUS
  0
LAYER
  2
210
 70
    64
 62
     7
  6
CONTINUOUS
  0
LAYER
  2
211
 70
    64
 62
     7
  6
CONTINUOUS
  0
LAYER
  2
212
 70
    64
 62
     7
  6
CONTINUOUS
  0
LAYER
  2
213
 70
    64
 62
     7
  6
CONTINUOUS
  0
LAYER
  2
214
 70
    64
 62
     7
  6
CONTINUOUS
  0
LAYER
  2
215
 70
    64
 62
     7
  6
CONTINUOUS
  0
LAYER
  2
216
 70
    64
 62
     7
  6
CONTINUOUS
  0
LAYER
  2
217
 70
    64
 62
     7
  6
CONTINUOUS
  0
LAYER
  2
218
 70
    64
 62
     7
  6
CONTINUOUS
  0
LAYER
  2
219
 70
    64
 62
     7
  6
CONTINUOUS
  0
LAYER
  2
220
 70
    64
 62
     7
  6
CONTINUOUS
  0
LAYER
  2
221
 70
    64
 62
     7
  6
CONTINUOUS
  0
LAYER
  2
222
 70
    64
 62
     7
  6
CONTINUOUS
  0
LAYER
  2
223
 70
    64
 62
     7
  6
CONTINUOUS
  0
LAYER
  2
224
 70
    64
 62
     7
  6
CONTINUOUS
  0
LAYER
  2
225
 70
    64
 62
     7
  6
CONTINUOUS
  0
LAYER
  2
226
 70
    64
 62
     7
  6
CONTINUOUS
  0
LAYER
  2
227
 70
    64
 62
     7
  6
CONTINUOUS
  0
LAYER
  2
228
 70
    64
 62
     7
  6
CONTINUOUS
  0
LAYER
  2
229
 70
    64
 62
     7
  6
CONTINUOUS
  0
LAYER
  2
230
 70
    64
 62
     7
  6
CONTINUOUS
  0
LAYER
  2
231
 70
    64
 62
     7
  6
CONTINUOUS
  0
LAYER
  2
232
 70
    64
 62
     7
  6
CONTINUOUS
  0
LAYER
  2
233
 70
    64
 62
     7
  6
CONTINUOUS
  0
LAYER
  2
234
 70
    64
 62
     7
  6
CONTINUOUS
  0
LAYER
  2
235
 70
    64
 62
     7
  6
CONTINUOUS
  0
LAYER
  2
236
 70
    64
 62
     7
  6
CONTINUOUS
  0
LAYER
  2
237
 70
    64
 62
     7
  6
CONTINUOUS
  0
LAYER
  2
238
 70
    64
 62
     7
  6
CONTINUOUS
  0
LAYER
  2
239
 70
    64
 62
     7
  6
CONTINUOUS
  0
LAYER
  2
240
 70
    64
 62
     7
  6
CONTINUOUS
  0
LAYER
  2
241
 70
    64
 62
     7
  6
CONTINUOUS
  0
LAYER
  2
242
 70
    64
 62
     7
  6
CONTINUOUS
  0
LAYER
  2
243
 70
    64
 62
     7
  6
CONTINUOUS
  0
LAYER
  2
244
 70
    64
 62
     7
  6
CONTINUOUS
  0
LAYER
  2
245
 70
    64
 62
     7
  6
CONTINUOUS
  0
LAYER
  2
246
 70
    64
 62
     7
  6
CONTINUOUS
  0
LAYER
  2
247
 70
    64
 62
     7
  6
CONTINUOUS
  0
LAYER
  2
248
 70
    64
 62
     7
  6
CONTINUOUS
  0
LAYER
  2
249
 70
    64
 62
     7
  6
CONTINUOUS
  0
LAYER
  2
250
 70
    64
 62
     7
  6
CONTINUOUS
  0
LAYER
  2
251
 70
    64
 62
     7
  6
CONTINUOUS
  0
LAYER
  2
252
 70
    64
 62
     7
  6
CONTINUOUS
  0
LAYER
  2
253
 70
    64
 62
     7
  6
CONTINUOUS
  0
LAYER
  2
254
 70
    64
 62
     7
  6
CONTINUOUS
  0
LAYER
  2
255
 70
    64
 62
     7
  6
CONTINUOUS
  0
ENDTAB
  0
TABLE
  2
STYLE
 70
     2
  0
STYLE
  2
STANDARD
 70
    64
 40
0.0
 41
1.0
 50
0.0
 71
     0
 42
3.000000
  3
TXT
  4
BIGFONT
  0
ENDTAB
  0
ENDSEC
  0
SECTION
  2
ENTITIES
  0
TEXT
  8
256
  6
CONTINUOUS
 62
     7
 10
 106.86997319034845
 20
-127.7365951742627
 11
 142.86997319034845
 21
-127.7365951742627
 40
 6
 41
 1
  1
ＥＳ－６ＸＪ
 50
 0
 72
  5
  0
TEXT
  8
256
  6
CONTINUOUS
 62
     7
 10
 100.6699609833172
 20
-105.93655855316891
 11
 105.6699609833172
 21
-105.93655855316891
 40
 2.5
 41
 0.8
  1
品名
 50
 0
 72
  5
  0
TEXT
  8
256
  6
CONTINUOUS
 62
     7
 10
 100.6699609833172
 20
-117.93662569184082
 11
 105.6699609833172
 21
-117.93662569184082
 40
 2.5
 41
 0.8
  1
品番
 50
 0
 72
  5
  0
LINE
  8
256
  6
CONTINUOUS
 62
     7
 10
 99.369957931559384
 20
-132.9865951742627
 11
 99.369957931559384
 21
-102.9865951742627
  0
LINE
  8
256
  6
CONTINUOUS
 62
     7
 10
 165.36995793155938
 20
-102.9865951742627
 11
 165.36995793155938
 21
-114.9865951742627
  0
LINE
  8
256
  6
CONTINUOUS
 62
     7
 10
-198.93002680965157
 20
 131.51340128199078
 11
-98.930026809651565
 21
 131.51340128199078
  0
LINE
  8
256
  6
CONTINUOUS
 62
     7
 10
-98.930026809651565
 20
 131.51340128199081
 11
-98.930026809651565
 21
 143.51340203710538
  0
TEXT
  8
256
  6
CONTINUOUS
 62
     7
 10
-193.93002680965157
 20
 134.51340087391341
 11
-157.93002680965157
 21
 134.51340087391341
 40
 6
 41
 1
  1
ＥＳ－６ＸＪ
 50
 0
 72
  5
  0
LINE
  8
256
  6
CONTINUOUS
 62
     7
 10
 99.369957931559384
 20
-114.9865951742627
 11
 194.36997319034845
 21
-114.9865951742627
  0
TEXT
  8
256
  6
CONTINUOUS
 62
     7
 10
 108.36995793155938
 20
-113.2365951742627
 11
 156.36995793155938
 21
-113.2365951742627
 40
 5
 41
 0.8
  1
ポスト碍子（高圧がいし）
 50
 0
 72
  5
  0
LINE
  8
256
  6
CONTINUOUS
 62
     7
 10
 99.369957931559384
 20
-102.9865951742627
 11
 194.36997319034845
 21
-102.9865951742627
  0
LINE
  8
256
  6
CONTINUOUS
 62
     7
 10
 194.36997319034845
 20
-132.9865951742627
 11
-198.93002680965157
 21
-132.98659517426265
  0
LINE
  8
256
  6
CONTINUOUS
 62
     7
 10
 194.36997319034845
 20
 143.51340203710538
 11
 194.36997319034845
 21
-132.9865951742627
  0
LINE
  8
256
  6
CONTINUOUS
 62
     7
 10
-198.93002680965157
 20
 143.51340203710538
 11
-198.93002680965157
 21
-132.98659517426265
  0
LINE
  8
256
  6
CONTINUOUS
 62
     7
 10
-198.93002680965157
 20
 143.51340203710538
 11
 194.36997319034845
 21
 143.51340203710538
  0
CIRCLE
  8
0
  6
CONTINUOUS
 62
     2
 10
-120
 20
 0
 40
 27.5
  0
CIRCLE
  8
0
  6
CONTINUOUS
 62
     2
 10
-120
 20
 15
 40
 4
  0
CIRCLE
  8
0
  6
CONTINUOUS
 62
     2
 10
-120
 20
-15
 40
 4
  0
CIRCLE
  8
0
  6
CONTINUOUS
 62
     2
 10
-120
 20
-15
 40
 3.5
  0
CIRCLE
  8
0
  6
CONTINUOUS
 62
     2
 10
-120
 20
 15
 40
 3.5
  0
LINE
  8
0
  6
CONTINUOUS
 62
     2
 10
-45
 20
 0
 11
-45
 21
 24.5
  0
LINE
  8
0
  6
CONTINUOUS
 62
     2
 10
-24.999999999999996
 20
 26
 11
-24.999999999999996
 21
 0
  0
LINE
  8
0
  6
CONTINUOUS
 62
     2
 10
-1.4189189189189189
 20
 26.486486486486488
 11
-2.7162162162162162
 21
 22.702702702702702
  0
LINE
  8
0
  6
CONTINUOUS
 62
     2
 10
-13.581081081081079
 20
 26.486486486486488
 11
-12.283783783783784
 21
 22.702702702702702
  0
LINE
  8
0
  6
CONTINUOUS
 62
     2
 10
-42
 20
 27.5
 11
-26.499999999999996
 21
 27.5
  0
LINE
  8
0
  6
CONTINUOUS
 62
     2
 10
-13.5
 20
 26.250000000000004
 11
-13.5
 21
 0
  0
ARC
  8
0
  6
CONTINUOUS
 62
     2
 10
-8.4999999999999982
 20
 24
 40
 4
 50
-161.07535833159818
 51
-90.000001535234532
  0
ARC
  8
0
  6
CONTINUOUS
 62
     2
 10
-6.5
 20
 24
 40
 4
 50
-90.000001535234517
 51
-18.924644738870832
  0
LINE
  8
0
  6
CONTINUOUS
 62
     2
 10
-1.5
 20
 26.25
 11
-1.5
 21
 0
  0
ARC
  8
0
  6
CONTINUOUS
 62
     2
 10
-26.499999999999996
 20
 26
 40
 1.5
 50
 0
 51
 90.000001535234517
  0
LINE
  8
0
  6
CONTINUOUS
 62
     2
 10
-17.673125050837811
 20
 23.686041819180097
 11
-16.370156211871642
 21
 26.610468635614929
  0
LINE
  8
0
  6
CONTINUOUS
 62
     2
 10
-25.129843788128355
 20
 26.610468635614929
 11
-23.826874949162185
 21
 23.686041819180097
  0
LINE
  8
0
  6
CONTINUOUS
 62
     2
 10
-16.5
 20
 26.31904289725933
 11
-16.5
 21
 0
  0
ARC
  8
0
  6
CONTINUOUS
 62
     2
 10
-19.5
 20
 24.5
 40
 2
 50
-90.000001535234517
 51
-24.015207129624589
  0
ARC
  8
0
  6
CONTINUOUS
 62
     2
 10
-21.999999999999996
 20
 24.5
 40
 2
 50
-155.98479594084444
 51
-90.000001535234517
  0
ARC
  8
0
  6
CONTINUOUS
 62
     2
 10
-15
 20
 26
 40
 1.5
 50
 0
 51
 155.98479594084438
  0
LINE
  8
0
  6
CONTINUOUS
 62
     2
 10
-21.999999999999996
 20
 22.5
 11
-19.5
 21
 22.5
  0
LINE
  8
0
  6
CONTINUOUS
 62
     2
 10
-8.4999999999999982
 20
 20
 11
-6.5
 21
 20
  0
ARC
  8
0
  6
CONTINUOUS
 62
     2
 10
 0
 20
 26
 40
 1.5
 50
 90.000001535234546
 51
 180.00000307046903
  0
LINE
  8
0
  6
CONTINUOUS
 62
     2
 10
-45
 20
 0
 11
-45
 21
-24.5
  0
LINE
  8
0
  6
CONTINUOUS
 62
     2
 10
-24.999999999999996
 20
-26
 11
-24.999999999999996
 21
 0
  0
LINE
  8
0
  6
CONTINUOUS
 62
     2
 10
-1.4189189189189189
 20
-26.486486486486488
 11
-2.7162162162162162
 21
-22.702702702702702
  0
LINE
  8
0
  6
CONTINUOUS
 62
     2
 10
-13.581081081081079
 20
-26.486486486486488
 11
-12.283783783783784
 21
-22.702702702702702
  0
LINE
  8
0
  6
CONTINUOUS
 62
     2
 10
-42
 20
-27.5
 11
-26.499999999999996
 21
-27.5
  0
LINE
  8
0
  6
CONTINUOUS
 62
     2
 10
-13.5
 20
-26.250000000000004
 11
-13.5
 21
 0
  0
ARC
  8
0
  6
CONTINUOUS
 62
     2
 10
-8.4999999999999982
 20
-24
 40
 4
 50
 90.000001535234532
 51
 161.07535833159818
  0
ARC
  8
0
  6
CONTINUOUS
 62
     2
 10
-6.5
 20
-24
 40
 4
 50
 18.924644738870832
 51
 90.000001535234517
  0
LINE
  8
0
  6
CONTINUOUS
 62
     2
 10
-1.5
 20
-26.25
 11
-1.5
 21
 0
  0
ARC
  8
0
  6
CONTINUOUS
 62
     2
 10
-26.499999999999996
 20
-26
 40
 1.5
 50
-90.000001535234517
 51
 0
  0
LINE
  8
0
  6
CONTINUOUS
 62
     2
 10
-17.673125050837811
 20
-23.686041819180097
 11
-16.370156211871642
 21
-26.610468635614929
  0
LINE
  8
0
  6
CONTINUOUS
 62
     2
 10
-25.129843788128355
 20
-26.610468635614929
 11
-23.826874949162185
 21
-23.686041819180097
  0
LINE
  8
0
  6
CONTINUOUS
 62
     2
 10
-16.5
 20
-26.31904289725933
 11
-16.5
 21
 0
  0
ARC
  8
0
  6
CONTINUOUS
 62
     2
 10
-19.5
 20
-24.5
 40
 2
 50
 24.015207129624589
 51
 90.000001535234517
  0
ARC
  8
0
  6
CONTINUOUS
 62
     2
 10
-21.999999999999996
 20
-24.5
 40
 2
 50
 90.000001535234517
 51
 155.98479594084444
  0
ARC
  8
0
  6
CONTINUOUS
 62
     2
 10
-15
 20
-26
 40
 1.5
 50
-155.98479594084438
 51
 0
  0
LINE
  8
0
  6
CONTINUOUS
 62
     2
 10
-21.999999999999996
 20
-22.5
 11
-19.5
 21
-22.5
  0
LINE
  8
0
  6
CONTINUOUS
 62
     2
 10
-8.4999999999999982
 20
-20
 11
-6.5
 21
-20
  0
ARC
  8
0
  6
CONTINUOUS
 62
     2
 10
 0
 20
-26
 40
 1.5
 50
-180.00000307046903
 51
-90.000001535234546
  0
LINE
  8
0
  6
CONTINUOUS
 62
     2
 10
 45
 20
 0
 11
 45
 21
 24.499999999999993
  0
LINE
  8
0
  6
CONTINUOUS
 62
     2
 10
 25
 20
 25.999999999999996
 11
 24.999999999999996
 21
 0
  0
LINE
  8
0
  6
CONTINUOUS
 62
     2
 10
 1.4189189189189217
 20
 26.486486486486488
 11
 2.7162162162162189
 21
 22.702702702702702
  0
LINE
  8
0
  6
CONTINUOUS
 62
     2
 10
 13.581081081081082
 20
 26.486486486486488
 11
 12.283783783783786
 21
 22.702702702702702
  0
LINE
  8
0
  6
CONTINUOUS
 62
     2
 10
 42
 20
 27.499999999999993
 11
 26.5
 21
 27.499999999999996
  0
LINE
  8
0
  6
CONTINUOUS
 62
     2
 10
 13.500000000000004
 20
 26.250000000000004
 11
 13.5
 21
 0
  0
ARC
  8
0
  6
CONTINUOUS
 62
     2
 10
 8.5
 20
 24
 40
 4
 50
-90.000001535234489
 51
-18.924644738870839
  0
ARC
  8
0
  6
CONTINUOUS
 62
     2
 10
 6.5000000000000027
 20
 24
 40
 4
 50
-161.07535833159818
 51
-90.000001535234532
  0
LINE
  8
0
  6
CONTINUOUS
 62
     2
 10
 1.5000000000000029
 20
 26.25
 11
 1.4999999999999998
 21
 0
  0
ARC
  8
0
  6
CONTINUOUS
 62
     2
 10
 26.5
 20
 25.999999999999996
 40
 1.5
 50
 90.000001535234517
 51
 180.00000307046903
  0
LINE
  8
0
  6
CONTINUOUS
 62
     2
 10
 17.673125050837815
 20
 23.686041819180094
 11
 16.370156211871645
 21
 26.610468635614925
  0
LINE
  8
0
  6
CONTINUOUS
 62
     2
 10
 25.129843788128358
 20
 26.610468635614925
 11
 23.826874949162189
 21
 23.686041819180094
  0
LINE
  8
0
  6
CONTINUOUS
 62
     2
 10
 16.500000000000004
 20
 26.319042897259326
 11
 16.5
 21
 0
  0
ARC
  8
0
  6
CONTINUOUS
 62
     2
 10
 19.500000000000004
 20
 24.499999999999996
 40
 2
 50
-155.98479594084446
 51
-90.000001535234532
  0
ARC
  8
0
  6
CONTINUOUS
 62
     2
 10
 22
 20
 24.499999999999996
 40
 2
 50
-90.000001535234532
 51
-24.015207129624592
  0
ARC
  8
0
  6
CONTINUOUS
 62
     2
 10
 15.000000000000004
 20
 25.999999999999996
 40
 1.5
 50
 24.015207129624642
 51
 180.00000307046903
  0
LINE
  8
0
  6
CONTINUOUS
 62
     2
 10
 22
 20
 22.499999999999996
 11
 19.500000000000004
 21
 22.499999999999996
  0
LINE
  8
0
  6
CONTINUOUS
 62
     2
 10
 8.5
 20
 20
 11
 6.5000000000000018
 21
 20
  0
ARC
  8
0
  6
CONTINUOUS
 62
     2
 10
 0
 20
 26
 40
 1.5
 50
 0
 51
 90.000001535234475
  0
LINE
  8
0
  6
CONTINUOUS
 62
     2
 10
 45
 20
 0
 11
 45
 21
-24.500000000000007
  0
LINE
  8
0
  6
CONTINUOUS
 62
     2
 10
 24.999999999999993
 20
-26.000000000000004
 11
 24.999999999999996
 21
 0
  0
LINE
  8
0
  6
CONTINUOUS
 62
     2
 10
 1.4189189189189153
 20
-26.486486486486488
 11
 2.7162162162162131
 21
-22.702702702702702
  0
LINE
  8
0
  6
CONTINUOUS
 62
     2
 10
 13.581081081081075
 20
-26.486486486486488
 11
 12.283783783783781
 21
-22.702702702702702
  0
LINE
  8
0
  6
CONTINUOUS
 62
     2
 10
 42
 20
-27.500000000000007
 11
 26.499999999999993
 21
-27.500000000000004
  0
LINE
  8
0
  6
CONTINUOUS
 62
     2
 10
 13.499999999999996
 20
-26.250000000000004
 11
 13.5
 21
 0
  0
ARC
  8
0
  6
CONTINUOUS
 62
     2
 10
 8.4999999999999947
 20
-24
 40
 4
 50
 18.924644738870828
 51
 90.000001535234475
  0
ARC
  8
0
  6
CONTINUOUS
 62
     2
 10
 6.4999999999999964
 20
-24
 40
 4
 50
 90.000001535234517
 51
 161.07535833159818
  0
LINE
  8
0
  6
CONTINUOUS
 62
     2
 10
 1.4999999999999964
 20
-26.25
 11
 1.4999999999999998
 21
 0
  0
ARC
  8
0
  6
CONTINUOUS
 62
     2
 10
 26.499999999999993
 20
-26.000000000000004
 40
 1.5
 50
 180.00000307046903
 51
-90.000001535234532
  0
LINE
  8
0
  6
CONTINUOUS
 62
     2
 10
 17.673125050837807
 20
-23.686041819180101
 11
 16.370156211871638
 21
-26.610468635614932
  0
LINE
  8
0
  6
CONTINUOUS
 62
     2
 10
 25.129843788128351
 20
-26.610468635614932
 11
 23.826874949162182
 21
-23.686041819180101
  0
LINE
  8
0
  6
CONTINUOUS
 62
     2
 10
 16.499999999999996
 20
-26.319042897259333
 11
 16.5
 21
 0
  0
ARC
  8
0
  6
CONTINUOUS
 62
     2
 10
 19.499999999999996
 20
-24.500000000000004
 40
 2
 50
 90.000001535234517
 51
 155.98479594084444
  0
ARC
  8
0
  6
CONTINUOUS
 62
     2
 10
 21.999999999999993
 20
-24.500000000000004
 40
 2
 50
 24.015207129624578
 51
 90.000001535234517
  0
ARC
  8
0
  6
CONTINUOUS
 62
     2
 10
 14.999999999999996
 20
-26.000000000000004
 40
 1.5
 50
 180.00000307046903
 51
-24.015207129624653
  0
LINE
  8
0
  6
CONTINUOUS
 62
     2
 10
 21.999999999999993
 20
-22.500000000000004
 11
 19.499999999999996
 21
-22.500000000000004
  0
LINE
  8
0
  6
CONTINUOUS
 62
     2
 10
 8.4999999999999947
 20
-20
 11
 6.4999999999999973
 21
-20
  0
ARC
  8
0
  6
CONTINUOUS
 62
     2
 10
 0
 20
-26
 40
 1.5
 50
-90.000001535234475
 51
 0
  0
ARC
  8
0
  6
CONTINUOUS
 62
     2
 10
-42
 20
 24.5
 40
 3
 50
 90.000001535234517
 51
 180.00000307046903
  0
ARC
  8
0
  6
CONTINUOUS
 62
     2
 10
-42
 20
-24.5
 40
 3
 50
 180.00000307046903
 51
-90.000001535234517
  0
ARC
  8
0
  6
CONTINUOUS
 62
     2
 10
 42
 20
-24.500000000000007
 40
 3
 50
-90.000001535234517
 51
 0
  0
ARC
  8
0
  6
CONTINUOUS
 62
     2
 10
 42
 20
 24.499999999999993
 40
 3
 50
 0
 51
 90.000001535234517
  0
CIRCLE
  8
0
  6
CONTINUOUS
 62
     2
 10
 120
 20
 0
 40
 27.5
  0
CIRCLE
  8
0
  6
CONTINUOUS
 62
     2
 10
 120
 20
 0
 40
 6
  0
CIRCLE
  8
0
  6
CONTINUOUS
 62
     2
 10
 120
 20
 0
 40
 5.5
  0
LINE
  8
0
  6
DASHDOT
 62
     2
 10
-120
 20
 32.5
 11
-120
 21
-32.5
  0
LINE
  8
0
  6
DASHDOT
 62
     2
 10
-152.5
 20
 0
 11
 152.5
 21
 0
  0
LINE
  8
0
  6
DASHDOT
 62
     2
 10
 120
 20
 32.499999999999986
 11
 120
 21
-32.500000000000014
  0
LINE
  8
0
  6
CONTINUOUS
 62
     7
 10
-147.5
 20
 1
 11
-147.5
 21
 53.5
  0
LINE
  8
0
  6
CONTINUOUS
 62
     7
 10
-92.5
 20
 1
 11
-92.5
 21
 53.5
  0
LINE
  8
0
  6
CONTINUOUS
 62
     7
 10
-147.5
 20
 52.5
 11
-92.5
 21
 52.5
  0
LINE
  8
0
  6
CONTINUOUS
 62
     7
 10
-147.5
 20
 52.5
 11
-144.6022225211328
 21
 51.72354286469244
  0
LINE
  8
0
  6
CONTINUOUS
 62
     7
 10
-147.5
 20
 52.5
 11
-144.6022225211328
 21
 53.27645713530756
  0
LINE
  8
0
  6
CONTINUOUS
 62
     7
 10
-92.5
 20
 52.5
 11
-95.397777478867198
 21
 53.27645713530756
  0
LINE
  8
0
  6
CONTINUOUS
 62
     7
 10
-92.5
 20
 52.5
 11
-95.397777478867198
 21
 51.72354286469244
  0
TEXT
  8
0
  6
CONTINUOUS
 62
     7
 10
-122
 20
 53.299999999999997
 11
-118
 21
 53.299999999999997
 40
 2.5
 41
 0.8
  1
55
 50
 0
 72
  5
  0
LINE
  8
0
  6
CONTINUOUS
 62
     7
 10
 45
 20
 25.499999999999993
 11
 45
 21
 53.5
  0
LINE
  8
0
  6
CONTINUOUS
 62
     7
 10
-45
 20
 25.5
 11
-45
 21
 53.5
  0
LINE
  8
0
  6
CONTINUOUS
 62
     7
 10
-45
 20
 52.5
 11
 45
 21
 52.5
  0
LINE
  8
0
  6
CONTINUOUS
 62
     7
 10
-45
 20
 52.5
 11
-42.102222521132795
 21
 51.72354286469244
  0
LINE
  8
0
  6
CONTINUOUS
 62
     7
 10
-45
 20
 52.5
 11
-42.102222521132795
 21
 53.27645713530756
  0
LINE
  8
0
  6
CONTINUOUS
 62
     7
 10
 45
 20
 52.5
 11
 42.102222521132795
 21
 53.27645713530756
  0
LINE
  8
0
  6
CONTINUOUS
 62
     7
 10
 45
 20
 52.5
 11
 42.102222521132795
 21
 51.72354286469244
  0
TEXT
  8
0
  6
CONTINUOUS
 62
     7
 10
-2
 20
 53.299999999999997
 11
 2
 21
 53.299999999999997
 40
 2.5
 41
 0.8
  1
90
 50
 0
 72
  5
  0
LINE
  8
0
  6
DASHDOT
 62
     2
 10
-129
 20
 15
 11
-111
 21
 15
  0
LINE
  8
0
  6
DASHDOT
 62
     2
 10
-129
 20
-15
 11
-111
 21
-15
  0
LINE
  8
0
  6
CONTINUOUS
 62
     7
 10
 92.5
 20
 1
 11
 92.5
 21
 53.5
  0
LINE
  8
0
  6
CONTINUOUS
 62
     7
 10
 147.5
 20
 1
 11
 147.5
 21
 53.5
  0
LINE
  8
0
  6
CONTINUOUS
 62
     7
 10
 92.5
 20
 52.5
 11
 147.5
 21
 52.5
  0
LINE
  8
0
  6
CONTINUOUS
 62
     7
 10
 92.5
 20
 52.5
 11
 95.397777478867198
 21
 51.72354286469244
  0
LINE
  8
0
  6
CONTINUOUS
 62
     7
 10
 92.5
 20
 52.5
 11
 95.397777478867198
 21
 53.27645713530756
  0
LINE
  8
0
  6
CONTINUOUS
 62
     7
 10
 147.5
 20
 52.5
 11
 144.6022225211328
 21
 53.27645713530756
  0
LINE
  8
0
  6
CONTINUOUS
 62
     7
 10
 147.5
 20
 52.5
 11
 144.6022225211328
 21
 51.72354286469244
  0
TEXT
  8
0
  6
CONTINUOUS
 62
     7
 10
 118
 20
 53.299999999999997
 11
 122
 21
 53.299999999999997
 40
 2.5
 41
 0.8
  1
55
 50
 0
 72
  5
  0
LINE
  8
0
  6
CONTINUOUS
 62
     7
 10
-130
 20
 15
 11
-163.5
 21
 15
  0
LINE
  8
0
  6
CONTINUOUS
 62
     7
 10
-130
 20
-15
 11
-163.5
 21
-15
  0
LINE
  8
0
  6
CONTINUOUS
 62
     7
 10
-162.5
 20
 15
 11
-162.5
 21
-15
  0
LINE
  8
0
  6
CONTINUOUS
 62
     7
 10
-162.5
 20
 15
 11
-163.27645713530757
 21
 12.102222521132795
  0
LINE
  8
0
  6
CONTINUOUS
 62
     7
 10
-162.5
 20
 15
 11
-161.72354286469243
 21
 12.102222521132795
  0
LINE
  8
0
  6
CONTINUOUS
 62
     7
 10
-162.5
 20
-15
 11
-161.72354286469243
 21
-12.102222521132795
  0
LINE
  8
0
  6
CONTINUOUS
 62
     7
 10
-162.5
 20
-15
 11
-163.27645713530757
 21
-12.102222521132795
  0
TEXT
  8
0
  6
CONTINUOUS
 62
     7
 10
-163.30000000000001
 20
-2
 11
-163.30000000000001
 21
 2
 40
 2.5
 41
 0.8
  1
30
 50
 90.000001535234517
 72
  5
  0
LINE
  8
0
  6
DASHDOT
 62
     2
 10
-50
 20
 15
 11
-40
 21
 15
  0
LINE
  8
0
  6
DASHDOT
 62
     2
 10
-50
 20
-15
 11
-40
 21
-15
  0
TEXT
  8
0
  6
CONTINUOUS
 62
     7
 10
-107.84582558788505
 20
-44.064711139860727
 11
-86.045825587885048
 21
-44.064711139860727
 40
 2.5
 41
 0.8
  1
（有効深さ１３ｍｍ）
 50
 0
 72
  5
  0
LINE
  8
0
  6
CONTINUOUS
 62
     7
 10
-120
 20
-15
 11
-107.84582558788505
 21
-41.064711139860727
  0
LINE
  8
0
  6
CONTINUOUS
 62
     7
 10
-120
 20
-15
 11
-119.47905546699921
 21
-17.954423259036624
  0
LINE
  8
0
  6
CONTINUOUS
 62
     7
 10
-120
 20
-15
 11
-118.07163717094038
 21
-17.298133329356936
  0
LINE
  8
0
  6
CONTINUOUS
 62
     7
 10
-107.84582558788505
 20
-41.064711139860727
 11
-86.045825587885048
 21
-41.064711139860727
  0
TEXT
  8
0
  6
CONTINUOUS
 62
     7
 10
-107.84582558788505
 20
-40.564711139860727
 11
-99.245825587885051
 21
-40.564711139860727
 40
 2.5
 41
 0.8
  1
２－Ｍ８
 50
 0
 72
  5
  0
TEXT
  8
0
  6
CONTINUOUS
 62
     7
 10
 139.14878928443994
 20
-44.064711139860727
 11
 160.94878928443995
 21
-44.064711139860727
 40
 2.5
 41
 0.8
  1
（有効深さ１８ｍｍ）
 50
 0
 72
  5
  0
LINE
  8
0
  6
CONTINUOUS
 62
     7
 10
 139.14878928443994
 20
-41.064711139860727
 11
 160.74070317610264
 21
-41.064711139860727
  0
TEXT
  8
0
  6
CONTINUOUS
 62
     7
 10
 139.14878928443994
 20
-40.564711139860727
 11
 145.54878928443995
 21
-40.564711139860727
 40
 2.5
 41
 0.8
  1
Ｍ１２
 50
 0
 72
  5
  0
LINE
  8
0
  6
CONTINUOUS
 62
     7
 10
 120
 20
 0
 11
 139.14878928443994
 21
-41.064711139860727
  0
LINE
  8
0
  6
CONTINUOUS
 62
     7
 10
 120
 20
 0
 11
 120.52094453300079
 21
-2.9544232590366239
  0
LINE
  8
0
  6
CONTINUOUS
 62
     7
 10
 120
 20
 0
 11
 121.92836282905962
 21
-2.2981333293569342
  0
POINT
  8
0
  6
CONTINUOUS
 62
     5
 10
-2100
 20
-1485
  0
ENDSEC
  0
EOF
