  0
SECTION
  2
HEADER
  9
$INSBASE
 10
0.0
20
0.0
  9
$REGENMODE
 70
     1
  9
$DRAGMODE
 70
     1
  9
$DIMTAD
 70
     1
  9
$EXTMIN
 10
-105.000000
 20
-148.500000
 30
 0.0
  9
$EXTMAX
 10
105.000000
 20
148.500000
 30
 0.0
  9
$LUPREC
 70
    3
  9
$AUPREC
 70
    3
  9
$LTSCALE
 40
13.125000
  0
ENDSEC
  0
SECTION
  2
TABLES
  0
TABLE
  2
LTYPE
 70
     6
  0
LTYPE
  2
CONTINUOUS
 70
    64
  3
SOLID
 72
    65
 73
     0
 40
0.0
  0
LTYPE
  2
DASHED2
 70
    64
  3
_ _ _ _ _ _ _ _ _ _ _ _ _ _ _ _ _ _ _ _ _ _ 
 72
    65
 73
     2
 40
0.5
 49
0.25
 49
-0.25
  0
LTYPE
  2
DASHED
 70
    64
  3
__ __ __ __ __ __ __ __ __ __ __ __ __ __ __
 72
    65
 73
     2
 40
0.75
 49
0.5
 49
-0.25
  0
LTYPE
  2
DASHEDX2
 70
    64
  3
____  ____  ____  ____  ____  ____  ____  __
 72
    65
 73
     2
 40
1.5
 49
1.0
 49
-0.5
  0
LTYPE
  2
DOT
 70
    64
  3
............................................
 72
    65
 73
     2
 40
0.25
 49
0
 49
-0.25
  0
LTYPE
  2
DASHDOT
 70
    64
  3
__ . __ . __ . __ . __ . __ . __ . __ . __ .
 72
    65
 73
     4
 40
1.0
 49
0.5
 49
-0.25
 49
0.0
 49
-0.25
  0
LTYPE
  2
CENTER
 70
    64
  3
____ _ ____ _ ____ _ ____ _ ____ _ ____ _ __
 72
    65
 73
     4
 40
2.0
 49
1.25
 49
-0.25
 49
0.25
 49
-0.25
  0
LTYPE
  2
DIVIDE
 70
    64
  3
__ . . __ . . __ . . __ . . __ . . __ . . __
 72
    65
 73
     6
 40
1.25
 49
0.5
 49
-0.25
 49
0.0
 49
-0.25
 49
0.0
 49
-0.25
  0
LTYPE
  2
PHANTOM2
 70
    64
  3
___ _ _ ___ _ _ ___ _ _ ___ _ _ ___ _ _ ___ 
 72
    65
 73
     6
 40
1.25
 49
0.625
 49
-0.125
 49
0.125
 49
-0.125
 49
0.125
 49
-0.125
  0
LTYPE
  2
DOTX2
 70
    64
  3
. . . . . . . . . . . . . . . . . . . . . . 
 72
    65
 73
     2
 40
0.5
 49
0
 49
-0.5
  0
ENDTAB
  0
TABLE
  2
LAYER
 70
   255
  0
LAYER
  2
0
 70
    64
 62
     7
  6
CONTINUOUS
  0
LAYER
  2
1
 70
    64
 62
     7
  6
CONTINUOUS
  0
LAYER
  2
2
 70
    64
 62
     7
  6
CONTINUOUS
  0
LAYER
  2
3
 70
    64
 62
     7
  6
CONTINUOUS
  0
LAYER
  2
4
 70
    64
 62
     7
  6
CONTINUOUS
  0
LAYER
  2
5
 70
    64
 62
     7
  6
CONTINUOUS
  0
LAYER
  2
6
 70
    64
 62
     7
  6
CONTINUOUS
  0
LAYER
  2
7
 70
    64
 62
     7
  6
CONTINUOUS
  0
LAYER
  2
8
 70
    64
 62
     7
  6
CONTINUOUS
  0
LAYER
  2
9
 70
    64
 62
     7
  6
CONTINUOUS
  0
LAYER
  2
10
 70
    64
 62
     7
  6
CONTINUOUS
  0
LAYER
  2
11
 70
    64
 62
     7
  6
CONTINUOUS
  0
LAYER
  2
12
 70
    64
 62
     7
  6
CONTINUOUS
  0
LAYER
  2
13
 70
    64
 62
     7
  6
CONTINUOUS
  0
LAYER
  2
14
 70
    64
 62
     7
  6
CONTINUOUS
  0
LAYER
  2
15
 70
    64
 62
     7
  6
CONTINUOUS
  0
LAYER
  2
16
 70
    64
 62
     7
  6
CONTINUOUS
  0
LAYER
  2
17
 70
    64
 62
     7
  6
CONTINUOUS
  0
LAYER
  2
18
 70
    64
 62
     7
  6
CONTINUOUS
  0
LAYER
  2
19
 70
    64
 62
     7
  6
CONTINUOUS
  0
LAYER
  2
20
 70
    64
 62
     7
  6
CONTINUOUS
  0
LAYER
  2
21
 70
    64
 62
     7
  6
CONTINUOUS
  0
LAYER
  2
22
 70
    64
 62
     7
  6
CONTINUOUS
  0
LAYER
  2
23
 70
    64
 62
     7
  6
CONTINUOUS
  0
LAYER
  2
24
 70
    64
 62
     7
  6
CONTINUOUS
  0
LAYER
  2
25
 70
    64
 62
     7
  6
CONTINUOUS
  0
LAYER
  2
26
 70
    64
 62
     7
  6
CONTINUOUS
  0
LAYER
  2
27
 70
    64
 62
     7
  6
CONTINUOUS
  0
LAYER
  2
28
 70
    64
 62
     7
  6
CONTINUOUS
  0
LAYER
  2
29
 70
    64
 62
     7
  6
CONTINUOUS
  0
LAYER
  2
30
 70
    64
 62
     7
  6
CONTINUOUS
  0
LAYER
  2
31
 70
    64
 62
     7
  6
CONTINUOUS
  0
LAYER
  2
32
 70
    64
 62
     7
  6
CONTINUOUS
  0
LAYER
  2
33
 70
    64
 62
     7
  6
CONTINUOUS
  0
LAYER
  2
34
 70
    64
 62
     7
  6
CONTINUOUS
  0
LAYER
  2
35
 70
    64
 62
     7
  6
CONTINUOUS
  0
LAYER
  2
36
 70
    64
 62
     7
  6
CONTINUOUS
  0
LAYER
  2
37
 70
    64
 62
     7
  6
CONTINUOUS
  0
LAYER
  2
38
 70
    64
 62
     7
  6
CONTINUOUS
  0
LAYER
  2
39
 70
    64
 62
     7
  6
CONTINUOUS
  0
LAYER
  2
40
 70
    64
 62
     7
  6
CONTINUOUS
  0
LAYER
  2
41
 70
    64
 62
     7
  6
CONTINUOUS
  0
LAYER
  2
42
 70
    64
 62
     7
  6
CONTINUOUS
  0
LAYER
  2
43
 70
    64
 62
     7
  6
CONTINUOUS
  0
LAYER
  2
44
 70
    64
 62
     7
  6
CONTINUOUS
  0
LAYER
  2
45
 70
    64
 62
     7
  6
CONTINUOUS
  0
LAYER
  2
46
 70
    64
 62
     7
  6
CONTINUOUS
  0
LAYER
  2
47
 70
    64
 62
     7
  6
CONTINUOUS
  0
LAYER
  2
48
 70
    64
 62
     7
  6
CONTINUOUS
  0
LAYER
  2
49
 70
    64
 62
     7
  6
CONTINUOUS
  0
LAYER
  2
50
 70
    64
 62
     7
  6
CONTINUOUS
  0
LAYER
  2
51
 70
    64
 62
     7
  6
CONTINUOUS
  0
LAYER
  2
52
 70
    64
 62
     7
  6
CONTINUOUS
  0
LAYER
  2
53
 70
    64
 62
     7
  6
CONTINUOUS
  0
LAYER
  2
54
 70
    64
 62
     7
  6
CONTINUOUS
  0
LAYER
  2
55
 70
    64
 62
     7
  6
CONTINUOUS
  0
LAYER
  2
56
 70
    64
 62
     7
  6
CONTINUOUS
  0
LAYER
  2
57
 70
    64
 62
     7
  6
CONTINUOUS
  0
LAYER
  2
58
 70
    64
 62
     7
  6
CONTINUOUS
  0
LAYER
  2
59
 70
    64
 62
     7
  6
CONTINUOUS
  0
LAYER
  2
60
 70
    64
 62
     7
  6
CONTINUOUS
  0
LAYER
  2
61
 70
    64
 62
     7
  6
CONTINUOUS
  0
LAYER
  2
62
 70
    64
 62
     7
  6
CONTINUOUS
  0
LAYER
  2
63
 70
    64
 62
     7
  6
CONTINUOUS
  0
LAYER
  2
64
 70
    64
 62
     7
  6
CONTINUOUS
  0
LAYER
  2
65
 70
    64
 62
     7
  6
CONTINUOUS
  0
LAYER
  2
66
 70
    64
 62
     7
  6
CONTINUOUS
  0
LAYER
  2
67
 70
    64
 62
     7
  6
CONTINUOUS
  0
LAYER
  2
68
 70
    64
 62
     7
  6
CONTINUOUS
  0
LAYER
  2
69
 70
    64
 62
     7
  6
CONTINUOUS
  0
LAYER
  2
70
 70
    64
 62
     7
  6
CONTINUOUS
  0
LAYER
  2
71
 70
    64
 62
     7
  6
CONTINUOUS
  0
LAYER
  2
72
 70
    64
 62
     7
  6
CONTINUOUS
  0
LAYER
  2
73
 70
    64
 62
     7
  6
CONTINUOUS
  0
LAYER
  2
74
 70
    64
 62
     7
  6
CONTINUOUS
  0
LAYER
  2
75
 70
    64
 62
     7
  6
CONTINUOUS
  0
LAYER
  2
76
 70
    64
 62
     7
  6
CONTINUOUS
  0
LAYER
  2
77
 70
    64
 62
     7
  6
CONTINUOUS
  0
LAYER
  2
78
 70
    64
 62
     7
  6
CONTINUOUS
  0
LAYER
  2
79
 70
    64
 62
     7
  6
CONTINUOUS
  0
LAYER
  2
80
 70
    64
 62
     7
  6
CONTINUOUS
  0
LAYER
  2
81
 70
    64
 62
     7
  6
CONTINUOUS
  0
LAYER
  2
82
 70
    64
 62
     7
  6
CONTINUOUS
  0
LAYER
  2
83
 70
    64
 62
     7
  6
CONTINUOUS
  0
LAYER
  2
84
 70
    64
 62
     7
  6
CONTINUOUS
  0
LAYER
  2
85
 70
    64
 62
     7
  6
CONTINUOUS
  0
LAYER
  2
86
 70
    64
 62
     7
  6
CONTINUOUS
  0
LAYER
  2
87
 70
    64
 62
     7
  6
CONTINUOUS
  0
LAYER
  2
88
 70
    64
 62
     7
  6
CONTINUOUS
  0
LAYER
  2
89
 70
    64
 62
     7
  6
CONTINUOUS
  0
LAYER
  2
90
 70
    64
 62
     7
  6
CONTINUOUS
  0
LAYER
  2
91
 70
    64
 62
     7
  6
CONTINUOUS
  0
LAYER
  2
92
 70
    64
 62
     7
  6
CONTINUOUS
  0
LAYER
  2
93
 70
    64
 62
     7
  6
CONTINUOUS
  0
LAYER
  2
94
 70
    64
 62
     7
  6
CONTINUOUS
  0
LAYER
  2
95
 70
    64
 62
     7
  6
CONTINUOUS
  0
LAYER
  2
96
 70
    64
 62
     7
  6
CONTINUOUS
  0
LAYER
  2
97
 70
    64
 62
     7
  6
CONTINUOUS
  0
LAYER
  2
98
 70
    64
 62
     7
  6
CONTINUOUS
  0
LAYER
  2
99
 70
    64
 62
     7
  6
CONTINUOUS
  0
LAYER
  2
100
 70
    64
 62
     7
  6
CONTINUOUS
  0
LAYER
  2
101
 70
    64
 62
     7
  6
CONTINUOUS
  0
LAYER
  2
102
 70
    64
 62
     7
  6
CONTINUOUS
  0
LAYER
  2
103
 70
    64
 62
     7
  6
CONTINUOUS
  0
LAYER
  2
104
 70
    64
 62
     7
  6
CONTINUOUS
  0
LAYER
  2
105
 70
    64
 62
     7
  6
CONTINUOUS
  0
LAYER
  2
106
 70
    64
 62
     7
  6
CONTINUOUS
  0
LAYER
  2
107
 70
    64
 62
     7
  6
CONTINUOUS
  0
LAYER
  2
108
 70
    64
 62
     7
  6
CONTINUOUS
  0
LAYER
  2
109
 70
    64
 62
     7
  6
CONTINUOUS
  0
LAYER
  2
110
 70
    64
 62
     7
  6
CONTINUOUS
  0
LAYER
  2
111
 70
    64
 62
     7
  6
CONTINUOUS
  0
LAYER
  2
112
 70
    64
 62
     7
  6
CONTINUOUS
  0
LAYER
  2
113
 70
    64
 62
     7
  6
CONTINUOUS
  0
LAYER
  2
114
 70
    64
 62
     7
  6
CONTINUOUS
  0
LAYER
  2
115
 70
    64
 62
     7
  6
CONTINUOUS
  0
LAYER
  2
116
 70
    64
 62
     7
  6
CONTINUOUS
  0
LAYER
  2
117
 70
    64
 62
     7
  6
CONTINUOUS
  0
LAYER
  2
118
 70
    64
 62
     7
  6
CONTINUOUS
  0
LAYER
  2
119
 70
    64
 62
     7
  6
CONTINUOUS
  0
LAYER
  2
120
 70
    64
 62
     7
  6
CONTINUOUS
  0
LAYER
  2
121
 70
    64
 62
     7
  6
CONTINUOUS
  0
LAYER
  2
122
 70
    64
 62
     7
  6
CONTINUOUS
  0
LAYER
  2
123
 70
    64
 62
     7
  6
CONTINUOUS
  0
LAYER
  2
124
 70
    64
 62
     7
  6
CONTINUOUS
  0
LAYER
  2
125
 70
    64
 62
     7
  6
CONTINUOUS
  0
LAYER
  2
126
 70
    64
 62
     7
  6
CONTINUOUS
  0
LAYER
  2
127
 70
    64
 62
     7
  6
CONTINUOUS
  0
LAYER
  2
128
 70
    64
 62
     7
  6
CONTINUOUS
  0
LAYER
  2
129
 70
    64
 62
     7
  6
CONTINUOUS
  0
LAYER
  2
130
 70
    64
 62
     7
  6
CONTINUOUS
  0
LAYER
  2
131
 70
    64
 62
     7
  6
CONTINUOUS
  0
LAYER
  2
132
 70
    64
 62
     7
  6
CONTINUOUS
  0
LAYER
  2
133
 70
    64
 62
     7
  6
CONTINUOUS
  0
LAYER
  2
134
 70
    64
 62
     7
  6
CONTINUOUS
  0
LAYER
  2
135
 70
    64
 62
     7
  6
CONTINUOUS
  0
LAYER
  2
136
 70
    64
 62
     7
  6
CONTINUOUS
  0
LAYER
  2
137
 70
    64
 62
     7
  6
CONTINUOUS
  0
LAYER
  2
138
 70
    64
 62
     7
  6
CONTINUOUS
  0
LAYER
  2
139
 70
    64
 62
     7
  6
CONTINUOUS
  0
LAYER
  2
140
 70
    64
 62
     7
  6
CONTINUOUS
  0
LAYER
  2
141
 70
    64
 62
     7
  6
CONTINUOUS
  0
LAYER
  2
142
 70
    64
 62
     7
  6
CONTINUOUS
  0
LAYER
  2
143
 70
    64
 62
     7
  6
CONTINUOUS
  0
LAYER
  2
144
 70
    64
 62
     7
  6
CONTINUOUS
  0
LAYER
  2
145
 70
    64
 62
     7
  6
CONTINUOUS
  0
LAYER
  2
146
 70
    64
 62
     7
  6
CONTINUOUS
  0
LAYER
  2
147
 70
    64
 62
     7
  6
CONTINUOUS
  0
LAYER
  2
148
 70
    64
 62
     7
  6
CONTINUOUS
  0
LAYER
  2
149
 70
    64
 62
     7
  6
CONTINUOUS
  0
LAYER
  2
150
 70
    64
 62
     7
  6
CONTINUOUS
  0
LAYER
  2
151
 70
    64
 62
     7
  6
CONTINUOUS
  0
LAYER
  2
152
 70
    64
 62
     7
  6
CONTINUOUS
  0
LAYER
  2
153
 70
    64
 62
     7
  6
CONTINUOUS
  0
LAYER
  2
154
 70
    64
 62
     7
  6
CONTINUOUS
  0
LAYER
  2
155
 70
    64
 62
     7
  6
CONTINUOUS
  0
LAYER
  2
156
 70
    64
 62
     7
  6
CONTINUOUS
  0
LAYER
  2
157
 70
    64
 62
     7
  6
CONTINUOUS
  0
LAYER
  2
158
 70
    64
 62
     7
  6
CONTINUOUS
  0
LAYER
  2
159
 70
    64
 62
     7
  6
CONTINUOUS
  0
LAYER
  2
160
 70
    64
 62
     7
  6
CONTINUOUS
  0
LAYER
  2
161
 70
    64
 62
     7
  6
CONTINUOUS
  0
LAYER
  2
162
 70
    64
 62
     7
  6
CONTINUOUS
  0
LAYER
  2
163
 70
    64
 62
     7
  6
CONTINUOUS
  0
LAYER
  2
164
 70
    64
 62
     7
  6
CONTINUOUS
  0
LAYER
  2
165
 70
    64
 62
     7
  6
CONTINUOUS
  0
LAYER
  2
166
 70
    64
 62
     7
  6
CONTINUOUS
  0
LAYER
  2
167
 70
    64
 62
     7
  6
CONTINUOUS
  0
LAYER
  2
168
 70
    64
 62
     7
  6
CONTINUOUS
  0
LAYER
  2
169
 70
    64
 62
     7
  6
CONTINUOUS
  0
LAYER
  2
170
 70
    64
 62
     7
  6
CONTINUOUS
  0
LAYER
  2
171
 70
    64
 62
     7
  6
CONTINUOUS
  0
LAYER
  2
172
 70
    64
 62
     7
  6
CONTINUOUS
  0
LAYER
  2
173
 70
    64
 62
     7
  6
CONTINUOUS
  0
LAYER
  2
174
 70
    64
 62
     7
  6
CONTINUOUS
  0
LAYER
  2
175
 70
    64
 62
     7
  6
CONTINUOUS
  0
LAYER
  2
176
 70
    64
 62
     7
  6
CONTINUOUS
  0
LAYER
  2
177
 70
    64
 62
     7
  6
CONTINUOUS
  0
LAYER
  2
178
 70
    64
 62
     7
  6
CONTINUOUS
  0
LAYER
  2
179
 70
    64
 62
     7
  6
CONTINUOUS
  0
LAYER
  2
180
 70
    64
 62
     7
  6
CONTINUOUS
  0
LAYER
  2
181
 70
    64
 62
     7
  6
CONTINUOUS
  0
LAYER
  2
182
 70
    64
 62
     7
  6
CONTINUOUS
  0
LAYER
  2
183
 70
    64
 62
     7
  6
CONTINUOUS
  0
LAYER
  2
184
 70
    64
 62
     7
  6
CONTINUOUS
  0
LAYER
  2
185
 70
    64
 62
     7
  6
CONTINUOUS
  0
LAYER
  2
186
 70
    64
 62
     7
  6
CONTINUOUS
  0
LAYER
  2
187
 70
    64
 62
     7
  6
CONTINUOUS
  0
LAYER
  2
188
 70
    64
 62
     7
  6
CONTINUOUS
  0
LAYER
  2
189
 70
    64
 62
     7
  6
CONTINUOUS
  0
LAYER
  2
190
 70
    64
 62
     7
  6
CONTINUOUS
  0
LAYER
  2
191
 70
    64
 62
     7
  6
CONTINUOUS
  0
LAYER
  2
192
 70
    64
 62
     7
  6
CONTINUOUS
  0
LAYER
  2
193
 70
    64
 62
     7
  6
CONTINUOUS
  0
LAYER
  2
194
 70
    64
 62
     7
  6
CONTINUOUS
  0
LAYER
  2
195
 70
    64
 62
     7
  6
CONTINUOUS
  0
LAYER
  2
196
 70
    64
 62
     7
  6
CONTINUOUS
  0
LAYER
  2
197
 70
    64
 62
     7
  6
CONTINUOUS
  0
LAYER
  2
198
 70
    64
 62
     7
  6
CONTINUOUS
  0
LAYER
  2
199
 70
    64
 62
     7
  6
CONTINUOUS
  0
LAYER
  2
200
 70
    64
 62
     7
  6
CONTINUOUS
  0
LAYER
  2
201
 70
    64
 62
     7
  6
CONTINUOUS
  0
LAYER
  2
202
 70
    64
 62
     7
  6
CONTINUOUS
  0
LAYER
  2
203
 70
    64
 62
     7
  6
CONTINUOUS
  0
LAYER
  2
204
 70
    64
 62
     7
  6
CONTINUOUS
  0
LAYER
  2
205
 70
    64
 62
     7
  6
CONTINUOUS
  0
LAYER
  2
206
 70
    64
 62
     7
  6
CONTINUOUS
  0
LAYER
  2
207
 70
    64
 62
     7
  6
CONTINUOUS
  0
LAYER
  2
208
 70
    64
 62
     7
  6
CONTINUOUS
  0
LAYER
  2
209
 70
    64
 62
     7
  6
CONTINUOUS
  0
LAYER
  2
210
 70
    64
 62
     7
  6
CONTINUOUS
  0
LAYER
  2
211
 70
    64
 62
     7
  6
CONTINUOUS
  0
LAYER
  2
212
 70
    64
 62
     7
  6
CONTINUOUS
  0
LAYER
  2
213
 70
    64
 62
     7
  6
CONTINUOUS
  0
LAYER
  2
214
 70
    64
 62
     7
  6
CONTINUOUS
  0
LAYER
  2
215
 70
    64
 62
     7
  6
CONTINUOUS
  0
LAYER
  2
216
 70
    64
 62
     7
  6
CONTINUOUS
  0
LAYER
  2
217
 70
    64
 62
     7
  6
CONTINUOUS
  0
LAYER
  2
218
 70
    64
 62
     7
  6
CONTINUOUS
  0
LAYER
  2
219
 70
    64
 62
     7
  6
CONTINUOUS
  0
LAYER
  2
220
 70
    64
 62
     7
  6
CONTINUOUS
  0
LAYER
  2
221
 70
    64
 62
     7
  6
CONTINUOUS
  0
LAYER
  2
222
 70
    64
 62
     7
  6
CONTINUOUS
  0
LAYER
  2
223
 70
    64
 62
     7
  6
CONTINUOUS
  0
LAYER
  2
224
 70
    64
 62
     7
  6
CONTINUOUS
  0
LAYER
  2
225
 70
    64
 62
     7
  6
CONTINUOUS
  0
LAYER
  2
226
 70
    64
 62
     7
  6
CONTINUOUS
  0
LAYER
  2
227
 70
    64
 62
     7
  6
CONTINUOUS
  0
LAYER
  2
228
 70
    64
 62
     7
  6
CONTINUOUS
  0
LAYER
  2
229
 70
    64
 62
     7
  6
CONTINUOUS
  0
LAYER
  2
230
 70
    64
 62
     7
  6
CONTINUOUS
  0
LAYER
  2
231
 70
    64
 62
     7
  6
CONTINUOUS
  0
LAYER
  2
232
 70
    64
 62
     7
  6
CONTINUOUS
  0
LAYER
  2
233
 70
    64
 62
     7
  6
CONTINUOUS
  0
LAYER
  2
234
 70
    64
 62
     7
  6
CONTINUOUS
  0
LAYER
  2
235
 70
    64
 62
     7
  6
CONTINUOUS
  0
LAYER
  2
236
 70
    64
 62
     7
  6
CONTINUOUS
  0
LAYER
  2
237
 70
    64
 62
     7
  6
CONTINUOUS
  0
LAYER
  2
238
 70
    64
 62
     7
  6
CONTINUOUS
  0
LAYER
  2
239
 70
    64
 62
     7
  6
CONTINUOUS
  0
LAYER
  2
240
 70
    64
 62
     7
  6
CONTINUOUS
  0
LAYER
  2
241
 70
    64
 62
     7
  6
CONTINUOUS
  0
LAYER
  2
242
 70
    64
 62
     7
  6
CONTINUOUS
  0
LAYER
  2
243
 70
    64
 62
     7
  6
CONTINUOUS
  0
LAYER
  2
244
 70
    64
 62
     7
  6
CONTINUOUS
  0
LAYER
  2
245
 70
    64
 62
     7
  6
CONTINUOUS
  0
LAYER
  2
246
 70
    64
 62
     7
  6
CONTINUOUS
  0
LAYER
  2
247
 70
    64
 62
     7
  6
CONTINUOUS
  0
LAYER
  2
248
 70
    64
 62
     7
  6
CONTINUOUS
  0
LAYER
  2
249
 70
    64
 62
     7
  6
CONTINUOUS
  0
LAYER
  2
250
 70
    64
 62
     7
  6
CONTINUOUS
  0
LAYER
  2
251
 70
    64
 62
     7
  6
CONTINUOUS
  0
LAYER
  2
252
 70
    64
 62
     7
  6
CONTINUOUS
  0
LAYER
  2
253
 70
    64
 62
     7
  6
CONTINUOUS
  0
LAYER
  2
254
 70
    64
 62
     7
  6
CONTINUOUS
  0
LAYER
  2
255
 70
    64
 62
     7
  6
CONTINUOUS
  0
ENDTAB
  0
TABLE
  2
STYLE
 70
     2
  0
STYLE
  2
STANDARD
 70
    64
 40
0.0
 41
1.0
 50
0.0
 71
     0
 42
3.000000
  3
TXT
  4
BIGFONT
  0
ENDTAB
  0
ENDSEC
  0
SECTION
  2
BLOCKS
  0
BLOCK
  8
0
  2
CADWIN-G0
 70
    0
 10
0.0
 20
0.0
  0
LINE
  8
0
  6
CONTINUOUS
 62
     3
 10
-3.0456087379934687
 20
 5.7965538605348748
 11
 13.490289646868796
 21
 5.7965538605348748
  0
ARC
  8
0
  6
CONTINUOUS
 62
     3
 10
-3.0456087379934687
 20
 6.7965538605348748
 40
 1
 50
 150.00000255872399
 51
-90.000001535234532
  0
ARC
  8
0
  6
CONTINUOUS
 62
     3
 10
 13.490289646868796
 20
 6.7965538605348748
 40
 1
 50
-90.000001535234816
 51
 30.000000511744783
  0
LINE
  8
0
  6
CONTINUOUS
 62
     3
 10
-3.9116341417778884
 20
 7.2965538605348748
 11
 4.3563150506532429
 21
 21.617061936223667
  0
LINE
  8
0
  6
CONTINUOUS
 62
     3
 10
 6.0883658582221107
 20
 21.617061936223667
 11
 14.356315050653187
 21
 7.2965538605348748
  0
ARC
  8
0
  6
CONTINUOUS
 62
     3
 10
 5.2223404544376342
 20
 21.117061936223667
 40
 1
 50
 30.000000511744894
 51
 150.00000255872422
  0
LINE
  8
0
  6
CONTINUOUS
 62
     3
 10
 5.2223404544376342
 20
 21.117061936223639
 11
-3.0456087379934687
 21
 6.7965538605348748
  0
LINE
  8
0
  6
CONTINUOUS
 62
     3
 10
-3.0456087379934687
 20
 6.7965538605348748
 11
 13.490289646868796
 21
 6.7965538605348748
  0
LINE
  8
0
  6
CONTINUOUS
 62
     3
 10
 5.2223404544376342
 20
 21.117061936223639
 11
 13.490289646868796
 21
 6.7965538605348748
  0
LINE
  8
0
  6
CONTINUOUS
 62
     7
 10
-1.3379149838859306
 20
 5.7965538605348748
 11
-0.3379149838859314
 21
 6.7965538605348748
  0
LINE
  8
0
  6
CONTINUOUS
 62
     7
 10
 8.4288154632829659
 20
 15.563284307703771
 11
 9.1608662708518054
 21
 16.295335115272611
  0
LINE
  8
0
  6
CONTINUOUS
 62
     7
 10
-1.5641906186515442
 20
 5.7965538605348748
 11
-0.5641906186515442
 21
 6.7965538605348748
  0
LINE
  8
0
  6
CONTINUOUS
 62
     7
 10
 8.345992832701306
 20
 15.706737311887725
 11
 9.0780436402701739
 21
 16.438788119456621
  0
LINE
  8
0
  6
CONTINUOUS
 62
     7
 10
-1.7904662534171862
 20
 5.7965538605348748
 11
-0.7904662534171862
 21
 6.7965538605348748
  0
LINE
  8
0
  6
CONTINUOUS
 62
     7
 10
 8.2631702021196176
 20
 15.850190316071679
 11
 8.9952210096885139
 21
 16.582241123640546
  0
LINE
  8
0
  6
CONTINUOUS
 62
     7
 10
-2.0167418881827999
 20
 5.7965538605348748
 11
-1.0167418881827999
 21
 6.7965538605348748
  0
LINE
  8
0
  6
CONTINUOUS
 62
     7
 10
 8.1803475715379292
 20
 15.993643320255632
 11
 8.9123983791068255
 21
 16.7256941278245
  0
LINE
  8
0
  6
CONTINUOUS
 62
     7
 10
-2.2430175229484419
 20
 5.7965538605348748
 11
-1.2430175229484419
 21
 6.7965538605348748
  0
LINE
  8
0
  6
CONTINUOUS
 62
     7
 10
 8.0975249409562693
 20
 16.137096324439558
 11
 8.8295757485251372
 21
 16.869147132008454
  0
LINE
  8
0
  6
CONTINUOUS
 62
     7
 10
-2.4692931577140556
 20
 5.7965538605348748
 11
-1.4692931577140556
 21
 6.7965538605348748
  0
LINE
  8
0
  6
CONTINUOUS
 62
     7
 10
 8.0147023103746378
 20
 16.280549328623568
 11
 8.7467531179434772
 21
 17.012600136192408
  0
LINE
  8
0
  6
CONTINUOUS
 62
     7
 10
-2.6955687924796692
 20
 5.7965538605348748
 11
-1.6955687924796692
 21
 6.7965538605348748
  0
LINE
  8
0
  6
CONTINUOUS
 62
     7
 10
 7.9318796797929485
 20
 16.424002332807522
 11
 8.6639304873618457
 21
 17.15605314037639
  0
LINE
  8
0
  6
CONTINUOUS
 62
     7
 10
-2.9218444272453112
 20
 5.7965538605348748
 11
-1.9218444272453112
 21
 6.7965538605348748
  0
LINE
  8
0
  6
CONTINUOUS
 62
     7
 10
 7.8490570492112886
 20
 16.567455336991447
 11
 8.5811078567801573
 21
 17.299506144560343
  0
LINE
  8
0
  6
CONTINUOUS
 62
     7
 10
-3.1433341509593689
 20
 5.8013397715865445
 11
-2.1481200620109249
 21
 6.7965538605348748
  0
LINE
  8
0
  6
CONTINUOUS
 62
     7
 10
 7.7662344186296002
 20
 16.710908341175401
 11
 8.4982852261984974
 21
 17.442959148744297
  0
LINE
  8
0
  6
CONTINUOUS
 62
     7
 10
-3.3323919874973527
 20
 5.8385575698141174
 11
-2.3743956967765669
 21
 6.7965538605348748
  0
LINE
  8
0
  6
CONTINUOUS
 62
     7
 10
 7.6834117880479118
 20
 16.854361345359354
 11
 8.415462595616809
 21
 17.586412152928251
  0
LINE
  8
0
  6
CONTINUOUS
 62
     7
 10
-3.494339333416896
 20
 5.9028858586602446
 11
-2.6006713315421806
 21
 6.7965538605348748
  0
LINE
  8
0
  6
CONTINUOUS
 62
     7
 10
 7.6005891574662519
 20
 16.997814349543308
 11
 8.3326399650351206
 21
 17.729865157112176
  0
LINE
  8
0
  6
CONTINUOUS
 62
     7
 10
-3.6348818983755464
 20
 5.9886189284671225
 11
-2.8269469663077942
 21
 6.7965538605348748
  0
LINE
  8
0
  6
CONTINUOUS
 62
     7
 10
 7.5177665268846203
 20
 17.14126735372729
 11
 8.2498173344534891
 21
 17.873318161296186
  0
LINE
  8
0
  6
CONTINUOUS
 62
     7
 10
-3.7565128153910123
 20
 6.0932636462173555
 11
-3.0352080076053269
 21
 6.8145684540029841
  0
LINE
  8
0
  6
CONTINUOUS
 62
     7
 10
 7.434943896302932
 20
 17.284720357911244
 11
 8.1669947038718291
 21
 18.01677116548014
  0
LINE
  8
0
  6
CONTINUOUS
 62
     7
 10
-3.8599233888967106
 20
 6.2161287074772709
 11
-2.7261097422580534
 21
 7.3499423541158713
  0
LINE
  8
0
  6
CONTINUOUS
 62
     7
 10
 7.352121265721272
 20
 17.428173362095198
 11
 8.0841720732901408
 21
 18.160224169664065
  0
LINE
  8
0
  6
CONTINUOUS
 62
     7
 10
-3.9443188777306446
 20
 6.3580088534089505
 11
-2.4170114769107514
 21
 7.8853162542287869
  0
LINE
  8
0
  6
CONTINUOUS
 62
     7
 10
 7.2692986351395836
 20
 17.571626366279151
 11
 8.0013494427084808
 21
 18.303677173848019
  0
LINE
  8
0
  6
CONTINUOUS
 62
     7
 10
-4.0070528075201892
 20
 6.5215505583850764
 11
-2.1079132115634494
 21
 8.420690154341731
  0
LINE
  8
0
  6
CONTINUOUS
 62
     7
 10
 7.1864760045578953
 20
 17.715079370463076
 11
 7.9185268121267915
 21
 18.447130178031973
  0
LINE
  8
0
  6
CONTINUOUS
 62
     7
 10
-4.0420945666994967
 20
 6.7127844339713825
 11
-1.7988149462161473
 21
 8.9560640544546466
  0
LINE
  8
0
  6
CONTINUOUS
 62
     7
 10
 7.1036533739762637
 20
 17.858532374647087
 11
 7.83570418154516
 21
 18.590583182215955
  0
LINE
  8
0
  6
CONTINUOUS
 62
     7
 10
-4.0342405322202595
 20
 6.9469141032161765
 11
-1.4897166808688453
 21
 9.4914379545675907
  0
LINE
  8
0
  6
CONTINUOUS
 62
     7
 10
 7.0208307433946038
 20
 18.001985378831041
 11
 7.7528815509634716
 21
 18.734036186399909
  0
LINE
  8
0
  6
CONTINUOUS
 62
     7
 10
-3.9126640263300274
 20
 7.2947662438720791
 11
-1.1806184155215433
 21
 10.026811854680506
  0
LINE
  8
0
  6
CONTINUOUS
 62
     7
 10
 6.9380081128129154
 20
 18.145438383014966
 11
 7.6700589203818117
 21
 18.877489190583862
  0
LINE
  8
0
  6
CONTINUOUS
 62
     7
 10
-3.6035709577430808
 20
 7.8301349472245825
 11
-0.8715201501742982
 21
 10.562185754793393
  0
LINE
  8
0
  6
CONTINUOUS
 62
     7
 10
 6.8551854822312555
 20
 18.28889138719892
 11
 7.5872362898001233
 21
 19.020942194767816
  0
LINE
  8
0
  6
CONTINUOUS
 62
     7
 10
-3.2944726923957788
 20
 8.3655088473375265
 11
-0.5624218848269962
 21
 11.097559654906309
  0
LINE
  8
0
  6
CONTINUOUS
 62
     7
 10
 6.7723628516495671
 20
 18.432344391382873
 11
 7.5044136592184918
 21
 19.164395198951798
  0
LINE
  8
0
  6
CONTINUOUS
 62
     7
 10
-2.9853744270484768
 20
 8.9008827474504422
 11
-0.2533236194796951
 21
 11.632933555019253
  0
LINE
  8
0
  6
CONTINUOUS
 62
     7
 10
 6.6895402210679356
 20
 18.575797395566855
 11
 7.4215910286368318
 21
 19.307848203135752
  0
LINE
  8
0
  6
CONTINUOUS
 62
     7
 10
-2.6762761617011748
 20
 9.4362566475633862
 11
 0.0557746458676069
 21
 12.168307455132169
  0
LINE
  8
0
  6
CONTINUOUS
 62
     7
 10
 6.6067175904862472
 20
 18.719250399750809
 11
 7.3387683980551435
 21
 19.451301207319705
  0
LINE
  8
0
  6
CONTINUOUS
 62
     7
 10
-2.3671778963538728
 20
 9.9716305476763019
 11
 0.364872911214909
 21
 12.703681355245084
  0
LINE
  8
0
  6
CONTINUOUS
 62
     7
 10
 6.5238949599045872
 20
 18.862703403934763
 11
 7.2559457674734551
 21
 19.594754211503659
  0
LINE
  8
0
  6
CONTINUOUS
 62
     7
 10
-2.0580796310066276
 20
 10.507004447789189
 11
 0.6739711765621825
 21
 13.239055255357972
  0
LINE
  8
0
  6
CONTINUOUS
 62
     7
 10
 6.4410723293228989
 20
 19.006156408118716
 11
 7.1731231368917951
 21
 19.738207215687584
  0
LINE
  8
0
  6
CONTINUOUS
 62
     7
 10
-1.7489813656593256
 20
 11.042378347902105
 11
 0.9830694419094845
 21
 13.774429155470916
  0
LINE
  8
0
  6
CONTINUOUS
 62
     7
 10
 6.3582496987412389
 20
 19.14960941230267
 11
 7.0903005063101636
 21
 19.881660219871595
  0
LINE
  8
0
  6
CONTINUOUS
 62
     7
 10
-1.4398831003120236
 20
 11.577752248015049
 11
 1.2921677072567865
 21
 14.309803055583831
  0
LINE
  8
0
  6
CONTINUOUS
 62
     7
 10
 6.2754270681596074
 20
 19.293062416486652
 11
 7.0074778757284752
 21
 20.025113224055548
  0
LINE
  8
0
  6
CONTINUOUS
 62
     7
 10
-1.1307848349647216
 20
 12.113126148127964
 11
 1.6012659726040885
 21
 14.845176955696747
  0
LINE
  8
0
  6
CONTINUOUS
 62
     7
 10
 6.192604437577919
 20
 19.436515420670606
 11
 6.9246552451468153
 21
 20.168566228239474
  0
LINE
  8
0
  6
CONTINUOUS
 62
     7
 10
-0.8216865696174196
 20
 12.64850004824088
 11
 1.9103642379513905
 21
 15.380550855809691
  0
LINE
  8
0
  6
CONTINUOUS
 62
     7
 10
 6.1097818069962306
 20
 19.57996842485456
 11
 6.8418326145651269
 21
 20.312019232423427
  0
LINE
  8
0
  6
CONTINUOUS
 62
     7
 10
-0.5125883042701469
 20
 13.183873948353767
 11
 2.2194625032986357
 21
 15.915924755922578
  0
LINE
  8
0
  6
CONTINUOUS
 62
     7
 10
 6.0269591764145707
 20
 19.723421429038485
 11
 6.7590099839834386
 21
 20.455472236607381
  0
LINE
  8
0
  6
CONTINUOUS
 62
     7
 10
-0.2034900389228449
 20
 13.719247848466711
 11
 2.5285607686459377
 21
 16.451298656035494
  0
LINE
  8
0
  6
CONTINUOUS
 62
     7
 10
 5.9441365458328823
 20
 19.866874433222439
 11
 6.676187353401807
 21
 20.598925240791363
  0
LINE
  8
0
  6
CONTINUOUS
 62
     7
 10
 0.1056082264244571
 20
 14.254621748579627
 11
 2.8376590339932397
 21
 16.98667255614841
  0
LINE
  8
0
  6
CONTINUOUS
 62
     7
 10
 5.8613139152512224
 20
 20.010327437406392
 11
 6.5933647228201471
 21
 20.742378244975317
  0
LINE
  8
0
  6
CONTINUOUS
 62
     7
 10
 0.4147064917717591
 20
 14.789995648692543
 11
 3.1467572993405417
 21
 17.522046456261354
  0
LINE
  8
0
  6
CONTINUOUS
 62
     7
 10
 5.7784912846695908
 20
 20.153780441590374
 11
 6.5105420922384587
 21
 20.885831249159271
  0
LINE
  8
0
  6
CONTINUOUS
 62
     7
 10
 0.7238047571190611
 20
 15.325369548805487
 11
 3.4558555646878437
 21
 18.057420356374269
  0
LINE
  8
0
  6
CONTINUOUS
 62
     7
 10
 5.6956686540879025
 20
 20.297233445774328
 11
 6.4277194616567987
 21
 21.029284253343224
  0
LINE
  8
0
  6
CONTINUOUS
 62
     7
 10
 1.0329030224663063
 20
 15.860743448918374
 11
 3.7649538300350889
 21
 18.592794256487156
  0
LINE
  8
0
  6
CONTINUOUS
 62
     7
 10
 5.6128460235062141
 20
 20.440686449958282
 11
 6.3448968310751104
 21
 21.172737257527178
  0
LINE
  8
0
  6
CONTINUOUS
 62
     7
 10
 1.3420012878136083
 20
 16.396117349031289
 11
 4.0740520953823909
 21
 19.128168156600072
  0
LINE
  8
0
  6
CONTINUOUS
 62
     7
 10
 5.5300233929245541
 20
 20.584139454142235
 11
 6.2620742004934788
 21
 21.31619026171116
  0
LINE
  8
0
  6
CONTINUOUS
 62
     7
 10
 1.6510995531609103
 20
 16.931491249144205
 11
 4.3831503607296929
 21
 19.663542056713016
  0
LINE
  8
0
  6
CONTINUOUS
 62
     7
 10
 5.4472007623428658
 20
 20.727592458326189
 11
 6.1792515699117905
 21
 21.459643265895114
  0
LINE
  8
0
  6
CONTINUOUS
 62
     7
 10
 1.9601978185082123
 20
 17.466865149257149
 11
 4.6922486260769949
 21
 20.198915956825932
  0
LINE
  8
0
  6
CONTINUOUS
 62
     7
 10
 5.3643781317612342
 20
 20.871045462510171
 11
 6.0964289393301305
 21
 21.603096270079067
  0
LINE
  8
0
  6
CONTINUOUS
 62
     7
 10
 2.2692960838554574
 20
 18.002239049370036
 11
 5.0013468914242969
 21
 20.734289856938876
  0
LINE
  8
0
  6
CONTINUOUS
 62
     7
 10
 5.2815555011795743
 20
 21.014498466694125
 11
 6.0056929603958826
 21
 21.738635925910462
  0
LINE
  8
0
  6
CONTINUOUS
 62
     7
 10
 2.5783943492027595
 20
 18.537612949482952
 11
 5.8964612774444651
 21
 21.855679877724715
  0
LINE
  8
0
  6
CONTINUOUS
 62
     7
 10
 2.8874926145500615
 20
 19.072986849595868
 11
 5.7689530910970666
 21
 21.95444732614293
  0
LINE
  8
0
  6
CONTINUOUS
 62
     7
 10
 3.1965908798973635
 20
 19.608360749708812
 11
 5.6219690407015923
 21
 22.033738910513097
  0
LINE
  8
0
  6
CONTINUOUS
 62
     7
 10
 3.5056891452446655
 20
 20.143734649821727
 11
 5.4522324339923989
 21
 22.090277938569461
  0
LINE
  8
0
  6
CONTINUOUS
 62
     7
 10
 3.814787410591939
 20
 20.679108549934615
 11
 5.2522904977549763
 21
 22.11661163709768
  0
LINE
  8
0
  6
CONTINUOUS
 62
     7
 10
 4.123885675939241
 20
 21.21448245004753
 11
 5.0018539021488015
 21
 22.092450676257176
  0
LINE
  8
0
  6
CONTINUOUS
 62
     7
 10
-1.1116393491203169
 20
 5.7965538605348748
 11
-0.1116393491203178
 21
 6.7965538605348748
  0
LINE
  8
0
  6
CONTINUOUS
 62
     7
 10
 8.5116380938645975
 20
 15.419831303519789
 11
 9.2436889014334938
 21
 16.151882111088657
  0
LINE
  8
0
  6
CONTINUOUS
 62
     7
 10
-0.8853637143546749
 20
 5.7965538605348748
 11
 0.1146362856453242
 21
 6.7965538605348748
  0
LINE
  8
0
  6
CONTINUOUS
 62
     7
 10
 8.5944607244462858
 20
 15.276378299335835
 11
 9.3265115320151537
 21
 16.008429106904732
  0
LINE
  8
0
  6
CONTINUOUS
 62
     7
 10
-0.6590880795890612
 20
 5.7965538605348748
 11
 0.3409119204109379
 21
 6.7965538605348748
  0
LINE
  8
0
  6
CONTINUOUS
 62
     7
 10
 8.6772833550279458
 20
 15.132925295151882
 11
 9.4093341625968421
 21
 15.864976102720778
  0
LINE
  8
0
  6
CONTINUOUS
 62
     7
 10
-0.4328124448234201
 20
 5.7965538605348748
 11
 0.5671875551765799
 21
 6.7965538605348748
  0
LINE
  8
0
  6
CONTINUOUS
 62
     7
 10
 8.7601059856096342
 20
 14.989472290967928
 11
 9.4921567931785304
 21
 15.721523098536824
  0
LINE
  8
0
  6
CONTINUOUS
 62
     7
 10
-0.2065368100578064
 20
 5.7965538605348748
 11
 0.7934631899421936
 21
 6.7965538605348748
  0
LINE
  8
0
  6
CONTINUOUS
 62
     7
 10
 8.8429286161913225
 20
 14.846019286784003
 11
 9.574979423760162
 21
 15.578070094352842
  0
LINE
  8
0
  6
CONTINUOUS
 62
     7
 10
 0.0197388247078072
 20
 5.7965538605348748
 11
 1.0197388247078072
 21
 6.7965538605348748
  0
LINE
  8
0
  6
CONTINUOUS
 62
     7
 10
 8.9257512467729541
 20
 14.702566282599992
 11
 9.6578020543418219
 21
 15.434617090168889
  0
LINE
  8
0
  6
CONTINUOUS
 62
     7
 10
 0.2460144594734492
 20
 5.7965538605348748
 11
 1.2460144594734492
 21
 6.7965538605348748
  0
LINE
  8
0
  6
CONTINUOUS
 62
     7
 10
 9.008573877354614
 20
 14.559113278416039
 11
 9.7406246849235103
 21
 15.291164085984935
  0
LINE
  8
0
  6
CONTINUOUS
 62
     7
 10
 0.4722900942390629
 20
 5.7965538605348748
 11
 1.4722900942390629
 21
 6.7965538605348748
  0
LINE
  8
0
  6
CONTINUOUS
 62
     7
 10
 9.0913965079363024
 20
 14.415660274232113
 11
 9.8234473155051703
 21
 15.147711081800981
  0
LINE
  8
0
  6
CONTINUOUS
 62
     7
 10
 0.6985657290047049
 20
 5.7965538605348748
 11
 1.6985657290047049
 21
 6.7965538605348748
  0
LINE
  8
0
  6
CONTINUOUS
 62
     7
 10
 9.1742191385179623
 20
 14.27220727004816
 11
 9.9062699460868586
 21
 15.004258077617028
  0
LINE
  8
0
  6
CONTINUOUS
 62
     7
 10
 0.9248413637703186
 20
 5.7965538605348748
 11
 1.9248413637703186
 21
 6.7965538605348748
  0
LINE
  8
0
  6
CONTINUOUS
 62
     7
 10
 9.2570417690996507
 20
 14.128754265864206
 11
 9.9890925766684902
 21
 14.860805073433045
  0
LINE
  8
0
  6
CONTINUOUS
 62
     7
 10
 1.1511169985359322
 20
 5.7965538605348748
 11
 2.1511169985359322
 21
 6.7965538605348748
  0
LINE
  8
0
  6
CONTINUOUS
 62
     7
 10
 9.3398643996812822
 20
 13.985301261680224
 11
 10.071915207250179
 21
 14.717352069249092
  0
LINE
  8
0
  6
CONTINUOUS
 62
     7
 10
 1.3773926333015742
 20
 5.7965538605348748
 11
 2.3773926333015742
 21
 6.7965538605348748
  0
LINE
  8
0
  6
CONTINUOUS
 62
     7
 10
 9.4226870302629706
 20
 13.84184825749627
 11
 10.154737837831838
 21
 14.573899065065138
  0
LINE
  8
0
  6
CONTINUOUS
 62
     7
 10
 1.6036682680671879
 20
 5.7965538605348748
 11
 2.6036682680671879
 21
 6.7965538605348748
  0
LINE
  8
0
  6
CONTINUOUS
 62
     7
 10
 9.5055096608446306
 20
 13.698395253312317
 11
 10.237560468413527
 21
 14.430446060881213
  0
LINE
  8
0
  6
CONTINUOUS
 62
     7
 10
 1.8299439028328299
 20
 5.7965538605348748
 11
 2.8299439028328299
 21
 6.7965538605348748
  0
LINE
  8
0
  6
CONTINUOUS
 62
     7
 10
 9.5883322914263189
 20
 13.554942249128363
 11
 10.320383098995187
 21
 14.286993056697259
  0
LINE
  8
0
  6
CONTINUOUS
 62
     7
 10
 2.0562195375984436
 20
 5.7965538605348748
 11
 3.0562195375984436
 21
 6.7965538605348748
  0
LINE
  8
0
  6
CONTINUOUS
 62
     7
 10
 9.6711549220079789
 20
 13.411489244944409
 11
 10.403205729576818
 21
 14.143540052513249
  0
LINE
  8
0
  6
CONTINUOUS
 62
     7
 10
 2.2824951723640572
 20
 5.7965538605348748
 11
 3.2824951723640572
 21
 6.7965538605348748
  0
LINE
  8
0
  6
CONTINUOUS
 62
     7
 10
 9.7539775525896673
 20
 13.268036240760484
 11
 10.486028360158507
 21
 14.000087048329323
  0
LINE
  8
0
  6
CONTINUOUS
 62
     7
 10
 2.5087708071296992
 20
 5.7965538605348748
 11
 3.5087708071296992
 21
 6.7965538605348748
  0
LINE
  8
0
  6
CONTINUOUS
 62
     7
 10
 9.8368001831712988
 20
 13.124583236576473
 11
 10.568850990740195
 21
 13.85663404414537
  0
LINE
  8
0
  6
CONTINUOUS
 62
     7
 10
 2.7350464418953129
 20
 5.7965538605348748
 11
 3.7350464418953129
 21
 6.7965538605348748
  0
LINE
  8
0
  6
CONTINUOUS
 62
     7
 10
 9.9196228137529872
 20
 12.98113023239252
 11
 10.651673621321855
 21
 13.713181039961416
  0
LINE
  8
0
  6
CONTINUOUS
 62
     7
 10
 2.9613220766609549
 20
 5.7965538605348748
 11
 3.9613220766609549
 21
 6.7965538605348748
  0
LINE
  8
0
  6
CONTINUOUS
 62
     7
 10
 10.002445444334647
 20
 12.837677228208594
 11
 10.734496251903543
 21
 13.569728035777462
  0
LINE
  8
0
  6
CONTINUOUS
 62
     7
 10
 3.1875977114265686
 20
 5.7965538605348748
 11
 4.1875977114265686
 21
 6.7965538605348748
  0
LINE
  8
0
  6
CONTINUOUS
 62
     7
 10
 10.085268074916335
 20
 12.694224224024641
 11
 10.817318882485175
 21
 13.42627503159348
  0
LINE
  8
0
  6
CONTINUOUS
 62
     7
 10
 3.4138733461921822
 20
 5.7965538605348748
 11
 4.4138733461921822
 21
 6.7965538605348748
  0
LINE
  8
0
  6
CONTINUOUS
 62
     7
 10
 10.168090705497995
 20
 12.550771219840687
 11
 10.900141513066835
 21
 13.282822027409527
  0
LINE
  8
0
  6
CONTINUOUS
 62
     7
 10
 3.6401489809578242
 20
 5.7965538605348748
 11
 4.6401489809578242
 21
 6.7965538605348748
  0
LINE
  8
0
  6
CONTINUOUS
 62
     7
 10
 10.250913336079627
 20
 12.407318215656705
 11
 10.982964143648523
 21
 13.139369023225573
  0
LINE
  8
0
  6
CONTINUOUS
 62
     7
 10
 3.8664246157234379
 20
 5.7965538605348748
 11
 4.8664246157234379
 21
 6.7965538605348748
  0
LINE
  8
0
  6
CONTINUOUS
 62
     7
 10
 10.333735966661315
 20
 12.263865211472751
 11
 11.065786774230212
 21
 12.995916019041619
  0
LINE
  8
0
  6
CONTINUOUS
 62
     7
 10
 4.0927002504890799
 20
 5.7965538605348748
 11
 5.0927002504890799
 21
 6.7965538605348748
  0
LINE
  8
0
  6
CONTINUOUS
 62
     7
 10
 10.416558597243004
 20
 12.120412207288798
 11
 11.148609404811872
 21
 12.852463014857694
  0
LINE
  8
0
  6
CONTINUOUS
 62
     7
 10
 4.3189758852546936
 20
 5.7965538605348748
 11
 5.3189758852546936
 21
 6.7965538605348748
  0
LINE
  8
0
  6
CONTINUOUS
 62
     7
 10
 10.499381227824664
 20
 11.976959203104844
 11
 11.231432035393503
 21
 12.709010010673683
  0
LINE
  8
0
  6
CONTINUOUS
 62
     7
 10
 4.5452515200203072
 20
 5.7965538605348748
 11
 5.5452515200203072
 21
 6.7965538605348748
  0
LINE
  8
0
  6
CONTINUOUS
 62
     7
 10
 10.582203858406352
 20
 11.83350619892089
 11
 11.314254665975191
 21
 12.56555700648973
  0
LINE
  8
0
  6
CONTINUOUS
 62
     7
 10
 4.7715271547859492
 20
 5.7965538605348748
 11
 5.7715271547859492
 21
 6.7965538605348748
  0
LINE
  8
0
  6
CONTINUOUS
 62
     7
 10
 10.665026488987984
 20
 11.690053194736908
 11
 11.397077296556851
 21
 12.422104002305804
  0
LINE
  8
0
  6
CONTINUOUS
 62
     7
 10
 4.9978027895515629
 20
 5.7965538605348748
 11
 5.9978027895515629
 21
 6.7965538605348748
  0
LINE
  8
0
  6
CONTINUOUS
 62
     7
 10
 10.747849119569644
 20
 11.546600190552955
 11
 11.47989992713854
 21
 12.278650998121851
  0
LINE
  8
0
  6
CONTINUOUS
 62
     7
 10
 5.2240784243172049
 20
 5.7965538605348748
 11
 6.2240784243172049
 21
 6.7965538605348748
  0
LINE
  8
0
  6
CONTINUOUS
 62
     7
 10
 10.830671750151332
 20
 11.403147186369001
 11
 11.562722557720228
 21
 12.135197993937897
  0
LINE
  8
0
  6
CONTINUOUS
 62
     7
 10
 5.4503540590828186
 20
 5.7965538605348748
 11
 6.4503540590828186
 21
 6.7965538605348748
  0
LINE
  8
0
  6
CONTINUOUS
 62
     7
 10
 10.91349438073302
 20
 11.259694182185076
 11
 11.64554518830186
 21
 11.991744989753915
  0
LINE
  8
0
  6
CONTINUOUS
 62
     7
 10
 5.6766296938484322
 20
 5.7965538605348748
 11
 6.6766296938484322
 21
 6.7965538605348748
  0
LINE
  8
0
  6
CONTINUOUS
 62
     7
 10
 10.99631701131468
 20
 11.116241178001122
 11
 11.72836781888352
 21
 11.848291985569961
  0
LINE
  8
0
  6
CONTINUOUS
 62
     7
 10
 5.9029053286140742
 20
 5.7965538605348748
 11
 6.9029053286140742
 21
 6.7965538605348748
  0
LINE
  8
0
  6
CONTINUOUS
 62
     7
 10
 11.079139641896312
 20
 10.972788173817111
 11
 11.811190449465208
 21
 11.704838981386008
  0
LINE
  8
0
  6
CONTINUOUS
 62
     7
 10
 6.1291809633796879
 20
 5.7965538605348748
 11
 7.1291809633796879
 21
 6.7965538605348748
  0
LINE
  8
0
  6
CONTINUOUS
 62
     7
 10
 11.161962272478
 20
 10.829335169633186
 11
 11.894013080046868
 21
 11.561385977202054
  0
LINE
  8
0
  6
CONTINUOUS
 62
     7
 10
 6.3554565981453299
 20
 5.7965538605348748
 11
 7.3554565981453299
 21
 6.7965538605348748
  0
LINE
  8
0
  6
CONTINUOUS
 62
     7
 10
 11.24478490305966
 20
 10.685882165449232
 11
 11.976835710628499
 21
 11.417932973018072
  0
LINE
  8
0
  6
CONTINUOUS
 62
     7
 10
 6.5817322329109436
 20
 5.7965538605348748
 11
 7.5817322329109436
 21
 6.7965538605348748
  0
LINE
  8
0
  6
CONTINUOUS
 62
     7
 10
 11.327607533641348
 20
 10.542429161265279
 11
 12.059658341210188
 21
 11.274479968834118
  0
LINE
  8
0
  6
CONTINUOUS
 62
     7
 10
 6.8080078676765572
 20
 5.7965538605348748
 11
 7.8080078676765572
 21
 6.7965538605348748
  0
LINE
  8
0
  6
CONTINUOUS
 62
     7
 10
 11.410430164223037
 20
 10.398976157081325
 11
 12.142480971791876
 21
 11.131026964650165
  0
LINE
  8
0
  6
CONTINUOUS
 62
     7
 10
 7.0342835024421992
 20
 5.7965538605348748
 11
 8.0342835024422001
 21
 6.7965538605348748
  0
LINE
  8
0
  6
CONTINUOUS
 62
     7
 10
 11.493252794804697
 20
 10.255523152897371
 11
 12.225303602373536
 21
 10.987573960466211
  0
LINE
  8
0
  6
CONTINUOUS
 62
     7
 10
 7.2605591372078129
 20
 5.7965538605348748
 11
 8.2605591372078138
 21
 6.7965538605348748
  0
LINE
  8
0
  6
CONTINUOUS
 62
     7
 10
 11.576075425386328
 20
 10.112070148713389
 11
 12.308126232955225
 21
 10.844120956282286
  0
LINE
  8
0
  6
CONTINUOUS
 62
     7
 10
 7.4868347719734549
 20
 5.7965538605348748
 11
 8.4868347719734558
 21
 6.7965538605348748
  0
LINE
  8
0
  6
CONTINUOUS
 62
     7
 10
 11.658898055968017
 20
 9.9686171445294356
 11
 12.390948863536856
 21
 10.700667952098275
  0
LINE
  8
0
  6
CONTINUOUS
 62
     7
 10
 7.7131104067390686
 20
 5.7965538605348748
 11
 8.7131104067390694
 21
 6.7965538605348748
  0
LINE
  8
0
  6
CONTINUOUS
 62
     7
 10
 11.741720686549677
 20
 9.8251641403454819
 11
 12.473771494118516
 21
 10.557214947914321
  0
LINE
  8
0
  6
CONTINUOUS
 62
     7
 10
 7.9393860415046822
 20
 5.7965538605348748
 11
 8.9393860415046831
 21
 6.7965538605348748
  0
LINE
  8
0
  6
CONTINUOUS
 62
     7
 10
 11.824543317131365
 20
 9.6817111361615567
 11
 12.556594124700204
 21
 10.413761943730396
  0
LINE
  8
0
  6
CONTINUOUS
 62
     7
 10
 8.1656616762703251
 20
 5.7965538605348748
 11
 9.1656616762703251
 21
 6.7965538605348748
  0
LINE
  8
0
  6
CONTINUOUS
 62
     7
 10
 11.907365947713053
 20
 9.538258131977603
 11
 12.639416755281893
 21
 10.270308939546442
  0
LINE
  8
0
  6
CONTINUOUS
 62
     7
 10
 8.3919373110359388
 20
 5.7965538605348748
 11
 9.3919373110359388
 21
 6.7965538605348748
  0
LINE
  8
0
  6
CONTINUOUS
 62
     7
 10
 11.990188578294685
 20
 9.3948051277935924
 11
 12.722239385863553
 21
 10.126855935362489
  0
LINE
  8
0
  6
CONTINUOUS
 62
     7
 10
 8.6182129458015808
 20
 5.7965538605348748
 11
 9.6182129458015808
 21
 6.7965538605348748
  0
LINE
  8
0
  6
CONTINUOUS
 62
     7
 10
 12.073011208876345
 20
 9.2513521236096672
 11
 12.805062016445184
 21
 9.9834029311785066
  0
LINE
  8
0
  6
CONTINUOUS
 62
     7
 10
 8.8444885805671944
 20
 5.7965538605348748
 11
 9.8444885805671944
 21
 6.7965538605348748
  0
LINE
  8
0
  6
CONTINUOUS
 62
     7
 10
 12.155833839458033
 20
 9.1078991194257135
 11
 12.887884647026873
 21
 9.839949926994553
  0
LINE
  8
0
  6
CONTINUOUS
 62
     7
 10
 9.0707642153328081
 20
 5.7965538605348748
 11
 10.070764215332808
 21
 6.7965538605348748
  0
LINE
  8
0
  6
CONTINUOUS
 62
     7
 10
 12.238656470039693
 20
 8.9644461152417598
 11
 12.970707277608533
 21
 9.6964969228105993
  0
LINE
  8
0
  6
CONTINUOUS
 62
     7
 10
 9.2970398500984501
 20
 5.7965538605348748
 11
 10.29703985009845
 21
 6.7965538605348748
  0
LINE
  8
0
  6
CONTINUOUS
 62
     7
 10
 12.321479100621382
 20
 8.8209931110578061
 11
 13.053529908190221
 21
 9.5530439186266456
  0
LINE
  8
0
  6
CONTINUOUS
 62
     7
 10
 9.5233154848640638
 20
 5.7965538605348748
 11
 10.523315484864064
 21
 6.7965538605348748
  0
LINE
  8
0
  6
CONTINUOUS
 62
     7
 10
 12.404301731203013
 20
 8.677540106873824
 11
 13.136352538771909
 21
 9.4095909144426919
  0
LINE
  8
0
  6
CONTINUOUS
 62
     7
 10
 9.7495911196297058
 20
 5.7965538605348748
 11
 10.749591119629706
 21
 6.7965538605348748
  0
LINE
  8
0
  6
CONTINUOUS
 62
     7
 10
 12.487124361784701
 20
 8.5340871026898704
 11
 13.219175169353541
 21
 9.2661379102587098
  0
LINE
  8
0
  6
CONTINUOUS
 62
     7
 10
 9.9758667543953194
 20
 5.7965538605348748
 11
 10.975866754395319
 21
 6.7965538605348748
  0
LINE
  8
0
  6
CONTINUOUS
 62
     7
 10
 12.569946992366361
 20
 8.3906340985059167
 11
 13.301997799935201
 21
 9.1226849060747561
  0
LINE
  8
0
  6
CONTINUOUS
 62
     7
 10
 10.202142389160933
 20
 5.7965538605348748
 11
 11.202142389160933
 21
 6.7965538605348748
  0
LINE
  8
0
  6
CONTINUOUS
 62
     7
 10
 12.65276962294805
 20
 8.247181094321963
 11
 13.384820430516889
 21
 8.9792319018908024
  0
LINE
  8
0
  6
CONTINUOUS
 62
     7
 10
 10.428418023926575
 20
 5.7965538605348748
 11
 11.428418023926575
 21
 6.7965538605348748
  0
LINE
  8
0
  6
CONTINUOUS
 62
     7
 10
 12.73559225352971
 20
 8.1037280901380377
 11
 13.467643061098549
 21
 8.8357788977068772
  0
LINE
  8
0
  6
CONTINUOUS
 62
     7
 10
 10.654693658692189
 20
 5.7965538605348748
 11
 11.654693658692189
 21
 6.7965538605348748
  0
LINE
  8
0
  6
CONTINUOUS
 62
     7
 10
 12.818414884111341
 20
 7.9602750859540272
 11
 13.550465691680238
 21
 8.6923258935229235
  0
LINE
  8
0
  6
CONTINUOUS
 62
     7
 10
 10.880969293457831
 20
 5.7965538605348748
 11
 11.880969293457831
 21
 6.7965538605348748
  0
LINE
  8
0
  6
CONTINUOUS
 62
     7
 10
 12.90123751469303
 20
 7.8168220817700735
 11
 13.633288322261869
 21
 8.548872889338913
  0
LINE
  8
0
  6
CONTINUOUS
 62
     7
 10
 11.107244928223444
 20
 5.7965538605348748
 11
 12.107244928223444
 21
 6.7965538605348748
  0
LINE
  8
0
  6
CONTINUOUS
 62
     7
 10
 12.984060145274718
 20
 7.6733690775861483
 11
 13.716110952843557
 21
 8.4054198851549877
  0
LINE
  8
0
  6
CONTINUOUS
 62
     7
 10
 11.333520562989058
 20
 5.7965538605348748
 11
 12.333520562989058
 21
 6.7965538605348748
  0
LINE
  8
0
  6
CONTINUOUS
 62
     7
 10
 13.066882775856378
 20
 7.5299160734021946
 11
 13.798933583425217
 21
 8.261966880971034
  0
LINE
  8
0
  6
CONTINUOUS
 62
     7
 10
 11.5597961977547
 20
 5.7965538605348748
 11
 12.5597961977547
 21
 6.7965538605348748
  0
LINE
  8
0
  6
CONTINUOUS
 62
     7
 10
 13.149705406438066
 20
 7.3864630692182409
 11
 13.881756214006906
 21
 8.1185138767870804
  0
LINE
  8
0
  6
CONTINUOUS
 62
     7
 10
 11.786071832520314
 20
 5.7965538605348748
 11
 12.786071832520314
 21
 6.7965538605348748
  0
LINE
  8
0
  6
CONTINUOUS
 62
     7
 10
 13.232528037019726
 20
 7.2430100650342872
 11
 13.964578844588566
 21
 7.9750608726031267
  0
LINE
  8
0
  6
CONTINUOUS
 62
     7
 10
 12.012347467285956
 20
 5.7965538605348748
 11
 13.012347467285956
 21
 6.7965538605348748
  0
LINE
  8
0
  6
CONTINUOUS
 62
     7
 10
 13.315350667601358
 20
 7.0995570608503051
 11
 14.047401475170197
 21
 7.8316078684191446
  0
LINE
  8
0
  6
CONTINUOUS
 62
     7
 10
 12.238623102051569
 20
 5.7965538605348748
 11
 13.238623102051569
 21
 6.7965538605348748
  0
LINE
  8
0
  6
CONTINUOUS
 62
     7
 10
 13.398173298183046
 20
 6.9561040566663515
 11
 14.130224105751886
 21
 7.6881548642351909
  0
LINE
  8
0
  6
CONTINUOUS
 62
     7
 10
 12.464898736817183
 20
 5.7965538605348748
 11
 13.464898736817183
 21
 6.7965538605348748
  0
LINE
  8
0
  6
CONTINUOUS
 62
     7
 10
 13.480995928764735
 20
 6.8126510524823978
 11
 14.213046736333574
 21
 7.5447018600512372
  0
LINE
  8
0
  6
CONTINUOUS
 62
     7
 10
 12.691174371582825
 20
 5.7965538605348748
 11
 14.295869366915234
 21
 7.4012488558672835
  0
LINE
  8
0
  6
CONTINUOUS
 62
     7
 10
 12.917450006348439
 20
 5.7965538605348748
 11
 14.377948683217134
 21
 7.2570525374036272
  0
LINE
  8
0
  6
CONTINUOUS
 62
     7
 10
 13.143725641114081
 20
 5.7965538605348748
 11
 14.444107502247583
 21
 7.0969357216684053
  0
LINE
  8
0
  6
CONTINUOUS
 62
     7
 10
 13.370001275879694
 20
 5.7965538605348748
 11
 14.483793251291921
 21
 6.9103458359471581
  0
LINE
  8
0
  6
CONTINUOUS
 62
     7
 10
 13.602603316846704
 20
 5.8028802667362989
 11
 14.483961457650388
 21
 6.6842384075399828
  0
LINE
  8
0
  6
CONTINUOUS
 62
     7
 10
 13.91920955501535
 20
 5.8932108701393595
 11
 14.393630854247355
 21
 6.3676321693713085
  0
LINE
  8
0
  6
CONTINUOUS
 62
     3
 10
 4.0154213515955837
 20
 12.792269552295028
 11
 6.6614844578496308
 21
 14.119833755234726
  0
LINE
  8
0
  6
CONTINUOUS
 62
     7
 10
 5.2699121558486501
 20
 12.274384964286543
 11
 6.4703785677666792
 21
 13.474851376204573
  0
LINE
  8
0
  6
CONTINUOUS
 62
     7
 10
 5.3129340234728124
 20
 12.498427339723225
 11
 6.5465977289508066
 21
 13.732091045201248
  0
LINE
  8
0
  6
CONTINUOUS
 62
     7
 10
 5.1895544559186169
 20
 12.556068279981492
 11
 6.6228168901350477
 21
 13.98933071419798
  0
LINE
  8
0
  6
CONTINUOUS
 62
     7
 10
 4.8016156792332572
 20
 12.34915001110868
 11
 6.4825011998419404
 21
 14.030035531717306
  0
LINE
  8
0
  6
CONTINUOUS
 62
     7
 10
 4.4136769025478975
 20
 12.14223174223584
 11
 6.1192155831500576
 21
 13.847770422838
  0
LINE
  8
0
  6
CONTINUOUS
 62
     7
 10
 4.0257381258625946
 20
 11.935313473362971
 11
 5.7559299664582602
 21
 13.665505313958665
  0
LINE
  8
0
  6
CONTINUOUS
 62
     7
 10
 5.2268902882244026
 20
 12.050342588849805
 11
 6.3941594065824381
 21
 13.217611707207841
  0
LINE
  8
0
  6
CONTINUOUS
 62
     7
 10
 5.1838684206001551
 20
 11.826300213413123
 11
 6.317940245398197
 21
 12.960372038211109
  0
LINE
  8
0
  6
CONTINUOUS
 62
     7
 10
 5.1408465529759928
 20
 11.602257837976385
 11
 6.2417210842139559
 21
 12.703132369214376
  0
LINE
  8
0
  6
CONTINUOUS
 62
     7
 10
 5.0978246853517453
 20
 11.378215462539675
 11
 6.1655019230297716
 21
 12.445892700217673
  0
LINE
  8
0
  6
CONTINUOUS
 62
     7
 10
 5.0548028177274977
 20
 11.154173087102937
 11
 6.0892827618455305
 21
 12.188653031220969
  0
LINE
  8
0
  6
CONTINUOUS
 62
     7
 10
 5.0117809501033355
 20
 10.930130711666255
 11
 6.0130636006613178
 21
 11.931413362224266
  0
LINE
  8
0
  6
CONTINUOUS
 62
     7
 10
 4.9687590824790879
 20
 10.706088336229516
 11
 5.9368444394771052
 21
 11.674173693227534
  0
LINE
  8
0
  6
CONTINUOUS
 62
     7
 10
 4.9257372148548404
 20
 10.482045960792806
 11
 5.8606252782928925
 21
 11.416934024230802
  0
LINE
  8
0
  6
CONTINUOUS
 62
     7
 10
 4.8827153472307065
 20
 10.258003585356068
 11
 5.7844061171086514
 21
 11.15969435523407
  0
LINE
  8
0
  6
CONTINUOUS
 62
     7
 10
 4.839693479606459
 20
 10.03396120991933
 11
 5.7081869559244103
 21
 10.902454686237395
  0
LINE
  8
0
  6
CONTINUOUS
 62
     7
 10
 4.0292583222371752
 20
 9.4045465603625935
 11
 4.0751087424177888
 21
 9.4503969805432071
  0
LINE
  8
0
  6
CONTINUOUS
 62
     7
 10
 4.0849569400256973
 20
 9.2792246703385963
 11
 4.1807040386417418
 21
 9.3749717689546408
  0
LINE
  8
0
  6
CONTINUOUS
 62
     7
 10
 4.1406555578141626
 20
 9.1539027803145423
 11
 4.2862993348656948
 21
 9.2995465573661029
  0
LINE
  8
0
  6
CONTINUOUS
 62
     7
 10
 4.7966716119822399
 20
 9.809918834482648
 11
 5.6319677947402544
 21
 10.645215017240663
  0
LINE
  8
0
  6
CONTINUOUS
 62
     7
 10
 4.7536497443580492
 20
 9.5858764590459664
 11
 5.5557486335560418
 21
 10.387975348243931
  0
LINE
  8
0
  6
CONTINUOUS
 62
     7
 10
 4.7106278767338017
 20
 9.361834083609228
 11
 5.4795294723718291
 21
 10.130735679247255
  0
LINE
  8
0
  6
CONTINUOUS
 62
     7
 10
 4.6676060091095826
 20
 9.1377917081724895
 11
 5.4033103111876164
 21
 9.8734960102504949
  0
LINE
  8
0
  6
CONTINUOUS
 62
     3
 10
 5.343098867693775
 20
 17.342801296879959
 11
 5.9449998228026208
 21
 17.315151496182626
  0
LINE
  8
0
  6
CONTINUOUS
 62
     7
 10
 4.0468981032193971
 20
 15.757904114782338
 11
 5.6191157700663927
 21
 17.330121781629277
  0
LINE
  8
0
  6
CONTINUOUS
 62
     7
 10
 4.1319706037885942
 20
 16.023997123164055
 11
 5.4460456632612226
 21
 17.338072182636655
  0
LINE
  8
0
  6
CONTINUOUS
 62
     3
 10
 4.768082867693713
 20
 18.013653296880012
 11
 5.343098867693775
 21
 17.342801296879959
  0
LINE
  8
0
  6
CONTINUOUS
 62
     7
 10
 4.5573331066348066
 20
 17.354462165072722
 11
 4.9750558080391647
 21
 17.772184866477023
  0
LINE
  8
0
  6
CONTINUOUS
 62
     7
 10
 4.6424056072040321
 20
 17.620555173454438
 11
 4.8915078813564241
 21
 17.869657447606887
  0
LINE
  8
0
  6
CONTINUOUS
 62
     7
 10
 4.7274781077732575
 20
 17.886648181836211
 11
 4.8079599546737688
 21
 17.967130028736666
  0
LINE
  8
0
  6
CONTINUOUS
 62
     7
 10
 4.2170431043578764
 20
 16.290090131545771
 11
 5.3092475147698996
 21
 17.382294541957794
  0
LINE
  8
0
  6
CONTINUOUS
 62
     7
 10
 4.3021156049271019
 20
 16.556183139927516
 11
 5.2256995880871875
 21
 17.479767123087601
  0
LINE
  8
0
  6
CONTINUOUS
 62
     7
 10
 4.3871881054963273
 20
 16.82227614830926
 11
 5.1421516614045037
 21
 17.577239704217437
  0
LINE
  8
0
  6
CONTINUOUS
 62
     7
 10
 4.4722606060656096
 20
 17.088369156691005
 11
 5.05860373472182
 21
 17.674712285347244
  0
LINE
  8
0
  6
CONTINUOUS
 62
     3
 10
 4.0154213515955837
 20
 12.792269552295028
 11
 5.9449998228026208
 21
 17.315151496182626
  0
LINE
  8
0
  6
CONTINUOUS
 62
     7
 10
 3.9618256026501717
 20
 15.491811106400622
 11
 5.7921858768714776
 21
 17.322171380621928
  0
LINE
  8
0
  6
CONTINUOUS
 62
     7
 10
 3.8767531020809463
 20
 15.225718098018906
 11
 5.9292356220064653
 21
 17.278200617944425
  0
LINE
  8
0
  6
CONTINUOUS
 62
     7
 10
 3.7916806015117492
 20
 14.959625089637161
 11
 5.7945451477131291
 21
 16.962489635838541
  0
LINE
  8
0
  6
CONTINUOUS
 62
     7
 10
 3.7066081009424954
 20
 14.693532081255416
 11
 5.6598546734197646
 21
 16.646778653732685
  0
LINE
  8
0
  6
CONTINUOUS
 62
     3
 10
 3.9780764578495882
 20
 9.5197057552347992
 11
 4.6489284578495846
 21
 9.0405257552347855
  0
LINE
  8
0
  6
CONTINUOUS
 62
     3
 10
 4.6489284578495846
 20
 9.0405257552347855
 11
 5.339344396262752
 21
 12.635963039189182
  0
LINE
  8
0
  6
CONTINUOUS
 62
     3
 10
 6.0864684578496826
 20
 9.5197057552346855
 11
 5.1281084578495983
 21
 8.9446897552347373
  0
LINE
  8
0
  6
CONTINUOUS
 62
     3
 10
 5.1281084578495983
 20
 8.9446897552347373
 11
 6.6614844578496308
 21
 14.119833755234726
  0
LINE
  8
0
  6
CONTINUOUS
 62
     7
 10
 4.1963541756025426
 20
 9.0285808902905167
 11
 4.3918946310896763
 21
 9.2241213457775935
  0
LINE
  8
0
  6
CONTINUOUS
 62
     7
 10
 4.2520527933910364
 20
 8.9032590002664627
 11
 4.4974899273136293
 21
 9.1486961341889987
  0
LINE
  8
0
  6
CONTINUOUS
 62
     7
 10
 4.3077514111795301
 20
 8.7779371102424371
 11
 4.6030852235376107
 21
 9.0732709226004893
  0
LINE
  8
0
  6
CONTINUOUS
 62
     7
 10
 4.3634500289679385
 20
 8.652615220218383
 11
 5.3270911500033753
 21
 9.6162563412538198
  0
LINE
  8
0
  6
CONTINUOUS
 62
     7
 10
 4.4191486467564323
 20
 8.5272933301943858
 11
 5.250871988819191
 21
 9.3590166722570878
  0
LINE
  8
0
  6
CONTINUOUS
 62
     7
 10
 4.474847264544926
 20
 8.4019714401703318
 11
 5.1746528276349499
 21
 9.1017770032603558
  0
LINE
  8
0
  6
CONTINUOUS
 62
     7
 10
 4.5305458823333344
 20
 8.2766495501463062
 11
 5.3043025317801868
 21
 9.0504061995930449
  0
LINE
  8
0
  6
CONTINUOUS
 62
     7
 10
 4.5862445001218282
 20
 8.1513276601222522
 11
 5.7568538013112436
 21
 9.3219369613116676
  0
LINE
  8
0
  6
CONTINUOUS
 62
     7
 10
 4.641943117910265
 20
 8.0260057700982266
 11
 5.9143571996598814
 21
 9.2984198518478145
  0
LINE
  8
0
  6
CONTINUOUS
 62
     3
 10
 4.7447644578496044
 20
 7.7946577552347271
 11
 6.0864684578496826
 21
 9.5197057552346855
  0
LINE
  8
0
  6
CONTINUOUS
 62
     3
 10
 4.7447644578496044
 20
 7.7946577552347271
 11
 3.9780764578495882
 21
 9.5197057552347992
  0
LINE
  8
0
  6
CONTINUOUS
 62
     7
 10
 4.6976417356987303
 20
 7.9006838800741725
 11
 5.2807854223157653
 21
 8.4838275666912075
  0
LINE
  8
0
  6
CONTINUOUS
 62
     7
 10
 3.6377993491772633
 20
 11.728395204490159
 11
 5.3926443497664343
 21
 13.483240205079358
  0
LINE
  8
0
  6
CONTINUOUS
 62
     7
 10
 3.2498605724919605
 20
 11.521476935617347
 11
 5.0293587330745799
 21
 13.300975096200052
  0
LINE
  8
0
  6
CONTINUOUS
 62
     7
 10
 3.3663180986655652
 20
 13.629160047728465
 11
 5.1210927762463347
 21
 15.383934725309263
  0
LINE
  8
0
  6
CONTINUOUS
 62
     7
 10
 3.4513905992348475
 20
 13.895253056110239
 11
 5.2557832505397277
 21
 15.699645707415147
  0
LINE
  8
0
  6
CONTINUOUS
 62
     7
 10
 3.1961730975270859
 20
 13.096974030965033
 11
 4.851711827659634
 21
 14.752512761097524
  0
LINE
  8
0
  6
CONTINUOUS
 62
     7
 10
 3.2812455980963398
 20
 13.363067039346749
 11
 4.9864023019529986
 21
 15.068223743203408
  0
LINE
  8
0
  6
CONTINUOUS
 62
     7
 10
 3.026028096388635
 20
 12.564788014201572
 11
 4.5823308790729049
 21
 14.121090796885841
  0
LINE
  8
0
  6
CONTINUOUS
 62
     7
 10
 3.1111005969579173
 20
 12.830881022583316
 11
 4.7170213533662411
 21
 14.436801778991697
  0
LINE
  8
0
  6
CONTINUOUS
 62
     7
 10
 2.8619217958066008
 20
 11.314558666744507
 11
 4.6660731163827824
 21
 13.118709987320717
  0
LINE
  8
0
  6
CONTINUOUS
 62
     3
 10
 2.5778813515955994
 20
 11.163057552295005
 11
 5.339344396262752
 21
 12.635963039189182
  0
LINE
  8
0
  6
CONTINUOUS
 62
     7
 10
 2.6006655935424794
 20
 11.234322972292933
 11
 4.3027874996910134
 21
 12.93644487844141
  0
LINE
  8
0
  6
CONTINUOUS
 62
     7
 10
 2.6857380941117048
 20
 11.500415980674649
 11
 4.0435689818995035
 21
 12.85824686846242
  0
LINE
  8
0
  6
CONTINUOUS
 62
     7
 10
 2.7708105946809871
 20
 11.766508989056366
 11
 4.1782594561928681
 21
 13.173957850568303
  0
LINE
  8
0
  6
CONTINUOUS
 62
     7
 10
 3.6215356003732984
 20
 14.427439072873671
 11
 5.5251641991264284
 21
 16.331067671626858
  0
LINE
  8
0
  6
CONTINUOUS
 62
     7
 10
 3.5364630998040161
 20
 14.161346064491955
 11
 5.3904737248330354
 21
 16.015356689520974
  0
LINE
  8
0
  6
CONTINUOUS
 62
     7
 10
 2.8558830952501841
 20
 12.032601997438082
 11
 4.3129499304862042
 21
 13.489668832674131
  0
LINE
  8
0
  6
CONTINUOUS
 62
     7
 10
 2.940955595819438
 20
 12.298695005819855
 11
 4.4476404047795688
 21
 13.805379814779958
  0
LINE
  8
0
  6
CONTINUOUS
 62
     3
 10
 2.5778813515955994
 20
 11.163057552295005
 11
 4.768082867693713
 21
 18.013653296880012
  0
ENDBLK
  8
0
  0
BLOCK
  8
0
  2
CADWIN-G1
 70
    0
 10
0.0
 20
0.0
  0
LINE
  8
0
  6
CONTINUOUS
 62
     3
 10
-4.8365920349842444
 20
 26.084911708620478
 11
 1.364369859339126
 21
 26.084911708620478
  0
ARC
  8
0
  6
CONTINUOUS
 62
     3
 10
-4.8365920349842444
 20
 26.459911708620478
 40
 0.375
 50
 150.00000255872399
 51
-90.000001535234532
  0
ARC
  8
0
  6
CONTINUOUS
 62
     3
 10
 1.364369859339126
 20
 26.459911708620478
 40
 0.375
 50
-90.000001535234816
 51
 30.000000511744783
  0
LINE
  8
0
  6
CONTINUOUS
 62
     3
 10
-5.1613515614033876
 20
 26.647411708620478
 11
-2.0608706142417166
 21
 32.017602237003771
  0
LINE
  8
0
  6
CONTINUOUS
 62
     3
 10
-1.4113515614033876
 20
 32.017602237003771
 11
 1.6891293857582692
 21
 26.647411708620478
  0
ARC
  8
0
  6
CONTINUOUS
 62
     3
 10
-1.7361110878225734
 20
 31.830102237003768
 40
 0.375
 50
 30.000000511744883
 51
 150.00000255872422
  0
LINE
  8
0
  6
CONTINUOUS
 62
     3
 10
-1.7361110878225734
 20
 31.830102237003768
 11
-4.8365920349842444
 21
 26.459911708620478
  0
LINE
  8
0
  6
CONTINUOUS
 62
     3
 10
-4.8365920349842444
 20
 26.459911708620478
 11
 1.364369859339126
 21
 26.459911708620478
  0
LINE
  8
0
  6
CONTINUOUS
 62
     3
 10
-1.7361110878225734
 20
 31.830102237003768
 11
 1.364369859339126
 21
 26.459911708620478
  0
LINE
  8
0
  6
CONTINUOUS
 62
     7
 10
-4.1962068771939105
 20
 26.084911708620478
 11
-3.8212068771939105
 21
 26.459911708620478
  0
LINE
  8
0
  6
CONTINUOUS
 62
     7
 10
-0.5336829595055779
 20
 29.74743562630881
 11
-0.2591639066672631
 21
 30.021954679147125
  0
LINE
  8
0
  6
CONTINUOUS
 62
     7
 10
-4.2810602402310227
 20
 26.084911708620478
 11
-3.9060602402310227
 21
 26.459911708620478
  0
LINE
  8
0
  6
CONTINUOUS
 62
     7
 10
-0.5647414459737039
 20
 29.801230502877797
 11
-0.2902223931353749
 21
 30.075749555716111
  0
LINE
  8
0
  6
CONTINUOUS
 62
     7
 10
-4.3659136032681349
 20
 26.084911708620478
 11
-3.9909136032681349
 21
 26.459911708620478
  0
LINE
  8
0
  6
CONTINUOUS
 62
     7
 10
-0.5957999324418299
 20
 29.855025379446783
 11
-0.3212808796035009
 21
 30.129544432285098
  0
LINE
  8
0
  6
CONTINUOUS
 62
     7
 10
-4.4507669663052329
 20
 26.084911708620478
 11
-4.0757669663052329
 21
 26.459911708620478
  0
LINE
  8
0
  6
CONTINUOUS
 62
     7
 10
-0.626858418909956
 20
 29.908820256015741
 11
-0.352339366071627
 21
 30.183339308854084
  0
LINE
  8
0
  6
CONTINUOUS
 62
     7
 10
-4.5356203293423452
 20
 26.084911708620478
 11
-4.1606203293423452
 21
 26.459911708620478
  0
LINE
  8
0
  6
CONTINUOUS
 62
     7
 10
-0.657916905378082
 20
 29.962615132584727
 11
-0.383397852539753
 21
 30.23713418542307
  0
LINE
  8
0
  6
CONTINUOUS
 62
     7
 10
-4.6204736923794574
 20
 26.084911708620478
 11
-4.2454736923794574
 21
 26.459911708620478
  0
LINE
  8
0
  6
CONTINUOUS
 62
     7
 10
-0.6889753918461938
 20
 30.016410009153741
 11
-0.414456339007879
 21
 30.290929061992028
  0
LINE
  8
0
  6
CONTINUOUS
 62
     7
 10
-4.7053270554165696
 20
 26.084911708620478
 11
-4.3303270554165696
 21
 26.459911708620478
  0
LINE
  8
0
  6
CONTINUOUS
 62
     7
 10
-0.7200338783143341
 20
 30.070204885722699
 11
-0.4455148254759909
 21
 30.344723938561042
  0
LINE
  8
0
  6
CONTINUOUS
 62
     7
 10
-4.7901804184536818
 20
 26.084911708620478
 11
-4.4151804184536818
 21
 26.459911708620478
  0
LINE
  8
0
  6
CONTINUOUS
 62
     7
 10
-0.7510923647824601
 20
 30.123999762291685
 11
-0.4765733119441311
 21
 30.398518815130029
  0
LINE
  8
0
  6
CONTINUOUS
 62
     7
 10
-4.8732390648464534
 20
 26.086706425264833
 11
-4.5000337814907798
 21
 26.459911708620478
  0
LINE
  8
0
  6
CONTINUOUS
 62
     7
 10
-0.7821508512505861
 20
 30.177794638860671
 11
-0.5076317984122571
 21
 30.452313691698986
  0
LINE
  8
0
  6
CONTINUOUS
 62
     7
 10
-4.9441357535481902
 20
 26.100663099600194
 11
-4.584887144527892
 21
 26.459911708620478
  0
LINE
  8
0
  6
CONTINUOUS
 62
     7
 10
-0.8132093377187122
 20
 30.231589515429658
 11
-0.5386902848803832
 21
 30.506108568267972
  0
LINE
  8
0
  6
CONTINUOUS
 62
     7
 10
-5.004866008268019
 20
 26.124786207917463
 11
-4.6697405075650043
 21
 26.459911708620478
  0
LINE
  8
0
  6
CONTINUOUS
 62
     7
 10
-0.8442678241868382
 20
 30.285384391998615
 11
-0.5697487713485092
 21
 30.559903444836959
  0
LINE
  8
0
  6
CONTINUOUS
 62
     7
 10
-5.0575694701275129
 20
 26.156936109095067
 11
-4.7545938706021165
 21
 26.459911708620478
  0
LINE
  8
0
  6
CONTINUOUS
 62
     7
 10
-0.87532631065495
 20
 30.33917926856763
 11
-0.600807257816621
 21
 30.613698321405945
  0
LINE
  8
0
  6
CONTINUOUS
 62
     7
 10
-5.1031810640083197
 20
 26.196177878251387
 11
-4.832691761088677
 21
 26.466667181171015
  0
LINE
  8
0
  6
CONTINUOUS
 62
     7
 10
-0.9063847971230903
 20
 30.392974145136616
 11
-0.6318657442847471
 21
 30.667493197974931
  0
LINE
  8
0
  6
CONTINUOUS
 62
     7
 10
-5.1419600290729566
 20
 26.242252276223876
 11
-4.716779911583453
 21
 26.667432393713352
  0
LINE
  8
0
  6
CONTINUOUS
 62
     7
 10
-0.9374432835912163
 20
 30.446769021705574
 11
-0.6629242307528873
 21
 30.721288074543917
  0
LINE
  8
0
  6
CONTINUOUS
 62
     7
 10
-5.1736083373856818
 20
 26.295457330948249
 11
-4.6008680620782147
 21
 26.868197606255688
  0
LINE
  8
0
  6
CONTINUOUS
 62
     7
 10
-0.9685017700593424
 20
 30.50056389827456
 11
-0.6939827172210134
 21
 30.775082951112903
  0
LINE
  8
0
  6
CONTINUOUS
 62
     7
 10
-5.1971335610567539
 20
 26.356785470314275
 11
-4.4849562125729765
 21
 27.068962818798024
  0
LINE
  8
0
  6
CONTINUOUS
 62
     7
 10
-0.9995602565274684
 20
 30.554358774843546
 11
-0.7250412036891394
 21
 30.82887782768189
  0
LINE
  8
0
  6
CONTINUOUS
 62
     7
 10
-5.2102742207489943
 20
 26.428498173659147
 11
-4.3690443630677382
 21
 27.269728031340389
  0
LINE
  8
0
  6
CONTINUOUS
 62
     7
 10
-1.0306187429955802
 20
 30.608153651412533
 11
-0.7560996901572512
 21
 30.882672704250876
  0
LINE
  8
0
  6
CONTINUOUS
 62
     7
 10
-5.2073289578192803
 20
 26.516296799625973
 11
-4.2531325135625
 21
 27.470493243882725
  0
LINE
  8
0
  6
CONTINUOUS
 62
     7
 10
-1.0616772294637062
 20
 30.661948527981519
 11
-0.7871581766253772
 21
 30.936467580819862
  0
LINE
  8
0
  6
CONTINUOUS
 62
     7
 10
-5.1617377681104504
 20
 26.646741352371929
 11
-4.1372206640572617
 21
 27.67125845642509
  0
LINE
  8
0
  6
CONTINUOUS
 62
     7
 10
-1.0927357159318465
 20
 30.715743404550505
 11
-0.8182166630935033
 21
 30.990262457388848
  0
LINE
  8
0
  6
CONTINUOUS
 62
     7
 10
-5.0458278673903383
 20
 26.847504616129111
 11
-4.0213088145520519
 21
 27.872023668967426
  0
LINE
  8
0
  6
CONTINUOUS
 62
     7
 10
-1.1237942023999725
 20
 30.769538281119491
 11
-0.8492751495616435
 21
 31.044057333957834
  0
LINE
  8
0
  6
CONTINUOUS
 62
     7
 10
-4.9299160178851
 20
 27.048269828671447
 11
-3.9053969650468137
 21
 28.072788881509762
  0
LINE
  8
0
  6
CONTINUOUS
 62
     7
 10
-1.1548526888680986
 20
 30.823333157688477
 11
-0.8803336360297553
 21
 31.09785221052682
  0
LINE
  8
0
  6
CONTINUOUS
 62
     7
 10
-4.8140041683798618
 20
 27.249035041213812
 11
-3.7894851155415754
 21
 28.273554094052098
  0
LINE
  8
0
  6
CONTINUOUS
 62
     7
 10
-1.1859111753362104
 20
 30.877128034257463
 11
-0.9113921224978814
 21
 31.151647087095807
  0
LINE
  8
0
  6
CONTINUOUS
 62
     7
 10
-4.6980923188746235
 20
 27.449800253756148
 11
-3.6735732660363372
 21
 28.474319306594463
  0
LINE
  8
0
  6
CONTINUOUS
 62
     7
 10
-1.2169696618043364
 20
 30.93092291082645
 11
-0.9424506089660074
 21
 31.205441963664793
  0
LINE
  8
0
  6
CONTINUOUS
 62
     7
 10
-4.5821804693693853
 20
 27.650565466298513
 11
-3.5576614165310989
 21
 28.675084519136799
  0
LINE
  8
0
  6
CONTINUOUS
 62
     7
 10
-1.2480281482724624
 20
 30.984717787395436
 11
-0.9735090954341334
 21
 31.259236840233751
  0
LINE
  8
0
  6
CONTINUOUS
 62
     7
 10
-4.4662686198641754
 20
 27.851330678840849
 11
-3.4417495670258749
 21
 28.875849731679136
  0
LINE
  8
0
  6
CONTINUOUS
 62
     7
 10
-1.2790866347406027
 20
 31.038512663964422
 11
-1.0045675819022595
 21
 31.313031716802737
  0
LINE
  8
0
  6
CONTINUOUS
 62
     7
 10
-4.3503567703589372
 20
 28.052095891383185
 11
-3.3258377175206366
 21
 29.076614944221472
  0
LINE
  8
0
  6
CONTINUOUS
 62
     7
 10
-1.3101451212087287
 20
 31.09230754053338
 11
-1.0356260683703713
 21
 31.366826593371751
  0
LINE
  8
0
  6
CONTINUOUS
 62
     7
 10
-4.2344449208536989
 20
 28.252861103925522
 11
-3.2099258680153984
 21
 29.277380156763837
  0
LINE
  8
0
  6
CONTINUOUS
 62
     7
 10
-1.3412036076768405
 20
 31.146102417102394
 11
-1.0666845548385115
 21
 31.420621469940709
  0
LINE
  8
0
  6
CONTINUOUS
 62
     7
 10
-4.1185330713484607
 20
 28.453626316467886
 11
-3.0940140185101601
 21
 29.478145369306173
  0
LINE
  8
0
  6
CONTINUOUS
 62
     7
 10
-1.3722620941449666
 20
 31.199897293671381
 11
-1.0977430413066376
 21
 31.474416346509695
  0
LINE
  8
0
  6
CONTINUOUS
 62
     7
 10
-4.0026212218432224
 20
 28.654391529010223
 11
-2.9781021690049219
 21
 29.678910581848537
  0
LINE
  8
0
  6
CONTINUOUS
 62
     7
 10
-1.4033205806130926
 20
 31.253692170240338
 11
-1.1288015277747636
 21
 31.528211223078682
  0
LINE
  8
0
  6
CONTINUOUS
 62
     7
 10
-3.8867093723379984
 20
 28.855156741552559
 11
-2.8621903194996978
 21
 29.879675794390845
  0
LINE
  8
0
  6
CONTINUOUS
 62
     7
 10
-1.4343790670812187
 20
 31.307487046809324
 11
-1.1598600142428896
 21
 31.582006099647668
  0
LINE
  8
0
  6
CONTINUOUS
 62
     7
 10
-3.7707975228327602
 20
 29.055921954094895
 11
-2.7462784699944596
 21
 30.08044100693321
  0
LINE
  8
0
  6
CONTINUOUS
 62
     7
 10
-1.4654375535493589
 20
 31.361281923378311
 11
-1.1909185007110015
 21
 31.635800976216654
  0
LINE
  8
0
  6
CONTINUOUS
 62
     7
 10
-3.6548856733275219
 20
 29.25668716663726
 11
-2.6303666204892213
 21
 30.281206219475546
  0
LINE
  8
0
  6
CONTINUOUS
 62
     7
 10
-1.4964960400174849
 20
 31.415076799947297
 11
-1.2219769871791275
 21
 31.68959585278564
  0
LINE
  8
0
  6
CONTINUOUS
 62
     7
 10
-3.5389738238222836
 20
 29.457452379179596
 11
-2.5144547709839831
 21
 30.481971432017883
  0
LINE
  8
0
  6
CONTINUOUS
 62
     7
 10
-1.5275545264855968
 20
 31.468871676516283
 11
-1.2530354736472678
 21
 31.743390729354626
  0
LINE
  8
0
  6
CONTINUOUS
 62
     7
 10
-3.4230619743170454
 20
 29.658217591721961
 11
-2.3985429214787448
 21
 30.682736644560247
  0
LINE
  8
0
  6
CONTINUOUS
 62
     7
 10
-1.5586130129537228
 20
 31.522666553085269
 11
-1.2840939601153938
 21
 31.797185605923584
  0
LINE
  8
0
  6
CONTINUOUS
 62
     7
 10
-3.3071501248118214
 20
 29.858982804264269
 11
-2.2826310719735208
 21
 30.883501857102583
  0
LINE
  8
0
  6
CONTINUOUS
 62
     7
 10
-1.5896714994218488
 20
 31.576461429654255
 11
-1.3151524465835198
 21
 31.85098048249257
  0
LINE
  8
0
  6
CONTINUOUS
 62
     7
 10
-3.1912382753065831
 20
 30.059748016806633
 11
-2.1667192224682825
 21
 31.08426706964492
  0
LINE
  8
0
  6
CONTINUOUS
 62
     7
 10
-1.6207299858899749
 20
 31.630256306223213
 11
-1.3462109330516316
 21
 31.904775359061585
  0
LINE
  8
0
  6
CONTINUOUS
 62
     7
 10
-3.0753264258013449
 20
 30.26051322934897
 11
-2.0508073729630443
 21
 31.285032282187284
  0
LINE
  8
0
  6
CONTINUOUS
 62
     7
 10
-1.6517884723581151
 20
 31.684051182792199
 11
-1.3772694195197577
 21
 31.958570235630543
  0
LINE
  8
0
  6
CONTINUOUS
 62
     7
 10
-2.9594145762961066
 20
 30.461278441891306
 11
-1.934895523457806
 21
 31.485797494729621
  0
LINE
  8
0
  6
CONTINUOUS
 62
     7
 10
-1.6828469588262269
 20
 31.737846059361214
 11
-1.4083279059878837
 21
 32.012365112199532
  0
LINE
  8
0
  6
CONTINUOUS
 62
     7
 10
-2.8435027267908826
 20
 30.662043654433642
 11
-1.8189836739525678
 21
 31.686562707271957
  0
LINE
  8
0
  6
CONTINUOUS
 62
     7
 10
-1.713905445294353
 20
 31.791640935930172
 11
-1.4423538980882373
 21
 32.063192483136319
  0
LINE
  8
0
  6
CONTINUOUS
 62
     7
 10
-2.7275908772856443
 20
 30.862808866976007
 11
-1.4833157791950047
 21
 32.10708396506665
  0
LINE
  8
0
  6
CONTINUOUS
 62
     7
 10
-2.6116790277804061
 20
 31.063574079518343
 11
-1.5311313490752898
 21
 32.144121758223505
  0
LINE
  8
0
  6
CONTINUOUS
 62
     7
 10
-2.4957671782751678
 20
 31.264339292060708
 11
-1.5862503679735855
 21
 32.173856102362308
  0
LINE
  8
0
  6
CONTINUOUS
 62
     7
 10
-2.3798553287699296
 20
 31.465104504603044
 11
-1.6499015954895331
 21
 32.195058237883458
  0
LINE
  8
0
  6
CONTINUOUS
 62
     7
 10
-2.2639434792647055
 20
 31.66586971714538
 11
-1.7248798215785772
 21
 32.204933374831526
  0
LINE
  8
0
  6
CONTINUOUS
 62
     7
 10
-2.1480316297594673
 20
 31.866634929687716
 11
-1.8187935449308785
 21
 32.195873014516323
  0
LINE
  8
0
  6
CONTINUOUS
 62
     7
 10
-4.1113535141567983
 20
 26.084911708620478
 11
-3.7363535141567983
 21
 26.459911708620478
  0
LINE
  8
0
  6
CONTINUOUS
 62
     7
 10
-0.5026244730374661
 20
 29.693640749739824
 11
-0.2281054201991228
 21
 29.968159802578139
  0
LINE
  8
0
  6
CONTINUOUS
 62
     7
 10
-4.0265001511196861
 20
 26.084911708620478
 11
-3.6515001511196861
 21
 26.459911708620478
  0
LINE
  8
0
  6
CONTINUOUS
 62
     7
 10
-0.4715659865693258
 20
 29.639845873170838
 11
-0.1970469337309968
 21
 29.914364926009153
  0
LINE
  8
0
  6
CONTINUOUS
 62
     7
 10
-3.9416467880825881
 20
 26.084911708620478
 11
-3.5666467880825881
 21
 26.459911708620478
  0
LINE
  8
0
  6
CONTINUOUS
 62
     7
 10
-0.4405075001011998
 20
 29.586050996601852
 11
-0.1659884472628708
 21
 29.860570049440195
  0
LINE
  8
0
  6
CONTINUOUS
 62
     7
 10
-3.8567934250454758
 20
 26.084911708620478
 11
-3.4817934250454758
 21
 26.459911708620478
  0
LINE
  8
0
  6
CONTINUOUS
 62
     7
 10
-0.4094490136330737
 20
 29.532256120032866
 11
-0.1349299607947447
 21
 29.806775172871209
  0
LINE
  8
0
  6
CONTINUOUS
 62
     7
 10
-3.7719400620083636
 20
 26.084911708620478
 11
-3.3969400620083636
 21
 26.459911708620478
  0
LINE
  8
0
  6
CONTINUOUS
 62
     7
 10
-0.3783905271649477
 20
 29.47846124346388
 11
-0.1038714743266329
 21
 29.752980296302194
  0
LINE
  8
0
  6
CONTINUOUS
 62
     7
 10
-3.6870866989712514
 20
 26.084911708620478
 11
-3.3120866989712514
 21
 26.459911708620478
  0
LINE
  8
0
  6
CONTINUOUS
 62
     7
 10
-0.3473320406968359
 20
 29.424666366894893
 11
-0.0728129878585069
 21
 29.699185419733237
  0
LINE
  8
0
  6
CONTINUOUS
 62
     7
 10
-3.6022333359341392
 20
 26.084911708620478
 11
-3.2272333359341392
 21
 26.459911708620478
  0
LINE
  8
0
  6
CONTINUOUS
 62
     7
 10
-0.3162735542287098
 20
 29.370871490325907
 11
-0.0417545013903666
 21
 29.64539054316425
  0
LINE
  8
0
  6
CONTINUOUS
 62
     7
 10
-3.5173799728970412
 20
 26.084911708620478
 11
-3.1423799728970412
 21
 26.459911708620478
  0
LINE
  8
0
  6
CONTINUOUS
 62
     7
 10
-0.2852150677605696
 20
 29.317076613756921
 11
-0.0106960149222406
 21
 29.591595666595264
  0
LINE
  8
0
  6
CONTINUOUS
 62
     7
 10
-3.432526609859929
 20
 26.084911708620478
 11
-3.057526609859929
 21
 26.459911708620478
  0
LINE
  8
0
  6
CONTINUOUS
 62
     7
 10
-0.2541565812924436
 20
 29.263281737187935
 11
 0.0203624715458854
 21
 29.537800790026278
  0
LINE
  8
0
  6
CONTINUOUS
 62
     7
 10
-3.3476732468228168
 20
 26.084911708620478
 11
-2.9726732468228168
 21
 26.459911708620478
  0
LINE
  8
0
  6
CONTINUOUS
 62
     7
 10
-0.2230980948243175
 20
 29.209486860618977
 11
 0.0514209580139973
 21
 29.484005913457292
  0
LINE
  8
0
  6
CONTINUOUS
 62
     7
 10
-3.2628198837857045
 20
 26.084911708620478
 11
-2.8878198837857045
 21
 26.459911708620478
  0
LINE
  8
0
  6
CONTINUOUS
 62
     7
 10
-0.1920396083562057
 20
 29.155691984049962
 11
 0.0824794444821233
 21
 29.430211036888306
  0
LINE
  8
0
  6
CONTINUOUS
 62
     7
 10
-3.1779665207485923
 20
 26.084911708620478
 11
-2.8029665207485923
 21
 26.459911708620478
  0
LINE
  8
0
  6
CONTINUOUS
 62
     7
 10
-0.1609811218880797
 20
 29.101897107480976
 11
 0.1135379309502493
 21
 29.376416160319319
  0
LINE
  8
0
  6
CONTINUOUS
 62
     7
 10
-3.0931131577114943
 20
 26.084911708620478
 11
-2.7181131577114943
 21
 26.459911708620478
  0
LINE
  8
0
  6
CONTINUOUS
 62
     7
 10
-0.1299226354199536
 20
 29.048102230912018
 11
 0.1445964174183896
 21
 29.322621283750333
  0
LINE
  8
0
  6
CONTINUOUS
 62
     7
 10
-3.0082597946743821
 20
 26.084911708620478
 11
-2.6332597946743821
 21
 26.459911708620478
  0
LINE
  8
0
  6
CONTINUOUS
 62
     7
 10
-0.0988641489518134
 20
 28.994307354343032
 11
 0.1756549038865156
 21
 29.268826407181347
  0
LINE
  8
0
  6
CONTINUOUS
 62
     7
 10
-2.9234064316372699
 20
 26.084911708620478
 11
-2.5484064316372699
 21
 26.459911708620478
  0
LINE
  8
0
  6
CONTINUOUS
 62
     7
 10
-0.0678056624836874
 20
 28.940512477774046
 11
 0.2067133903546274
 21
 29.215031530612361
  0
LINE
  8
0
  6
CONTINUOUS
 62
     7
 10
-2.8385530686001577
 20
 26.084911708620478
 11
-2.4635530686001577
 21
 26.459911708620478
  0
LINE
  8
0
  6
CONTINUOUS
 62
     7
 10
-0.0367471760155613
 20
 28.88671760120506
 11
 0.2377718768227535
 21
 29.161236654043375
  0
LINE
  8
0
  6
CONTINUOUS
 62
     7
 10
-2.7536997055630454
 20
 26.084911708620478
 11
-2.3786997055630454
 21
 26.459911708620478
  0
LINE
  8
0
  6
CONTINUOUS
 62
     7
 10
-0.0056886895474495
 20
 28.832922724636074
 11
 0.2688303632908795
 21
 29.107441777474389
  0
LINE
  8
0
  6
CONTINUOUS
 62
     7
 10
-2.6688463425259474
 20
 26.084911708620478
 11
-2.2938463425259474
 21
 26.459911708620478
  0
LINE
  8
0
  6
CONTINUOUS
 62
     7
 10
 0.0253697969206765
 20
 28.779127848067088
 11
 0.2998888497590055
 21
 29.053646900905431
  0
LINE
  8
0
  6
CONTINUOUS
 62
     7
 10
-2.5839929794888352
 20
 26.084911708620478
 11
-2.2089929794888352
 21
 26.459911708620478
  0
LINE
  8
0
  6
CONTINUOUS
 62
     7
 10
 0.0564282833888026
 20
 28.725332971498101
 11
 0.3309473362271458
 21
 28.999852024336445
  0
LINE
  8
0
  6
CONTINUOUS
 62
     7
 10
-2.499139616451723
 20
 26.084911708620478
 11
-2.124139616451723
 21
 26.459911708620478
  0
LINE
  8
0
  6
CONTINUOUS
 62
     7
 10
 0.0874867698569428
 20
 28.671538094929144
 11
 0.3620058226952576
 21
 28.94605714776743
  0
LINE
  8
0
  6
CONTINUOUS
 62
     7
 10
-2.4142862534146108
 20
 26.084911708620478
 11
-2.0392862534146108
 21
 26.459911708620478
  0
LINE
  8
0
  6
CONTINUOUS
 62
     7
 10
 0.1185452563250689
 20
 28.617743218360157
 11
 0.3930643091633836
 21
 28.892262271198472
  0
LINE
  8
0
  6
CONTINUOUS
 62
     7
 10
-2.3294328903774986
 20
 26.084911708620478
 11
-1.9544328903774986
 21
 26.459911708620478
  0
LINE
  8
0
  6
CONTINUOUS
 62
     7
 10
 0.1496037427931807
 20
 28.563948341791143
 11
 0.4241227956315097
 21
 28.838467394629486
  0
LINE
  8
0
  6
CONTINUOUS
 62
     7
 10
-2.2445795273404006
 20
 26.084911708620478
 11
-1.8695795273404006
 21
 26.459911708620478
  0
LINE
  8
0
  6
CONTINUOUS
 62
     7
 10
 0.1806622292613067
 20
 28.510153465222185
 11
 0.4551812820996357
 21
 28.7846725180605
  0
LINE
  8
0
  6
CONTINUOUS
 62
     7
 10
-2.1597261643032883
 20
 26.084911708620478
 11
-1.7847261643032883
 21
 26.459911708620478
  0
LINE
  8
0
  6
CONTINUOUS
 62
     7
 10
 0.2117207157294327
 20
 28.456358588653199
 11
 0.4862397685677617
 21
 28.730877641491514
  0
LINE
  8
0
  6
CONTINUOUS
 62
     7
 10
-2.0748728012661761
 20
 26.084911708620478
 11
-1.6998728012661761
 21
 26.459911708620478
  0
LINE
  8
0
  6
CONTINUOUS
 62
     7
 10
 0.2427792021975588
 20
 28.402563712084213
 11
 0.5172982550358736
 21
 28.677082764922528
  0
LINE
  8
0
  6
CONTINUOUS
 62
     7
 10
-1.9900194382290639
 20
 26.084911708620478
 11
-1.6150194382290639
 21
 26.459911708620478
  0
LINE
  8
0
  6
CONTINUOUS
 62
     7
 10
 0.273837688665699
 20
 28.348768835515227
 11
 0.5483567415040138
 21
 28.623287888353541
  0
LINE
  8
0
  6
CONTINUOUS
 62
     7
 10
-1.9051660751919517
 20
 26.084911708620478
 11
-1.5301660751919517
 21
 26.459911708620478
  0
LINE
  8
0
  6
CONTINUOUS
 62
     7
 10
 0.3048961751338108
 20
 28.29497395894624
 11
 0.5794152279721399
 21
 28.569493011784555
  0
LINE
  8
0
  6
CONTINUOUS
 62
     7
 10
-1.8203127121548537
 20
 26.084911708620478
 11
-1.4453127121548537
 21
 26.459911708620478
  0
LINE
  8
0
  6
CONTINUOUS
 62
     7
 10
 0.3359546616019369
 20
 28.241179082377254
 11
 0.6104737144402659
 21
 28.515698135215597
  0
LINE
  8
0
  6
CONTINUOUS
 62
     7
 10
-1.7354593491177415
 20
 26.084911708620478
 11
-1.3604593491177415
 21
 26.459911708620478
  0
LINE
  8
0
  6
CONTINUOUS
 62
     7
 10
 0.3670131480700629
 20
 28.187384205808268
 11
 0.6415322009083919
 21
 28.461903258646611
  0
LINE
  8
0
  6
CONTINUOUS
 62
     7
 10
-1.6506059860806293
 20
 26.084911708620478
 11
-1.2756059860806293
 21
 26.459911708620478
  0
LINE
  8
0
  6
CONTINUOUS
 62
     7
 10
 0.398071634538189
 20
 28.133589329239282
 11
 0.6725906873765037
 21
 28.408108382077597
  0
LINE
  8
0
  6
CONTINUOUS
 62
     7
 10
-1.565752623043517
 20
 26.084911708620478
 11
-1.190752623043517
 21
 26.459911708620478
  0
LINE
  8
0
  6
CONTINUOUS
 62
     7
 10
 0.429130121006315
 20
 28.079794452670296
 11
 0.7036491738446298
 21
 28.354313505508639
  0
LINE
  8
0
  6
CONTINUOUS
 62
     7
 10
-1.4808992600064048
 20
 26.084911708620478
 11
-1.1058992600064048
 21
 26.459911708620478
  0
LINE
  8
0
  6
CONTINUOUS
 62
     7
 10
 0.4601886074744268
 20
 28.025999576101309
 11
 0.73470766031277
 21
 28.300518628939653
  0
LINE
  8
0
  6
CONTINUOUS
 62
     7
 10
-1.3960458969693068
 20
 26.084911708620478
 11
-1.0210458969693068
 21
 26.459911708620478
  0
LINE
  8
0
  6
CONTINUOUS
 62
     7
 10
 0.4912470939425671
 20
 27.972204699532323
 11
 0.7657661467808961
 21
 28.246723752370666
  0
LINE
  8
0
  6
CONTINUOUS
 62
     7
 10
-1.3111925339321946
 20
 26.084911708620478
 11
-0.9361925339321946
 21
 26.459911708620478
  0
LINE
  8
0
  6
CONTINUOUS
 62
     7
 10
 0.5223055804106931
 20
 27.918409822963337
 11
 0.7968246332490079
 21
 28.19292887580168
  0
LINE
  8
0
  6
CONTINUOUS
 62
     7
 10
-1.2263391708950824
 20
 26.084911708620478
 11
-0.8513391708950824
 21
 26.459911708620478
  0
LINE
  8
0
  6
CONTINUOUS
 62
     7
 10
 0.5533640668788191
 20
 27.864614946394379
 11
 0.8278831197171339
 21
 28.139133999232694
  0
LINE
  8
0
  6
CONTINUOUS
 62
     7
 10
-1.1414858078579702
 20
 26.084911708620478
 11
-0.7664858078579702
 21
 26.459911708620478
  0
LINE
  8
0
  6
CONTINUOUS
 62
     7
 10
 0.5844225533469452
 20
 27.810820069825393
 11
 0.8589416061852599
 21
 28.085339122663708
  0
LINE
  8
0
  6
CONTINUOUS
 62
     7
 10
-1.0566324448208579
 20
 26.084911708620478
 11
-0.6816324448208579
 21
 26.459911708620478
  0
LINE
  8
0
  6
CONTINUOUS
 62
     7
 10
 0.6154810398150712
 20
 27.757025193256407
 11
 0.890000092653386
 21
 28.031544246094722
  0
LINE
  8
0
  6
CONTINUOUS
 62
     7
 10
-0.9717790817837599
 20
 26.084911708620478
 11
-0.5967790817837599
 21
 26.459911708620478
  0
LINE
  8
0
  6
CONTINUOUS
 62
     7
 10
 0.646539526283183
 20
 27.703230316687421
 11
 0.9210585791215262
 21
 27.977749369525736
  0
LINE
  8
0
  6
CONTINUOUS
 62
     7
 10
-0.8869257187466477
 20
 26.084911708620478
 11
-0.5119257187466477
 21
 26.459911708620478
  0
LINE
  8
0
  6
CONTINUOUS
 62
     7
 10
 0.6775980127513233
 20
 27.649435440118435
 11
 0.9521170655896381
 21
 27.923954492956749
  0
LINE
  8
0
  6
CONTINUOUS
 62
     7
 10
-0.8020723557095355
 20
 26.084911708620478
 11
-0.4270723557095355
 21
 26.459911708620478
  0
LINE
  8
0
  6
CONTINUOUS
 62
     7
 10
 0.7086564992194493
 20
 27.595640563549448
 11
 0.9831755520577641
 21
 27.870159616387763
  0
LINE
  8
0
  6
CONTINUOUS
 62
     7
 10
-0.7172189926724233
 20
 26.084911708620478
 11
-0.3422189926724233
 21
 26.459911708620478
  0
LINE
  8
0
  6
CONTINUOUS
 62
     7
 10
 0.7397149856875753
 20
 27.541845686980462
 11
 1.0142340385258759
 21
 27.816364739818777
  0
LINE
  8
0
  6
CONTINUOUS
 62
     7
 10
-0.6323656296353111
 20
 26.084911708620478
 11
-0.2573656296353111
 21
 26.459911708620478
  0
LINE
  8
0
  6
CONTINUOUS
 62
     7
 10
 0.7707734721557014
 20
 27.488050810411504
 11
 1.0452925249940161
 21
 27.762569863249791
  0
LINE
  8
0
  6
CONTINUOUS
 62
     7
 10
-0.5475122665982131
 20
 26.084911708620478
 11
-0.1725122665982131
 21
 26.459911708620478
  0
LINE
  8
0
  6
CONTINUOUS
 62
     7
 10
 0.8018319586238132
 20
 27.43425593384249
 11
 1.0763510114621564
 21
 27.708774986680833
  0
LINE
  8
0
  6
CONTINUOUS
 62
     7
 10
-0.4626589035611008
 20
 26.084911708620478
 11
-0.0876589035611008
 21
 26.459911708620478
  0
LINE
  8
0
  6
CONTINUOUS
 62
     7
 10
 0.8328904450919392
 20
 27.380461057273504
 11
 1.1074094979302682
 21
 27.654980110111818
  0
LINE
  8
0
  6
CONTINUOUS
 62
     7
 10
-0.3778055405239886
 20
 26.084911708620478
 11
-0.0028055405239886
 21
 26.459911708620478
  0
LINE
  8
0
  6
CONTINUOUS
 62
     7
 10
 0.8639489315600795
 20
 27.326666180704546
 11
 1.13846798439838
 21
 27.601185233542832
  0
LINE
  8
0
  6
CONTINUOUS
 62
     7
 10
-0.2929521774868764
 20
 26.084911708620478
 11
 0.0820478225131236
 21
 26.459911708620478
  0
LINE
  8
0
  6
CONTINUOUS
 62
     7
 10
 0.8950074180282055
 20
 27.27287130413556
 11
 1.1695264708665203
 21
 27.547390356973875
  0
LINE
  8
0
  6
CONTINUOUS
 62
     7
 10
-0.2080988144497642
 20
 26.084911708620478
 11
 0.1669011855502358
 21
 26.459911708620478
  0
LINE
  8
0
  6
CONTINUOUS
 62
     7
 10
 0.9260659044963315
 20
 27.219076427566574
 11
 1.2005849573346605
 21
 27.493595480404888
  0
LINE
  8
0
  6
CONTINUOUS
 62
     7
 10
-0.1232454514126662
 20
 26.084911708620478
 11
 0.2517545485873338
 21
 26.459911708620478
  0
LINE
  8
0
  6
CONTINUOUS
 62
     7
 10
 0.9571243909644434
 20
 27.165281550997587
 11
 1.2316434438027724
 21
 27.439800603835902
  0
LINE
  8
0
  6
CONTINUOUS
 62
     7
 10
-0.038392088375554
 20
 26.084911708620478
 11
 0.336607911624446
 21
 26.459911708620478
  0
LINE
  8
0
  6
CONTINUOUS
 62
     7
 10
 0.9881828774325694
 20
 27.111486674428601
 11
 1.2627019302708842
 21
 27.386005727266916
  0
LINE
  8
0
  6
CONTINUOUS
 62
     7
 10
 0.0464612746615582
 20
 26.084911708620478
 11
 0.4214612746615583
 21
 26.459911708620478
  0
LINE
  8
0
  6
CONTINUOUS
 62
     7
 10
 1.0192413639007096
 20
 27.057691797859615
 11
 1.293760416738996
 21
 27.33221085069793
  0
LINE
  8
0
  6
CONTINUOUS
 62
     7
 10
 0.1313146376986705
 20
 26.084911708620478
 11
 0.5063146376986705
 21
 26.459911708620478
  0
LINE
  8
0
  6
CONTINUOUS
 62
     7
 10
 1.0502998503688215
 20
 27.003896921290629
 11
 1.3248189032071647
 21
 27.278415974128944
  0
LINE
  8
0
  6
CONTINUOUS
 62
     7
 10
 0.2161680007357827
 20
 26.084911708620478
 11
 0.5911680007357827
 21
 26.459911708620478
  0
LINE
  8
0
  6
CONTINUOUS
 62
     7
 10
 1.0813583368369617
 20
 26.950102044721643
 11
 1.3558773896752765
 21
 27.224621097559957
  0
LINE
  8
0
  6
CONTINUOUS
 62
     7
 10
 0.3010213637728807
 20
 26.084911708620478
 11
 0.6760213637728807
 21
 26.459911708620478
  0
LINE
  8
0
  6
CONTINUOUS
 62
     7
 10
 1.1124168233050735
 20
 26.896307168152656
 11
 1.3869358761433883
 21
 27.170826220991
  0
LINE
  8
0
  6
CONTINUOUS
 62
     7
 10
 0.3858747268099929
 20
 26.084911708620478
 11
 0.7608747268099929
 21
 26.459911708620478
  0
LINE
  8
0
  6
CONTINUOUS
 62
     7
 10
 1.1434753097732138
 20
 26.84251229158367
 11
 1.4179943626115001
 21
 27.117031344421985
  0
LINE
  8
0
  6
CONTINUOUS
 62
     7
 10
 0.4707280898471051
 20
 26.084911708620478
 11
 0.8457280898471051
 21
 26.459911708620478
  0
LINE
  8
0
  6
CONTINUOUS
 62
     7
 10
 1.1745337962413256
 20
 26.788717415014684
 11
 1.4490528490796404
 21
 27.063236467852999
  0
LINE
  8
0
  6
CONTINUOUS
 62
     7
 10
 0.5555814528842173
 20
 26.084911708620478
 11
 0.9305814528842173
 21
 26.459911708620478
  0
LINE
  8
0
  6
CONTINUOUS
 62
     7
 10
 1.2055922827094374
 20
 26.734922538445698
 11
 1.4801113355477806
 21
 27.009441591284041
  0
LINE
  8
0
  6
CONTINUOUS
 62
     7
 10
 0.6404348159213296
 20
 26.084911708620478
 11
 1.0154348159213438
 21
 26.459911708620478
  0
LINE
  8
0
  6
CONTINUOUS
 62
     7
 10
 1.2366507691776061
 20
 26.68112766187674
 11
 1.5111698220158924
 21
 26.955646714715055
  0
LINE
  8
0
  6
CONTINUOUS
 62
     7
 10
 0.7252881789584276
 20
 26.084911708620478
 11
 1.1002881789584418
 21
 26.459911708620478
  0
LINE
  8
0
  6
CONTINUOUS
 62
     7
 10
 1.2677092556457179
 20
 26.627332785307754
 11
 1.5422283084840327
 21
 26.901851838146069
  0
LINE
  8
0
  6
CONTINUOUS
 62
     7
 10
 0.8101415419955398
 20
 26.084911708620478
 11
 1.1851415419955398
 21
 26.459911708620478
  0
LINE
  8
0
  6
CONTINUOUS
 62
     7
 10
 1.2987677421138297
 20
 26.573537908738739
 11
 1.5732867949521445
 21
 26.848056961577083
  0
LINE
  8
0
  6
CONTINUOUS
 62
     7
 10
 0.894994905032652
 20
 26.084911708620478
 11
 1.2699949050326378
 21
 26.459911708620478
  0
LINE
  8
0
  6
CONTINUOUS
 62
     7
 10
 1.3298262285819415
 20
 26.519743032169782
 11
 1.6043452814202848
 21
 26.794262085008096
  0
LINE
  8
0
  6
CONTINUOUS
 62
     7
 10
 0.9798482680697642
 20
 26.084911708620478
 11
 1.3548482680697642
 21
 26.459911708620478
  0
LINE
  8
0
  6
CONTINUOUS
 62
     7
 10
 1.3608847150500818
 20
 26.465948155600795
 11
 1.6354037678883966
 21
 26.74046720843911
  0
LINE
  8
0
  6
CONTINUOUS
 62
     7
 10
 1.0647016311068906
 20
 26.084911708620478
 11
 1.6664622543565084
 21
 26.686672331870124
  0
LINE
  8
0
  6
CONTINUOUS
 62
     7
 10
 1.1495549941439887
 20
 26.084911708620478
 11
 1.697241997969746
 21
 26.632598712446235
  0
LINE
  8
0
  6
CONTINUOUS
 62
     7
 10
 1.2344083571810867
 20
 26.084911708620478
 11
 1.7220515551061677
 21
 26.572554906545559
  0
LINE
  8
0
  6
CONTINUOUS
 62
     7
 10
 1.3192617202181847
 20
 26.084911708620478
 11
 1.7369337109977661
 21
 26.502583699400088
  0
LINE
  8
0
  6
CONTINUOUS
 62
     7
 10
 1.4064874855808167
 20
 26.087284110945983
 11
 1.7369967883821911
 21
 26.417793413747386
  0
LINE
  8
0
  6
CONTINUOUS
 62
     7
 10
 1.5252148248940554
 20
 26.121158087222152
 11
 1.7031228121060789
 21
 26.299066074434119
  0
ARC
  8
0
  6
CONTINUOUS
 62
     3
 10
-1.7361110878225734
 20
 28.050336237003716
 40
 0.179982
 50
 180.00000307046903
 51
 0
  0
ARC
  8
0
  6
CONTINUOUS
 62
     3
 10
-1.7361110878225734
 20
 30.06013523700376
 40
 0.329967
 50
-4.2797832732897314
 51
-175.72021979717459
  0
LINE
  8
0
  6
CONTINUOUS
 62
     3
 10
-1.915591212995901
 20
 28.036904744466408
 11
-2.0651579839735579
 21
 30.035510834018691
  0
LINE
  8
0
  6
CONTINUOUS
 62
     3
 10
-1.5566309626492885
 20
 28.036904744466408
 11
-1.4070641916715463
 21
 30.035510834018691
  0
LINE
  8
0
  6
CONTINUOUS
 62
     7
 10
-1.9457976291198182
 20
 28.440542041803109
 11
-1.4925019159092674
 21
 28.893837755013646
  0
LINE
  8
0
  6
CONTINUOUS
 62
     7
 10
-1.9505239688848182
 20
 28.503698392467793
 11
-1.4870109592211893
 21
 28.967211402131436
  0
LINE
  8
0
  6
CONTINUOUS
 62
     7
 10
-1.9552503086498323
 20
 28.566854743132449
 11
-1.4815200025331112
 21
 29.040585049249199
  0
LINE
  8
0
  6
CONTINUOUS
 62
     7
 10
-1.9599766484148748
 20
 28.630011093797133
 11
-1.4760290458450189
 21
 29.113958696366961
  0
LINE
  8
0
  6
CONTINUOUS
 62
     7
 10
-1.9647029881798748
 20
 28.693167444461789
 11
-1.4705380891569408
 21
 29.187332343484751
  0
LINE
  8
0
  6
CONTINUOUS
 62
     7
 10
-1.9694293279448889
 20
 28.756323795126473
 11
-1.4650471324688628
 21
 29.260705990602514
  0
LINE
  8
0
  6
CONTINUOUS
 62
     7
 10
-1.974155667709903
 20
 28.819480145791157
 11
-1.4595561757807989
 21
 29.334079637720276
  0
LINE
  8
0
  6
CONTINUOUS
 62
     7
 10
-1.9788820074749172
 20
 28.882636496455813
 11
-1.4540652190927066
 21
 29.407453284838038
  0
LINE
  8
0
  6
CONTINUOUS
 62
     7
 10
-1.9836083472399171
 20
 28.945792847120497
 11
-1.4485742624046285
 21
 29.4808269319558
  0
LINE
  8
0
  6
CONTINUOUS
 62
     7
 10
-1.9883346870049454
 20
 29.008949197785181
 11
-1.4430833057165504
 21
 29.554200579073562
  0
LINE
  8
0
  6
CONTINUOUS
 62
     7
 10
-1.9930610267699596
 20
 29.072105548449837
 11
-1.4375923490284723
 21
 29.627574226191324
  0
LINE
  8
0
  6
CONTINUOUS
 62
     7
 10
-1.9977873665349737
 20
 29.135261899114521
 11
-1.4321013923403942
 21
 29.700947873309115
  0
LINE
  8
0
  6
CONTINUOUS
 62
     7
 10
-2.0025137062999736
 20
 29.198418249779206
 11
-1.4266104356523162
 21
 29.774321520426849
  0
LINE
  8
0
  6
CONTINUOUS
 62
     7
 10
-2.0072400460650019
 20
 29.261574600443861
 11
-1.4211194789642381
 21
 29.847695167544639
  0
LINE
  8
0
  6
CONTINUOUS
 62
     7
 10
-2.0119663858300019
 20
 29.324730951108545
 11
-1.41562852227616
 21
 29.921068814662402
  0
LINE
  8
0
  6
CONTINUOUS
 62
     7
 10
-2.0166927255950302
 20
 29.387887301773201
 11
-1.4101375655880819
 21
 29.994442461780164
  0
LINE
  8
0
  6
CONTINUOUS
 62
     7
 10
-2.0214190653600443
 20
 29.451043652437885
 11
-1.4062016715088337
 21
 30.06626104628911
  0
LINE
  8
0
  6
CONTINUOUS
 62
     7
 10
-2.0261454051250585
 20
 29.51420000310257
 11
-1.4130516436265683
 21
 30.127293764601045
  0
LINE
  8
0
  6
CONTINUOUS
 62
     7
 10
-2.0308717448900584
 20
 29.577356353767254
 11
-1.4285570266214425
 21
 30.179670614272208
  0
LINE
  8
0
  6
CONTINUOUS
 62
     7
 10
-2.0355980846550725
 20
 29.640512704431909
 11
-1.450585913623252
 21
 30.225524417700097
  0
LINE
  8
0
  6
CONTINUOUS
 62
     7
 10
-2.0403244244201151
 20
 29.703669055096565
 11
-1.4781299539815453
 21
 30.265863067771459
  0
LINE
  8
0
  6
CONTINUOUS
 62
     7
 10
-2.045050764185115
 20
 29.766825405761249
 11
-1.5107348009639683
 21
 30.301140911218749
  0
LINE
  8
0
  6
CONTINUOUS
 62
     7
 10
-2.0497771039501291
 20
 29.829981756425934
 11
-1.548312043615562
 21
 30.331446358996839
  0
LINE
  8
0
  6
CONTINUOUS
 62
     7
 10
-2.0545034437151433
 20
 29.893138107090589
 11
-1.5911082894977628
 21
 30.356533261307998
  0
LINE
  8
0
  6
CONTINUOUS
 62
     7
 10
-2.0592297834801574
 20
 29.956294457755273
 11
-1.6397934492763202
 21
 30.375730791959125
  0
LINE
  8
0
  6
CONTINUOUS
 62
     7
 10
-2.0639561232451573
 20
 30.019450808419958
 11
-1.6957785019348766
 21
 30.387627971966577
  0
LINE
  8
0
  6
CONTINUOUS
 62
     7
 10
-2.0650434090169743
 20
 30.086245755314177
 11
-1.7622216391681835
 21
 30.389067525162954
  0
LINE
  8
0
  6
CONTINUOUS
 62
     7
 10
-2.0461771632529295
 20
 30.172994691507892
 11
-1.8489705753619123
 21
 30.370201279398923
  0
LINE
  8
0
  6
CONTINUOUS
 62
     7
 10
-1.9410712893548041
 20
 28.377385691138453
 11
-1.4979928725973313
 21
 28.820464107895912
  0
LINE
  8
0
  6
CONTINUOUS
 62
     7
 10
-1.93634494958979
 20
 28.314229340473769
 11
-1.5034838292854236
 21
 28.747090460778121
  0
LINE
  8
0
  6
CONTINUOUS
 62
     7
 10
-1.9316186098247758
 20
 28.251072989809085
 11
-1.5089747859735017
 21
 28.673716813660359
  0
LINE
  8
0
  6
CONTINUOUS
 62
     7
 10
-1.9268922700597759
 20
 28.187916639144429
 11
-1.5144657426615797
 21
 28.600343166542597
  0
LINE
  8
0
  6
CONTINUOUS
 62
     7
 10
-1.9221659302947334
 20
 28.124760288479745
 11
-1.5199566993496578
 21
 28.526969519424835
  0
LINE
  8
0
  6
CONTINUOUS
 62
     7
 10
-1.9174395905297335
 20
 28.061603937815061
 11
-1.5254476560377359
 21
 28.453595872307073
  0
LINE
  8
0
  6
CONTINUOUS
 62
     7
 10
-1.9094112169337851
 20
 28.001749163217664
 11
-1.530938612725814
 21
 28.380222225189311
  0
LINE
  8
0
  6
CONTINUOUS
 62
     7
 10
-1.8885803054038295
 20
 27.954697384317949
 11
-1.5364295694138921
 21
 28.306848578071548
  0
LINE
  8
0
  6
CONTINUOUS
 62
     7
 10
-1.8577316489555304
 20
 27.91766335033655
 11
-1.5419205261019702
 21
 28.233474930953758
  0
LINE
  8
0
  6
CONTINUOUS
 62
     7
 10
-1.8176358953389045
 20
 27.889876413523506
 11
-1.5474114827900483
 21
 28.160101283835996
  0
LINE
  8
0
  6
CONTINUOUS
 62
     7
 10
-1.7666635533864881
 20
 27.87296606504621
 11
-1.5529024394781406
 21
 28.086727636718233
  0
LINE
  8
0
  6
CONTINUOUS
 62
     7
 10
-1.6971182698928491
 20
 27.874628658110179
 11
-1.5604040414759002
 21
 28.011342886527142
  0
CIRCLE
  8
0
  6
CONTINUOUS
 62
     3
 10
-1.7361110878225734
 20
 27.360405237003686
 40
 0.329967
  0
LINE
  8
0
  6
CONTINUOUS
 62
     7
 10
-1.9694332176434646
 20
 27.12708315005683
 11
-1.5027894111080915
 21
 27.593726956592189
  0
LINE
  8
0
  6
CONTINUOUS
 62
     7
 10
-2.0008926348424385
 20
 27.163506423287526
 11
-1.5392126843388017
 21
 27.625186373791177
  0
LINE
  8
0
  6
CONTINUOUS
 62
     7
 10
-2.0272226946597929
 20
 27.205059053899856
 11
-1.5807653149511314
 21
 27.651516433608531
  0
LINE
  8
0
  6
CONTINUOUS
 62
     7
 10
-2.0478662242239754
 20
 27.252298214765386
 11
-1.6280044758166614
 21
 27.672159963172714
  0
LINE
  8
0
  6
CONTINUOUS
 62
     7
 10
-2.0616314477020214
 20
 27.306415681717009
 11
-1.6821219427682994
 21
 27.685925186650746
  0
LINE
  8
0
  6
CONTINUOUS
 62
     7
 10
-2.0659390271869515
 20
 27.369990792661763
 11
-1.7456970537130392
 21
 27.690232766135676
  0
LINE
  8
0
  6
CONTINUOUS
 62
     7
 10
-2.0536302110481959
 20
 27.450182299230203
 11
-1.8258885602814789
 21
 27.677923949996948
  0
LINE
  8
0
  6
CONTINUOUS
 62
     7
 10
-1.9330099507167038
 20
 27.095623726553907
 11
-1.4713299876051824
 21
 27.557303689665428
  0
LINE
  8
0
  6
CONTINUOUS
 62
     7
 10
-1.8914573268382018
 20
 27.06929366000271
 11
-1.4449999210539861
 21
 27.515751065786912
  0
LINE
  8
0
  6
CONTINUOUS
 62
     7
 10
-1.8442181737303489
 20
 27.048650122680879
 11
-1.4243563837321407
 21
 27.468511912679087
  0
LINE
  8
0
  6
CONTINUOUS
 62
     7
 10
-1.790100716658694
 20
 27.034884889322836
 11
-1.4105911503741115
 21
 27.414394455607418
  0
LINE
  8
0
  6
CONTINUOUS
 62
     7
 10
-1.7265256204792028
 20
 27.030577295072629
 11
-1.4062835561239044
 21
 27.350819359427941
  0
LINE
  8
0
  6
CONTINUOUS
 62
     7
 10
-1.6463341451465201
 20
 27.042886079975641
 11
-1.418592341026903
 21
 27.270627884095244
  0
ENDBLK
  8
0
  0
ENDSEC
  0
SECTION
  2
ENTITIES
  0
LINE
  8
0
  6
CONTINUOUS
 62
     3
 10
-15.519995231628421
 20
 35.660010172032102
 11
 26.520004768371585
 21
 35.660010172032102
  0
LINE
  8
0
  6
CONTINUOUS
 62
     3
 10
-15.519995231628421
 20
 35.660010172032102
 11
 26.520004768371585
 21
 35.660010172032102
  0
LINE
  8
0
  6
CONTINUOUS
 62
     3
 10
 26.520004768371585
 20
 35.660010172032102
 11
 26.520004768371585
 21
-13.359989827967903
  0
LINE
  8
0
  6
CONTINUOUS
 62
     3
 10
 26.520004768371585
 20
-13.359989827967903
 11
-15.519995231628421
 21
-13.359989827967903
  0
LINE
  8
0
  6
CONTINUOUS
 62
     3
 10
-15.519995231628421
 20
-13.359989827967903
 11
-15.519995231628421
 21
 35.660010172032102
  0
LINE
  8
0
  6
CONTINUOUS
 62
     2
 10
-13.499995231628411
 20
 33.660010172032102
 11
 24.500004768371575
 21
 33.660010172032102
  0
LINE
  8
0
  6
CONTINUOUS
 62
     2
 10
 24.500004768371561
 20
 33.660010172032102
 11
 24.500004768371575
 21
-11.839989827967901
  0
LINE
  8
0
  6
CONTINUOUS
 62
     2
 10
 24.500004768371561
 20
-11.839989827967901
 11
-13.499995231628411
 21
-11.839989827967901
  0
LINE
  8
0
  6
CONTINUOUS
 62
     2
 10
-13.499995231628411
 20
-11.839989827967901
 11
-13.499995231628411
 21
 33.660010172032102
  0
LINE
  8
0
  6
CONTINUOUS
 62
     2
 10
-13.499995231628411
 20
 24.64001017203211
 11
 24.500004768371575
 21
 24.64001017203211
  0
LINE
  8
0
  6
CONTINUOUS
 62
     2
 10
-13.499995231628411
 20
 3.2600101720320858
 11
 24.500004768371575
 21
 3.2600101720320858
  0
TEXT
  8
0
  6
CONTINUOUS
 62
     2
 10
-10.339995231628418
 20
-3.1699898279679211
 11
 21.700004768371581
 21
-3.1699898279679211
 40
 4.5
 41
 0.8
  1
感電の恐れあり
 50
 0
 72
  5
  0
TEXT
  8
0
  6
CONTINUOUS
 62
     2
 10
-10.339995231628418
 20
-8.869989827967931
 11
 21.700004768371581
 21
-8.869989827967931
 40
 4.5
 41
 0.8
  1
保護板を外すな
 50
 0
 72
  5
  0
TEXT
  8
0
  6
CONTINUOUS
 62
     4
 10
 3.1590018613913213
 20
 25.770573332710399
 11
 17.399001861391323
 21
 25.770573332710402
 40
 7
 41
 0.8
  1
警告
 50
 0
 72
  5
  0
LINE
  8
0
  6
CONTINUOUS
 62
     7
 10
 24.500004768371561
 20
 43.535274442645203
 11
 26.520004768371585
 21
 43.535274442645203
  0
TEXT
  8
0
  6
CONTINUOUS
 62
     7
 10
 28.10000476837158
 20
 44.535274442645196
 11
 29.860004768371581
 21
 44.535274442645196
 40
 2.2000000000000002
 41
 0.8
  1
２
 50
 0
 72
  5
  0
LINE
  8
0
  6
CONTINUOUS
 62
     7
 10
 31.620004768371579
 20
 43.535274442645203
 11
 26.520004768371585
 21
 43.535274442645203
  0
LINE
  8
0
  6
CONTINUOUS
 62
     7
 10
 26.520004768371585
 20
 43.535274442645203
 11
 29.41778224723879
 21
 42.758817307337644
  0
LINE
  8
0
  6
CONTINUOUS
 62
     7
 10
 26.520004768371585
 20
 43.535274442645203
 11
 29.41778224723879
 21
 44.311731577952763
  0
TEXT
  8
0
  6
CONTINUOUS
 62
     7
 10
 16.91085764334516
 20
-11.243940978054217
 11
 24.010857643345162
 21
-11.243940978054217
 40
 1
 41
 0.8
  1
Ｉ－４５７１０Ａ
 50
 0
 72
  5
  0
TEXT
  8
0
  6
CONTINUOUS
 62
     7
 10
-38.901496288710902
 20
 22.224936176260531
 11
-32.801496288710901
 21
 22.224936176260531
 40
 3.5000000000000004
 41
 0.8
  1
黒色
 50
 0
 72
  5
  0
LINE
  8
0
  6
CONTINUOUS
 62
     7
 10
-42.829191848964619
 20
 21.311088396133673
 11
-22.734054428245763
 21
 21.311088396133673
  0
LINE
  8
0
  6
CONTINUOUS
 62
     7
 10
-22.734054428245763
 20
 21.311088396133673
 11
-0.022277082755247
 21
 14.112128533314984
  0
LINE
  8
0
  6
CONTINUOUS
 62
     7
 10
-0.022277082755247
 20
 14.112128533314984
 11
-2.5499989352895618
 21
 15.727870541254521
  0
LINE
  8
0
  6
CONTINUOUS
 62
     7
 10
-0.022277082755247
 20
 14.112128533314984
 11
-3.0192194247207951
 21
 14.247541231885144
  0
TEXT
  8
0
  6
CONTINUOUS
 62
     7
 10
-43.265217218943462
 20
 17.991215246027963
 11
-25.685217218943457
 21
 17.991215246027959
 40
 2.2000000000000002
 41
 0.8
  1
マンセル（Ｎ１）
 50
 0
 72
  5
  0
LINE
  8
0
  6
CONTINUOUS
 62
     7
 10
-22.734054428245763
 20
 21.311088396133673
 11
 4.2619346061984178
 21
 16.41042959561825
  0
LINE
  8
0
  6
CONTINUOUS
 62
     7
 10
 4.2619346061984178
 20
 16.41042959561825
 11
 1.5494413242646372
 21
 17.691983416362469
  0
LINE
  8
0
  6
CONTINUOUS
 62
     7
 10
 4.2619346061984178
 20
 16.41042959561825
 11
 1.2720696060770287
 21
 16.164041119732865
  0
LINE
  8
0
  6
CONTINUOUS
 62
     7
 10
-22.734054428245763
 20
 21.311088396133673
 11
-13.499995231628411
 21
 10.910010172032095
  0
LINE
  8
0
  6
CONTINUOUS
 62
     7
 10
-13.499995231628411
 20
 10.910010172032095
 11
-14.843207569713183
 21
 13.592505393801714
  0
LINE
  8
0
  6
CONTINUOUS
 62
     7
 10
-13.499995231628411
 20
 10.910010172032095
 11
-16.004498849971327
 21
 12.56151301057257
  0
LINE
  8
0
  6
CONTINUOUS
 62
     7
 10
-22.734054428245763
 20
 21.311088396133673
 11
-3.8867093723379877
 21
 28.855156741552573
  0
LINE
  8
0
  6
CONTINUOUS
 62
     7
 10
-3.8867093723379877
 20
 28.855156741552573
 11
-6.8655137125696584
 21
 28.499172609017204
  0
LINE
  8
0
  6
CONTINUOUS
 62
     7
 10
-3.8867093723379877
 20
 28.855156741552573
 11
-6.2884375376142749
 21
 27.057463269316941
  0
TEXT
  8
0
  6
CONTINUOUS
 62
     7
 10
-38.901496288710902
 20
 1.4749361762604134
 11
-32.801496288710901
 21
 1.4749361762604136
 40
 3.5000000000000004
 41
 0.8
  1
黄色
 50
 0
 72
  5
  0
LINE
  8
0
  6
CONTINUOUS
 62
     7
 10
-42.829191848964619
 20
 0.5610883961335631
 11
-22.734054428245763
 21
 0.5610883961335631
  0
TEXT
  8
0
  6
CONTINUOUS
 62
     7
 10
-43.265217218943462
 20
-2.7587847539721566
 11
-34.725217218943463
 21
-2.7587847539721566
 40
 2.2000000000000002
 41
 0.8
  1
マンセル
 50
 0
 72
  5
  0
TEXT
  8
0
  6
CONTINUOUS
 62
     7
 10
-43.265217218943462
 20
-5.7587847539721544
 11
-23.865217218943457
 21
-5.7587847539721544
 40
 2.2000000000000002
 41
 0.8
  1
（２．５Ｙ８／１４）
 50
 0
 72
  5
  0
LINE
  8
0
  6
CONTINUOUS
 62
     7
 10
-22.734054428245763
 20
 0.5610883961335631
 11
 1.5057914768272012
 21
 9.4229662796260527
  0
LINE
  8
0
  6
CONTINUOUS
 62
     7
 10
 1.5057914768272012
 20
 9.4229662796260527
 11
-1.4824154695067078
 21
 9.1572234605663905
  0
LINE
  8
0
  6
CONTINUOUS
 62
     7
 10
 1.5057914768272012
 20
 9.4229662796260527
 11
-0.949200240933255
 21
 7.6987227742801387
  0
LINE
  8
0
  6
CONTINUOUS
 62
     7
 10
-22.734054428245763
 20
 0.5610883961335631
 11
-3.1410265939689914
 21
 27.549257006043884
  0
LINE
  8
0
  6
CONTINUOUS
 62
     7
 10
-3.1410265939689914
 20
 27.549257006043884
 11
-5.4717762300397279
 21
 25.660446233638101
  0
LINE
  8
0
  6
CONTINUOUS
 62
     7
 10
-3.1410265939689914
 20
 27.549257006043884
 11
-4.2151096024646932
 21
 24.7481240761634
  0
LINE
  8
0
  6
CONTINUOUS
 62
     7
 10
-15.519995231628421
 20
 37.660010172032102
 11
-15.519995231628421
 21
 49.535274442645218
  0
LINE
  8
0
  6
CONTINUOUS
 62
     7
 10
 26.520004768371585
 20
 37.660010172032102
 11
 26.520004768371585
 21
 49.535274442645218
  0
LINE
  8
0
  6
CONTINUOUS
 62
     7
 10
-15.519995231628421
 20
 48.535274442645218
 11
 26.520004768371585
 21
 48.535274442645218
  0
LINE
  8
0
  6
CONTINUOUS
 62
     7
 10
-15.519995231628421
 20
 48.535274442645218
 11
-12.622217752761216
 21
 47.758817307337658
  0
LINE
  8
0
  6
CONTINUOUS
 62
     7
 10
-15.519995231628421
 20
 48.535274442645218
 11
-12.622217752761216
 21
 49.311731577952777
  0
LINE
  8
0
  6
CONTINUOUS
 62
     7
 10
 26.520004768371585
 20
 48.535274442645218
 11
 23.62222728950438
 21
 49.311731577952777
  0
LINE
  8
0
  6
CONTINUOUS
 62
     7
 10
 26.520004768371585
 20
 48.535274442645218
 11
 23.62222728950438
 21
 47.758817307337658
  0
TEXT
  8
0
  6
CONTINUOUS
 62
     7
 10
 3.4900047683715654
 20
 49.535274442645211
 11
 7.5100047683715649
 21
 49.535274442645211
 40
 2.2000000000000002
 41
 0.8
  1
42
 50
 0
 72
  5
  0
LINE
  8
0
  6
CONTINUOUS
 62
     7
 10
-13.499995231628411
 20
 37.660010172032102
 11
-13.499995231628411
 21
 44.535274442645203
  0
LINE
  8
0
  6
CONTINUOUS
 62
     7
 10
 24.500004768371561
 20
 37.660010172032102
 11
 24.500004768371561
 21
 44.535274442645203
  0
LINE
  8
0
  6
CONTINUOUS
 62
     7
 10
-13.499995231628411
 20
 43.535274442645203
 11
 24.500004768371561
 21
 43.535274442645203
  0
LINE
  8
0
  6
CONTINUOUS
 62
     7
 10
-13.499995231628411
 20
 43.535274442645203
 11
-10.602217752761206
 21
 42.758817307337644
  0
LINE
  8
0
  6
CONTINUOUS
 62
     7
 10
-13.499995231628411
 20
 43.535274442645203
 11
-10.602217752761206
 21
 44.311731577952763
  0
LINE
  8
0
  6
CONTINUOUS
 62
     7
 10
 24.500004768371561
 20
 43.535274442645203
 11
 21.602227289504356
 21
 44.311731577952763
  0
LINE
  8
0
  6
CONTINUOUS
 62
     7
 10
 24.500004768371561
 20
 43.535274442645203
 11
 21.602227289504356
 21
 42.758817307337644
  0
TEXT
  8
0
  6
CONTINUOUS
 62
     7
 10
 3.4900047683715654
 20
 44.535274442645196
 11
 7.5100047683715649
 21
 44.535274442645196
 40
 2.2000000000000002
 41
 0.8
  1
38
 50
 0
 72
  5
  0
LINE
  8
0
  6
CONTINUOUS
 62
     7
 10
 28.020004768371585
 20
 33.660010172032102
 11
 49.605628447018539
 21
 33.660010172032102
  0
LINE
  8
0
  6
CONTINUOUS
 62
     7
 10
 28.020004768371585
 20
-11.839989827967901
 11
 49.605628447018539
 21
-11.839989827967901
  0
LINE
  8
0
  6
CONTINUOUS
 62
     7
 10
 48.605628447018539
 20
 33.660010172032102
 11
 48.605628447018539
 21
-11.839989827967901
  0
LINE
  8
0
  6
CONTINUOUS
 62
     7
 10
 48.605628447018539
 20
 33.660010172032102
 11
 47.829171311710979
 21
 30.762232693164897
  0
LINE
  8
0
  6
CONTINUOUS
 62
     7
 10
 48.605628447018539
 20
 33.660010172032102
 11
 49.382085582326098
 21
 30.762232693164897
  0
LINE
  8
0
  6
CONTINUOUS
 62
     7
 10
 48.605628447018539
 20
-11.839989827967901
 11
 49.382085582326098
 21
-8.9422123491006964
  0
LINE
  8
0
  6
CONTINUOUS
 62
     7
 10
 48.605628447018539
 20
-11.839989827967901
 11
 47.829171311710979
 21
-8.9422123491006964
  0
TEXT
  8
0
  6
CONTINUOUS
 62
     7
 10
 47.605628447018546
 20
 6.6400101720320919
 11
 47.605628447018546
 21
 15.180010172032091
 40
 2.2000000000000002
 41
 0.8
  1
45.5
 50
 90.000001535234517
 72
  5
  0
LINE
  8
0
  6
CONTINUOUS
 62
     7
 10
 28.020004768371585
 20
 35.660010172032102
 11
 54.605628447018518
 21
 35.660010172032102
  0
LINE
  8
0
  6
CONTINUOUS
 62
     7
 10
 28.020004768371585
 20
-13.839989827967901
 11
 54.605628447018518
 21
-13.839989827967901
  0
LINE
  8
0
  6
CONTINUOUS
 62
     7
 10
 53.605628447018532
 20
 35.660010172032102
 11
 53.605628447018532
 21
-13.839989827967901
  0
LINE
  8
0
  6
CONTINUOUS
 62
     7
 10
 53.605628447018532
 20
 35.660010172032102
 11
 52.829171311710972
 21
 32.762232693164897
  0
LINE
  8
0
  6
CONTINUOUS
 62
     7
 10
 53.605628447018532
 20
 35.660010172032102
 11
 54.382085582326091
 21
 32.762232693164897
  0
LINE
  8
0
  6
CONTINUOUS
 62
     7
 10
 53.605628447018532
 20
-13.839989827967901
 11
 54.382085582326091
 21
-10.942212349100696
  0
LINE
  8
0
  6
CONTINUOUS
 62
     7
 10
 53.605628447018532
 20
-13.839989827967901
 11
 52.829171311710972
 21
-10.942212349100696
  0
TEXT
  8
0
  6
CONTINUOUS
 62
     7
 10
 52.605628447018532
 20
 6.6400101720320919
 11
 52.605628447018532
 21
 15.180010172032091
 40
 2.2000000000000002
 41
 0.8
  1
49.5
 50
 90.000001535234517
 72
  5
  0
LINE
  8
0
  6
CONTINUOUS
 62
     7
 10
 28.020004768371585
 20
 24.64001017203211
 11
 44.605628447018553
 21
 24.64001017203211
  0
LINE
  8
0
  6
CONTINUOUS
 62
     7
 10
 43.605628447018553
 20
 24.64001017203211
 11
 43.605628447018553
 21
 33.660010172032102
  0
LINE
  8
0
  6
CONTINUOUS
 62
     7
 10
 43.605628447018553
 20
 24.64001017203211
 11
 44.382085582326113
 21
 27.537787650899315
  0
LINE
  8
0
  6
CONTINUOUS
 62
     7
 10
 43.605628447018553
 20
 24.64001017203211
 11
 42.829171311710994
 21
 27.537787650899315
  0
LINE
  8
0
  6
CONTINUOUS
 62
     7
 10
 43.605628447018553
 20
 33.660010172032102
 11
 42.829171311710994
 21
 30.762232693164897
  0
LINE
  8
0
  6
CONTINUOUS
 62
     7
 10
 43.605628447018553
 20
 33.660010172032102
 11
 44.382085582326113
 21
 30.762232693164897
  0
TEXT
  8
0
  6
CONTINUOUS
 62
     7
 10
 42.605628447018532
 20
 28.270010172032098
 11
 42.605628447018532
 21
 30.030010172032096
 40
 2.2000000000000002
 41
 0.8
  1
9
 50
 90.000001535234517
 72
  5
  0
LINE
  8
0
  6
CONTINUOUS
 62
     7
 10
 28.020004768371585
 20
 3.6800101720320768
 11
 44.605628447018553
 21
 3.6800101720320768
  0
LINE
  8
0
  6
CONTINUOUS
 62
     7
 10
 43.605628447018553
 20
 3.6800101720320768
 11
 43.605628447018553
 21
 24.64001017203211
  0
LINE
  8
0
  6
CONTINUOUS
 62
     7
 10
 43.605628447018553
 20
 3.6800101720320768
 11
 44.382085582326113
 21
 6.5777876508992819
  0
LINE
  8
0
  6
CONTINUOUS
 62
     7
 10
 43.605628447018553
 20
 3.6800101720320768
 11
 42.829171311710994
 21
 6.5777876508992819
  0
LINE
  8
0
  6
CONTINUOUS
 62
     7
 10
 43.605628447018553
 20
 24.64001017203211
 11
 42.829171311710994
 21
 21.742232693164905
  0
LINE
  8
0
  6
CONTINUOUS
 62
     7
 10
 43.605628447018553
 20
 24.64001017203211
 11
 44.382085582326113
 21
 21.742232693164905
  0
TEXT
  8
0
  6
CONTINUOUS
 62
     7
 10
 42.605628447018532
 20
 12.150010172032101
 11
 42.605628447018532
 21
 16.170010172032104
 40
 2.2000000000000002
 41
 0.8
  1
21
 50
 90.000001535234517
 72
  5
  0
LINE
  8
0
  6
CONTINUOUS
 62
     7
 10
 43.605628447018553
 20
 3.6800101720320768
 11
 43.605628447018553
 21
-11.839989827967901
  0
LINE
  8
0
  6
CONTINUOUS
 62
     7
 10
 43.605628447018553
 20
 3.6800101720320768
 11
 42.829171311710994
 21
 0.7822326931648722
  0
LINE
  8
0
  6
CONTINUOUS
 62
     7
 10
 43.605628447018553
 20
 3.6800101720320768
 11
 44.382085582326113
 21
 0.7822326931648722
  0
LINE
  8
0
  6
CONTINUOUS
 62
     7
 10
 43.605628447018553
 20
-11.839989827967901
 11
 44.382085582326113
 21
-8.9422123491006964
  0
LINE
  8
0
  6
CONTINUOUS
 62
     7
 10
 43.605628447018553
 20
-11.839989827967901
 11
 42.829171311710994
 21
-8.9422123491006964
  0
TEXT
  8
0
  6
CONTINUOUS
 62
     7
 10
 42.605628447018532
 20
-8.3499898279679137
 11
 42.605628447018532
 21
 0.1900101720320855
 40
 2.2000000000000002
 41
 0.8
  1
15.5
 50
 90.000001535234517
 72
  5
  0
LINE
  8
0
  6
CONTINUOUS
 62
     7
 10
 48.605628447018539
 20
 33.660010172032102
 11
 48.605628447018539
 21
 35.660010172032102
  0
TEXT
  8
0
  6
CONTINUOUS
 62
     7
 10
 47.605628447018546
 20
 40.0300101720321
 11
 47.605628447018546
 21
 41.790010172032098
 40
 2.2000000000000002
 41
 0.8
  1
2
 50
 90.000001535234517
 72
  5
  0
LINE
  8
0
  6
CONTINUOUS
 62
     7
 10
 48.605628447018539
 20
 43.550010172032088
 11
 48.605628447018539
 21
 35.660010172032102
  0
LINE
  8
0
  6
CONTINUOUS
 62
     7
 10
 48.605628447018539
 20
 35.660010172032102
 11
 49.382085582326098
 21
 38.557787650899307
  0
LINE
  8
0
  6
CONTINUOUS
 62
     7
 10
 48.605628447018539
 20
 35.660010172032102
 11
 47.829171311710979
 21
 38.557787650899307
  0
LINE
  8
0
  6
CONTINUOUS
 62
     7
 10
 48.605628447018539
 20
 28.180010172032109
 11
 48.605628447018539
 21
 33.660010172032102
  0
LINE
  8
0
  6
CONTINUOUS
 62
     7
 10
 48.605628447018539
 20
 33.660010172032102
 11
 47.829171311710979
 21
 30.762232693164897
  0
LINE
  8
0
  6
CONTINUOUS
 62
     7
 10
 48.605628447018539
 20
 33.660010172032102
 11
 49.382085582326098
 21
 30.762232693164897
  0
LINE
  8
0
  6
CONTINUOUS
 62
     7
 10
 48.605628447018539
 20
-11.839989827967901
 11
 48.605628447018539
 21
-13.839989827967901
  0
TEXT
  8
0
  6
CONTINUOUS
 62
     7
 10
 47.605628447018546
 20
-19.969989827967915
 11
 47.605628447018546
 21
-18.209989827967917
 40
 2.2000000000000002
 41
 0.8
  1
2
 50
 90.000001535234517
 72
  5
  0
LINE
  8
0
  6
CONTINUOUS
 62
     7
 10
 48.605628447018539
 20
-21.729989827967909
 11
 48.605628447018539
 21
-13.839989827967901
  0
LINE
  8
0
  6
CONTINUOUS
 62
     7
 10
 48.605628447018539
 20
-13.839989827967901
 11
 47.829171311710979
 21
-16.737767306835106
  0
LINE
  8
0
  6
CONTINUOUS
 62
     7
 10
 48.605628447018539
 20
-13.839989827967901
 11
 49.382085582326098
 21
-16.737767306835106
  0
LINE
  8
0
  6
CONTINUOUS
 62
     7
 10
 48.605628447018539
 20
-6.9399898279679118
 11
 48.605628447018539
 21
-11.839989827967901
  0
LINE
  8
0
  6
CONTINUOUS
 62
     7
 10
 48.605628447018539
 20
-11.839989827967901
 11
 49.382085582326098
 21
-8.9422123491006964
  0
LINE
  8
0
  6
CONTINUOUS
 62
     7
 10
 48.605628447018539
 20
-11.839989827967901
 11
 47.829171311710979
 21
-8.9422123491006964
  0
LINE
  8
0
  6
CONTINUOUS
 62
     7
 10
-13.499995231628411
 20
 43.535274442645203
 11
-15.519995231628421
 21
 43.535274442645203
  0
TEXT
  8
0
  6
CONTINUOUS
 62
     7
 10
-21.14999523162842
 20
 44.535274442645196
 11
-19.389995231628419
 21
 44.535274442645196
 40
 2.2000000000000002
 41
 0.8
  1
2
 50
 0
 72
  5
  0
LINE
  8
0
  6
CONTINUOUS
 62
     7
 10
-22.909995231628436
 20
 43.535274442645203
 11
-15.519995231628421
 21
 43.535274442645203
  0
LINE
  8
0
  6
CONTINUOUS
 62
     7
 10
-15.519995231628421
 20
 43.535274442645203
 11
-18.417772710495626
 21
 44.311731577952763
  0
LINE
  8
0
  6
CONTINUOUS
 62
     7
 10
-15.519995231628421
 20
 43.535274442645203
 11
-18.417772710495626
 21
 42.758817307337644
  0
LINE
  8
0
  6
CONTINUOUS
 62
     7
 10
-8.0199952316284353
 20
 43.535274442645203
 11
-13.499995231628411
 21
 43.535274442645203
  0
LINE
  8
0
  6
CONTINUOUS
 62
     7
 10
-13.499995231628411
 20
 43.535274442645203
 11
-10.602217752761206
 21
 42.758817307337644
  0
LINE
  8
0
  6
CONTINUOUS
 62
     7
 10
-13.499995231628411
 20
 43.535274442645203
 11
-10.602217752761206
 21
 44.311731577952763
  0
INSERT
  8
0
  2
CADWIN-G0
 10
0.0
 20
0.0
  0
INSERT
  8
0
  2
CADWIN-G1
 10
0.0
 20
0.0
  0
LINE
  8
256
  6
CONTINUOUS
 62
     7
 10
 3.5
 20
-118.09998805609465
 11
 98.500015258789063
 21
-118.09998805609465
  0
LINE
  8
256
  6
CONTINUOUS
 62
     7
 10
 69.5
 20
-106.09998805609465
 11
 69.5
 21
-118.09998805609465
  0
TEXT
  8
256
  6
CONTINUOUS
 62
     7
 10
 11.000015258789063
 20
-130.84998805609465
 11
 53.000015258789063
 21
-130.84998805609465
 40
 6
 41
 1
  1
Ｉ－４５７１０
 50
 0
 72
  5
  0
TEXT
  8
256
  6
CONTINUOUS
 62
     7
 10
 22.5
 20
-116.34998805609465
 11
 50.5
 21
-116.34998805609465
 40
 5
 41
 0.8
  1
感電危険ラベル
 50
 0
 72
  5
  0
TEXT
  8
256
  6
CONTINUOUS
 62
     7
 10
 4.8000030517578125
 20
-109.04995143500085
 11
 9.8000030517578125
 21
-109.04995143500085
 40
 2.5
 41
 0.8
  1
品名
 50
 0
 72
  5
  0
TEXT
  8
256
  6
CONTINUOUS
 62
     7
 10
 4.8000030517578125
 20
-121.05001857367276
 11
 9.8000030517578125
 21
-121.05001857367276
 40
 2.5
 41
 0.8
  1
品番
 50
 0
 72
  5
  0
LINE
  8
256
  6
CONTINUOUS
 62
     7
 10
 3.5
 20
-136.09998805609465
 11
 3.5
 21
-106.09998805609465
  0
LINE
  8
256
  6
CONTINUOUS
 62
     7
 10
 3.5
 20
-106.09998805609465
 11
 98.500015258789063
 21
-106.09998805609465
  0
LINE
  8
256
  6
CONTINUOUS
 62
     7
 10
 98.500015258789063
 20
-136.09998805609465
 11
-87.500005722045898
 21
-136.09998805609459
  0
TEXT
  8
256
  6
CONTINUOUS
 62
     7
 10
 74.350007629394526
 20
-110.84998805609465
 11
 93.650007629394537
 21
-110.84998805609465
 40
 3.5
 41
 0.8
  1
Ｗ：４２ｍｍ
 50
 0
 72
  5
  0
TEXT
  8
256
  6
CONTINUOUS
 62
     7
 10
 71.050007629394528
 20
-116.84998805609465
 11
 96.950007629394534
 21
-116.84998805609465
 40
 3.5
 41
 0.8
  1
Ｈ：４９．５ｍｍ
 50
 0
 72
  5
  0
LINE
  8
256
  6
CONTINUOUS
 62
     7
 10
-87.500005722045898
 20
 128.40000840015884
 11
 12.499994277954102
 21
 128.40000840015884
  0
LINE
  8
256
  6
CONTINUOUS
 62
     7
 10
 12.499994277954102
 20
 128.40000840015887
 11
 12.499994277954102
 21
 140.40000915527344
  0
TEXT
  8
256
  6
CONTINUOUS
 62
     7
 10
-82.500005722045898
 20
 131.40000799208147
 11
-34.500005722045898
 21
 131.40000799208147
 40
 6
 41
 1
  1
Ｉ－４５７１０Ａ
 50
 0
 72
  5
  0
LINE
  8
256
  6
CONTINUOUS
 62
     7
 10
-87.500005722045898
 20
 140.40000915527344
 11
 98.500015258789063
 21
 140.40000915527344
  0
LINE
  8
256
  6
CONTINUOUS
 62
     7
 10
-87.500005722045898
 20
 140.40000915527344
 11
-87.500005722045898
 21
-136.09998805609459
  0
LINE
  8
256
  6
CONTINUOUS
 62
     7
 10
 98.500015258789063
 20
 140.40000915527344
 11
 98.500015258789063
 21
-136.09998805609465
  0
ENDSEC
  0
EOF
