  0
SECTION
  2
HEADER
  9
$INSBASE
 10
0.0
20
0.0
  9
$REGENMODE
 70
     1
  9
$DRAGMODE
 70
     1
  9
$DIMTAD
 70
     1
  9
$EXTMIN
 10
-105.000000
 20
-148.500000
 30
 0.0
  9
$EXTMAX
 10
105.000000
 20
148.500000
 30
 0.0
  9
$LUPREC
 70
    3
  9
$AUPREC
 70
    3
  9
$LTSCALE
 40
13.125000
  0
ENDSEC
  0
SECTION
  2
TABLES
  0
TABLE
  2
LTYPE
 70
     6
  0
LTYPE
  2
CONTINUOUS
 70
    64
  3
SOLID
 72
    65
 73
     0
 40
0.0
  0
LTYPE
  2
DASHED2
 70
    64
  3
_ _ _ _ _ _ _ _ _ _ _ _ _ _ _ _ _ _ _ _ _ _ 
 72
    65
 73
     2
 40
0.5
 49
0.25
 49
-0.25
  0
LTYPE
  2
DASHED
 70
    64
  3
__ __ __ __ __ __ __ __ __ __ __ __ __ __ __
 72
    65
 73
     2
 40
0.75
 49
0.5
 49
-0.25
  0
LTYPE
  2
DASHEDX2
 70
    64
  3
____  ____  ____  ____  ____  ____  ____  __
 72
    65
 73
     2
 40
1.5
 49
1.0
 49
-0.5
  0
LTYPE
  2
DOT
 70
    64
  3
............................................
 72
    65
 73
     2
 40
0.25
 49
0
 49
-0.25
  0
LTYPE
  2
DASHDOT
 70
    64
  3
__ . __ . __ . __ . __ . __ . __ . __ . __ .
 72
    65
 73
     4
 40
1.0
 49
0.5
 49
-0.25
 49
0.0
 49
-0.25
  0
LTYPE
  2
CENTER
 70
    64
  3
____ _ ____ _ ____ _ ____ _ ____ _ ____ _ __
 72
    65
 73
     4
 40
2.0
 49
1.25
 49
-0.25
 49
0.25
 49
-0.25
  0
LTYPE
  2
DIVIDE
 70
    64
  3
__ . . __ . . __ . . __ . . __ . . __ . . __
 72
    65
 73
     6
 40
1.25
 49
0.5
 49
-0.25
 49
0.0
 49
-0.25
 49
0.0
 49
-0.25
  0
LTYPE
  2
PHANTOM2
 70
    64
  3
___ _ _ ___ _ _ ___ _ _ ___ _ _ ___ _ _ ___ 
 72
    65
 73
     6
 40
1.25
 49
0.625
 49
-0.125
 49
0.125
 49
-0.125
 49
0.125
 49
-0.125
  0
LTYPE
  2
DOTX2
 70
    64
  3
. . . . . . . . . . . . . . . . . . . . . . 
 72
    65
 73
     2
 40
0.5
 49
0
 49
-0.5
  0
ENDTAB
  0
TABLE
  2
LAYER
 70
   255
  0
LAYER
  2
0
 70
    64
 62
     7
  6
CONTINUOUS
  0
LAYER
  2
1
 70
    64
 62
     7
  6
CONTINUOUS
  0
LAYER
  2
2
 70
    64
 62
     7
  6
CONTINUOUS
  0
LAYER
  2
3
 70
    64
 62
     7
  6
CONTINUOUS
  0
LAYER
  2
4
 70
    64
 62
     7
  6
CONTINUOUS
  0
LAYER
  2
5
 70
    64
 62
     7
  6
CONTINUOUS
  0
LAYER
  2
6
 70
    64
 62
     7
  6
CONTINUOUS
  0
LAYER
  2
7
 70
    64
 62
     7
  6
CONTINUOUS
  0
LAYER
  2
8
 70
    64
 62
     7
  6
CONTINUOUS
  0
LAYER
  2
9
 70
    64
 62
     7
  6
CONTINUOUS
  0
LAYER
  2
10
 70
    64
 62
     7
  6
CONTINUOUS
  0
LAYER
  2
11
 70
    64
 62
     7
  6
CONTINUOUS
  0
LAYER
  2
12
 70
    64
 62
     7
  6
CONTINUOUS
  0
LAYER
  2
13
 70
    64
 62
     7
  6
CONTINUOUS
  0
LAYER
  2
14
 70
    64
 62
     7
  6
CONTINUOUS
  0
LAYER
  2
15
 70
    64
 62
     7
  6
CONTINUOUS
  0
LAYER
  2
16
 70
    64
 62
     7
  6
CONTINUOUS
  0
LAYER
  2
17
 70
    64
 62
     7
  6
CONTINUOUS
  0
LAYER
  2
18
 70
    64
 62
     7
  6
CONTINUOUS
  0
LAYER
  2
19
 70
    64
 62
     7
  6
CONTINUOUS
  0
LAYER
  2
20
 70
    64
 62
     7
  6
CONTINUOUS
  0
LAYER
  2
21
 70
    64
 62
     7
  6
CONTINUOUS
  0
LAYER
  2
22
 70
    64
 62
     7
  6
CONTINUOUS
  0
LAYER
  2
23
 70
    64
 62
     7
  6
CONTINUOUS
  0
LAYER
  2
24
 70
    64
 62
     7
  6
CONTINUOUS
  0
LAYER
  2
25
 70
    64
 62
     7
  6
CONTINUOUS
  0
LAYER
  2
26
 70
    64
 62
     7
  6
CONTINUOUS
  0
LAYER
  2
27
 70
    64
 62
     7
  6
CONTINUOUS
  0
LAYER
  2
28
 70
    64
 62
     7
  6
CONTINUOUS
  0
LAYER
  2
29
 70
    64
 62
     7
  6
CONTINUOUS
  0
LAYER
  2
30
 70
    64
 62
     7
  6
CONTINUOUS
  0
LAYER
  2
31
 70
    64
 62
     7
  6
CONTINUOUS
  0
LAYER
  2
32
 70
    64
 62
     7
  6
CONTINUOUS
  0
LAYER
  2
33
 70
    64
 62
     7
  6
CONTINUOUS
  0
LAYER
  2
34
 70
    64
 62
     7
  6
CONTINUOUS
  0
LAYER
  2
35
 70
    64
 62
     7
  6
CONTINUOUS
  0
LAYER
  2
36
 70
    64
 62
     7
  6
CONTINUOUS
  0
LAYER
  2
37
 70
    64
 62
     7
  6
CONTINUOUS
  0
LAYER
  2
38
 70
    64
 62
     7
  6
CONTINUOUS
  0
LAYER
  2
39
 70
    64
 62
     7
  6
CONTINUOUS
  0
LAYER
  2
40
 70
    64
 62
     7
  6
CONTINUOUS
  0
LAYER
  2
41
 70
    64
 62
     7
  6
CONTINUOUS
  0
LAYER
  2
42
 70
    64
 62
     7
  6
CONTINUOUS
  0
LAYER
  2
43
 70
    64
 62
     7
  6
CONTINUOUS
  0
LAYER
  2
44
 70
    64
 62
     7
  6
CONTINUOUS
  0
LAYER
  2
45
 70
    64
 62
     7
  6
CONTINUOUS
  0
LAYER
  2
46
 70
    64
 62
     7
  6
CONTINUOUS
  0
LAYER
  2
47
 70
    64
 62
     7
  6
CONTINUOUS
  0
LAYER
  2
48
 70
    64
 62
     7
  6
CONTINUOUS
  0
LAYER
  2
49
 70
    64
 62
     7
  6
CONTINUOUS
  0
LAYER
  2
50
 70
    64
 62
     7
  6
CONTINUOUS
  0
LAYER
  2
51
 70
    64
 62
     7
  6
CONTINUOUS
  0
LAYER
  2
52
 70
    64
 62
     7
  6
CONTINUOUS
  0
LAYER
  2
53
 70
    64
 62
     7
  6
CONTINUOUS
  0
LAYER
  2
54
 70
    64
 62
     7
  6
CONTINUOUS
  0
LAYER
  2
55
 70
    64
 62
     7
  6
CONTINUOUS
  0
LAYER
  2
56
 70
    64
 62
     7
  6
CONTINUOUS
  0
LAYER
  2
57
 70
    64
 62
     7
  6
CONTINUOUS
  0
LAYER
  2
58
 70
    64
 62
     7
  6
CONTINUOUS
  0
LAYER
  2
59
 70
    64
 62
     7
  6
CONTINUOUS
  0
LAYER
  2
60
 70
    64
 62
     7
  6
CONTINUOUS
  0
LAYER
  2
61
 70
    64
 62
     7
  6
CONTINUOUS
  0
LAYER
  2
62
 70
    64
 62
     7
  6
CONTINUOUS
  0
LAYER
  2
63
 70
    64
 62
     7
  6
CONTINUOUS
  0
LAYER
  2
64
 70
    64
 62
     7
  6
CONTINUOUS
  0
LAYER
  2
65
 70
    64
 62
     7
  6
CONTINUOUS
  0
LAYER
  2
66
 70
    64
 62
     7
  6
CONTINUOUS
  0
LAYER
  2
67
 70
    64
 62
     7
  6
CONTINUOUS
  0
LAYER
  2
68
 70
    64
 62
     7
  6
CONTINUOUS
  0
LAYER
  2
69
 70
    64
 62
     7
  6
CONTINUOUS
  0
LAYER
  2
70
 70
    64
 62
     7
  6
CONTINUOUS
  0
LAYER
  2
71
 70
    64
 62
     7
  6
CONTINUOUS
  0
LAYER
  2
72
 70
    64
 62
     7
  6
CONTINUOUS
  0
LAYER
  2
73
 70
    64
 62
     7
  6
CONTINUOUS
  0
LAYER
  2
74
 70
    64
 62
     7
  6
CONTINUOUS
  0
LAYER
  2
75
 70
    64
 62
     7
  6
CONTINUOUS
  0
LAYER
  2
76
 70
    64
 62
     7
  6
CONTINUOUS
  0
LAYER
  2
77
 70
    64
 62
     7
  6
CONTINUOUS
  0
LAYER
  2
78
 70
    64
 62
     7
  6
CONTINUOUS
  0
LAYER
  2
79
 70
    64
 62
     7
  6
CONTINUOUS
  0
LAYER
  2
80
 70
    64
 62
     7
  6
CONTINUOUS
  0
LAYER
  2
81
 70
    64
 62
     7
  6
CONTINUOUS
  0
LAYER
  2
82
 70
    64
 62
     7
  6
CONTINUOUS
  0
LAYER
  2
83
 70
    64
 62
     7
  6
CONTINUOUS
  0
LAYER
  2
84
 70
    64
 62
     7
  6
CONTINUOUS
  0
LAYER
  2
85
 70
    64
 62
     7
  6
CONTINUOUS
  0
LAYER
  2
86
 70
    64
 62
     7
  6
CONTINUOUS
  0
LAYER
  2
87
 70
    64
 62
     7
  6
CONTINUOUS
  0
LAYER
  2
88
 70
    64
 62
     7
  6
CONTINUOUS
  0
LAYER
  2
89
 70
    64
 62
     7
  6
CONTINUOUS
  0
LAYER
  2
90
 70
    64
 62
     7
  6
CONTINUOUS
  0
LAYER
  2
91
 70
    64
 62
     7
  6
CONTINUOUS
  0
LAYER
  2
92
 70
    64
 62
     7
  6
CONTINUOUS
  0
LAYER
  2
93
 70
    64
 62
     7
  6
CONTINUOUS
  0
LAYER
  2
94
 70
    64
 62
     7
  6
CONTINUOUS
  0
LAYER
  2
95
 70
    64
 62
     7
  6
CONTINUOUS
  0
LAYER
  2
96
 70
    64
 62
     7
  6
CONTINUOUS
  0
LAYER
  2
97
 70
    64
 62
     7
  6
CONTINUOUS
  0
LAYER
  2
98
 70
    64
 62
     7
  6
CONTINUOUS
  0
LAYER
  2
99
 70
    64
 62
     7
  6
CONTINUOUS
  0
LAYER
  2
100
 70
    64
 62
     7
  6
CONTINUOUS
  0
LAYER
  2
101
 70
    64
 62
     7
  6
CONTINUOUS
  0
LAYER
  2
102
 70
    64
 62
     7
  6
CONTINUOUS
  0
LAYER
  2
103
 70
    64
 62
     7
  6
CONTINUOUS
  0
LAYER
  2
104
 70
    64
 62
     7
  6
CONTINUOUS
  0
LAYER
  2
105
 70
    64
 62
     7
  6
CONTINUOUS
  0
LAYER
  2
106
 70
    64
 62
     7
  6
CONTINUOUS
  0
LAYER
  2
107
 70
    64
 62
     7
  6
CONTINUOUS
  0
LAYER
  2
108
 70
    64
 62
     7
  6
CONTINUOUS
  0
LAYER
  2
109
 70
    64
 62
     7
  6
CONTINUOUS
  0
LAYER
  2
110
 70
    64
 62
     7
  6
CONTINUOUS
  0
LAYER
  2
111
 70
    64
 62
     7
  6
CONTINUOUS
  0
LAYER
  2
112
 70
    64
 62
     7
  6
CONTINUOUS
  0
LAYER
  2
113
 70
    64
 62
     7
  6
CONTINUOUS
  0
LAYER
  2
114
 70
    64
 62
     7
  6
CONTINUOUS
  0
LAYER
  2
115
 70
    64
 62
     7
  6
CONTINUOUS
  0
LAYER
  2
116
 70
    64
 62
     7
  6
CONTINUOUS
  0
LAYER
  2
117
 70
    64
 62
     7
  6
CONTINUOUS
  0
LAYER
  2
118
 70
    64
 62
     7
  6
CONTINUOUS
  0
LAYER
  2
119
 70
    64
 62
     7
  6
CONTINUOUS
  0
LAYER
  2
120
 70
    64
 62
     7
  6
CONTINUOUS
  0
LAYER
  2
121
 70
    64
 62
     7
  6
CONTINUOUS
  0
LAYER
  2
122
 70
    64
 62
     7
  6
CONTINUOUS
  0
LAYER
  2
123
 70
    64
 62
     7
  6
CONTINUOUS
  0
LAYER
  2
124
 70
    64
 62
     7
  6
CONTINUOUS
  0
LAYER
  2
125
 70
    64
 62
     7
  6
CONTINUOUS
  0
LAYER
  2
126
 70
    64
 62
     7
  6
CONTINUOUS
  0
LAYER
  2
127
 70
    64
 62
     7
  6
CONTINUOUS
  0
LAYER
  2
128
 70
    64
 62
     7
  6
CONTINUOUS
  0
LAYER
  2
129
 70
    64
 62
     7
  6
CONTINUOUS
  0
LAYER
  2
130
 70
    64
 62
     7
  6
CONTINUOUS
  0
LAYER
  2
131
 70
    64
 62
     7
  6
CONTINUOUS
  0
LAYER
  2
132
 70
    64
 62
     7
  6
CONTINUOUS
  0
LAYER
  2
133
 70
    64
 62
     7
  6
CONTINUOUS
  0
LAYER
  2
134
 70
    64
 62
     7
  6
CONTINUOUS
  0
LAYER
  2
135
 70
    64
 62
     7
  6
CONTINUOUS
  0
LAYER
  2
136
 70
    64
 62
     7
  6
CONTINUOUS
  0
LAYER
  2
137
 70
    64
 62
     7
  6
CONTINUOUS
  0
LAYER
  2
138
 70
    64
 62
     7
  6
CONTINUOUS
  0
LAYER
  2
139
 70
    64
 62
     7
  6
CONTINUOUS
  0
LAYER
  2
140
 70
    64
 62
     7
  6
CONTINUOUS
  0
LAYER
  2
141
 70
    64
 62
     7
  6
CONTINUOUS
  0
LAYER
  2
142
 70
    64
 62
     7
  6
CONTINUOUS
  0
LAYER
  2
143
 70
    64
 62
     7
  6
CONTINUOUS
  0
LAYER
  2
144
 70
    64
 62
     7
  6
CONTINUOUS
  0
LAYER
  2
145
 70
    64
 62
     7
  6
CONTINUOUS
  0
LAYER
  2
146
 70
    64
 62
     7
  6
CONTINUOUS
  0
LAYER
  2
147
 70
    64
 62
     7
  6
CONTINUOUS
  0
LAYER
  2
148
 70
    64
 62
     7
  6
CONTINUOUS
  0
LAYER
  2
149
 70
    64
 62
     7
  6
CONTINUOUS
  0
LAYER
  2
150
 70
    64
 62
     7
  6
CONTINUOUS
  0
LAYER
  2
151
 70
    64
 62
     7
  6
CONTINUOUS
  0
LAYER
  2
152
 70
    64
 62
     7
  6
CONTINUOUS
  0
LAYER
  2
153
 70
    64
 62
     7
  6
CONTINUOUS
  0
LAYER
  2
154
 70
    64
 62
     7
  6
CONTINUOUS
  0
LAYER
  2
155
 70
    64
 62
     7
  6
CONTINUOUS
  0
LAYER
  2
156
 70
    64
 62
     7
  6
CONTINUOUS
  0
LAYER
  2
157
 70
    64
 62
     7
  6
CONTINUOUS
  0
LAYER
  2
158
 70
    64
 62
     7
  6
CONTINUOUS
  0
LAYER
  2
159
 70
    64
 62
     7
  6
CONTINUOUS
  0
LAYER
  2
160
 70
    64
 62
     7
  6
CONTINUOUS
  0
LAYER
  2
161
 70
    64
 62
     7
  6
CONTINUOUS
  0
LAYER
  2
162
 70
    64
 62
     7
  6
CONTINUOUS
  0
LAYER
  2
163
 70
    64
 62
     7
  6
CONTINUOUS
  0
LAYER
  2
164
 70
    64
 62
     7
  6
CONTINUOUS
  0
LAYER
  2
165
 70
    64
 62
     7
  6
CONTINUOUS
  0
LAYER
  2
166
 70
    64
 62
     7
  6
CONTINUOUS
  0
LAYER
  2
167
 70
    64
 62
     7
  6
CONTINUOUS
  0
LAYER
  2
168
 70
    64
 62
     7
  6
CONTINUOUS
  0
LAYER
  2
169
 70
    64
 62
     7
  6
CONTINUOUS
  0
LAYER
  2
170
 70
    64
 62
     7
  6
CONTINUOUS
  0
LAYER
  2
171
 70
    64
 62
     7
  6
CONTINUOUS
  0
LAYER
  2
172
 70
    64
 62
     7
  6
CONTINUOUS
  0
LAYER
  2
173
 70
    64
 62
     7
  6
CONTINUOUS
  0
LAYER
  2
174
 70
    64
 62
     7
  6
CONTINUOUS
  0
LAYER
  2
175
 70
    64
 62
     7
  6
CONTINUOUS
  0
LAYER
  2
176
 70
    64
 62
     7
  6
CONTINUOUS
  0
LAYER
  2
177
 70
    64
 62
     7
  6
CONTINUOUS
  0
LAYER
  2
178
 70
    64
 62
     7
  6
CONTINUOUS
  0
LAYER
  2
179
 70
    64
 62
     7
  6
CONTINUOUS
  0
LAYER
  2
180
 70
    64
 62
     7
  6
CONTINUOUS
  0
LAYER
  2
181
 70
    64
 62
     7
  6
CONTINUOUS
  0
LAYER
  2
182
 70
    64
 62
     7
  6
CONTINUOUS
  0
LAYER
  2
183
 70
    64
 62
     7
  6
CONTINUOUS
  0
LAYER
  2
184
 70
    64
 62
     7
  6
CONTINUOUS
  0
LAYER
  2
185
 70
    64
 62
     7
  6
CONTINUOUS
  0
LAYER
  2
186
 70
    64
 62
     7
  6
CONTINUOUS
  0
LAYER
  2
187
 70
    64
 62
     7
  6
CONTINUOUS
  0
LAYER
  2
188
 70
    64
 62
     7
  6
CONTINUOUS
  0
LAYER
  2
189
 70
    64
 62
     7
  6
CONTINUOUS
  0
LAYER
  2
190
 70
    64
 62
     7
  6
CONTINUOUS
  0
LAYER
  2
191
 70
    64
 62
     7
  6
CONTINUOUS
  0
LAYER
  2
192
 70
    64
 62
     7
  6
CONTINUOUS
  0
LAYER
  2
193
 70
    64
 62
     7
  6
CONTINUOUS
  0
LAYER
  2
194
 70
    64
 62
     7
  6
CONTINUOUS
  0
LAYER
  2
195
 70
    64
 62
     7
  6
CONTINUOUS
  0
LAYER
  2
196
 70
    64
 62
     7
  6
CONTINUOUS
  0
LAYER
  2
197
 70
    64
 62
     7
  6
CONTINUOUS
  0
LAYER
  2
198
 70
    64
 62
     7
  6
CONTINUOUS
  0
LAYER
  2
199
 70
    64
 62
     7
  6
CONTINUOUS
  0
LAYER
  2
200
 70
    64
 62
     7
  6
CONTINUOUS
  0
LAYER
  2
201
 70
    64
 62
     7
  6
CONTINUOUS
  0
LAYER
  2
202
 70
    64
 62
     7
  6
CONTINUOUS
  0
LAYER
  2
203
 70
    64
 62
     7
  6
CONTINUOUS
  0
LAYER
  2
204
 70
    64
 62
     7
  6
CONTINUOUS
  0
LAYER
  2
205
 70
    64
 62
     7
  6
CONTINUOUS
  0
LAYER
  2
206
 70
    64
 62
     7
  6
CONTINUOUS
  0
LAYER
  2
207
 70
    64
 62
     7
  6
CONTINUOUS
  0
LAYER
  2
208
 70
    64
 62
     7
  6
CONTINUOUS
  0
LAYER
  2
209
 70
    64
 62
     7
  6
CONTINUOUS
  0
LAYER
  2
210
 70
    64
 62
     7
  6
CONTINUOUS
  0
LAYER
  2
211
 70
    64
 62
     7
  6
CONTINUOUS
  0
LAYER
  2
212
 70
    64
 62
     7
  6
CONTINUOUS
  0
LAYER
  2
213
 70
    64
 62
     7
  6
CONTINUOUS
  0
LAYER
  2
214
 70
    64
 62
     7
  6
CONTINUOUS
  0
LAYER
  2
215
 70
    64
 62
     7
  6
CONTINUOUS
  0
LAYER
  2
216
 70
    64
 62
     7
  6
CONTINUOUS
  0
LAYER
  2
217
 70
    64
 62
     7
  6
CONTINUOUS
  0
LAYER
  2
218
 70
    64
 62
     7
  6
CONTINUOUS
  0
LAYER
  2
219
 70
    64
 62
     7
  6
CONTINUOUS
  0
LAYER
  2
220
 70
    64
 62
     7
  6
CONTINUOUS
  0
LAYER
  2
221
 70
    64
 62
     7
  6
CONTINUOUS
  0
LAYER
  2
222
 70
    64
 62
     7
  6
CONTINUOUS
  0
LAYER
  2
223
 70
    64
 62
     7
  6
CONTINUOUS
  0
LAYER
  2
224
 70
    64
 62
     7
  6
CONTINUOUS
  0
LAYER
  2
225
 70
    64
 62
     7
  6
CONTINUOUS
  0
LAYER
  2
226
 70
    64
 62
     7
  6
CONTINUOUS
  0
LAYER
  2
227
 70
    64
 62
     7
  6
CONTINUOUS
  0
LAYER
  2
228
 70
    64
 62
     7
  6
CONTINUOUS
  0
LAYER
  2
229
 70
    64
 62
     7
  6
CONTINUOUS
  0
LAYER
  2
230
 70
    64
 62
     7
  6
CONTINUOUS
  0
LAYER
  2
231
 70
    64
 62
     7
  6
CONTINUOUS
  0
LAYER
  2
232
 70
    64
 62
     7
  6
CONTINUOUS
  0
LAYER
  2
233
 70
    64
 62
     7
  6
CONTINUOUS
  0
LAYER
  2
234
 70
    64
 62
     7
  6
CONTINUOUS
  0
LAYER
  2
235
 70
    64
 62
     7
  6
CONTINUOUS
  0
LAYER
  2
236
 70
    64
 62
     7
  6
CONTINUOUS
  0
LAYER
  2
237
 70
    64
 62
     7
  6
CONTINUOUS
  0
LAYER
  2
238
 70
    64
 62
     7
  6
CONTINUOUS
  0
LAYER
  2
239
 70
    64
 62
     7
  6
CONTINUOUS
  0
LAYER
  2
240
 70
    64
 62
     7
  6
CONTINUOUS
  0
LAYER
  2
241
 70
    64
 62
     7
  6
CONTINUOUS
  0
LAYER
  2
242
 70
    64
 62
     7
  6
CONTINUOUS
  0
LAYER
  2
243
 70
    64
 62
     7
  6
CONTINUOUS
  0
LAYER
  2
244
 70
    64
 62
     7
  6
CONTINUOUS
  0
LAYER
  2
245
 70
    64
 62
     7
  6
CONTINUOUS
  0
LAYER
  2
246
 70
    64
 62
     7
  6
CONTINUOUS
  0
LAYER
  2
247
 70
    64
 62
     7
  6
CONTINUOUS
  0
LAYER
  2
248
 70
    64
 62
     7
  6
CONTINUOUS
  0
LAYER
  2
249
 70
    64
 62
     7
  6
CONTINUOUS
  0
LAYER
  2
250
 70
    64
 62
     7
  6
CONTINUOUS
  0
LAYER
  2
251
 70
    64
 62
     7
  6
CONTINUOUS
  0
LAYER
  2
252
 70
    64
 62
     7
  6
CONTINUOUS
  0
LAYER
  2
253
 70
    64
 62
     7
  6
CONTINUOUS
  0
LAYER
  2
254
 70
    64
 62
     7
  6
CONTINUOUS
  0
LAYER
  2
255
 70
    64
 62
     7
  6
CONTINUOUS
  0
ENDTAB
  0
TABLE
  2
STYLE
 70
     2
  0
STYLE
  2
STANDARD
 70
    64
 40
0.0
 41
1.0
 50
0.0
 71
     0
 42
3.000000
  3
TXT
  4
BIGFONT
  0
ENDTAB
  0
ENDSEC
  0
SECTION
  2
BLOCKS
  0
BLOCK
  8
0
  2
CADWIN-G0
 70
    0
 10
0.0
 20
0.0
  0
LINE
  8
0
  6
CONTINUOUS
 62
     3
 10
-2.4649261676584224
 20
 20.723632957540744
 11
 1.6690484285571578
 21
 20.723632957540744
  0
ARC
  8
0
  6
CONTINUOUS
 62
     3
 10
-2.4649261676584224
 20
 20.973632957540744
 40
 0.25
 50
 150.00000255872399
 51
-90.000001535234532
  0
ARC
  8
0
  6
CONTINUOUS
 62
     3
 10
 1.6690484285571578
 20
 20.973632957540744
 40
 0.25
 50
-90.000001535234816
 51
 30.000000511744783
  0
LINE
  8
0
  6
CONTINUOUS
 62
     3
 10
-2.6814325186045274
 20
 21.098632957540744
 11
-0.6144452204967656
 21
 24.678759976462928
  0
LINE
  8
0
  6
CONTINUOUS
 62
     3
 10
-0.1814325186045274
 20
 24.678759976462928
 11
 1.8855547795032344
 21
 21.098632957540744
  0
ARC
  8
0
  6
CONTINUOUS
 62
     3
 10
-0.3979388695506607
 20
 24.553759976462928
 40
 0.25
 50
 30.000000511744894
 51
 150.00000255872422
  0
LINE
  8
0
  6
CONTINUOUS
 62
     3
 10
-0.3979388695506607
 20
 24.553759976462928
 11
-2.4649261676584224
 21
 20.973632957540744
  0
LINE
  8
0
  6
CONTINUOUS
 62
     3
 10
-2.4649261676584224
 20
 20.973632957540744
 11
 1.6690484285571578
 21
 20.973632957540744
  0
LINE
  8
0
  6
CONTINUOUS
 62
     3
 10
-0.3979388695506607
 20
 24.553759976462928
 11
 1.6690484285571578
 21
 20.973632957540744
  0
LINE
  8
0
  6
CONTINUOUS
 62
     7
 10
-2.0380027291315521
 20
 20.723632957540744
 11
-1.7880027291315521
 21
 20.973632957540744
  0
LINE
  8
0
  6
CONTINUOUS
 62
     7
 10
 0.4036798826606791
 20
 23.165315569332947
 11
 0.586692584552889
 21
 23.348328271225157
  0
LINE
  8
0
  6
CONTINUOUS
 62
     7
 10
-2.0945716378229413
 20
 20.723632957540744
 11
-1.8445716378229413
 21
 20.973632957540744
  0
LINE
  8
0
  6
CONTINUOUS
 62
     7
 10
 0.3829742250152712
 20
 23.201178820378956
 11
 0.5659869269074811
 21
 23.384191522271166
  0
LINE
  8
0
  6
CONTINUOUS
 62
     7
 10
-2.1511405465143589
 20
 20.723632957540744
 11
-1.9011405465143589
 21
 20.973632957540744
  0
LINE
  8
0
  6
CONTINUOUS
 62
     7
 10
 0.3622685673698349
 20
 23.237042071424938
 11
 0.5452812692620732
 21
 23.420054773317148
  0
LINE
  8
0
  6
CONTINUOUS
 62
     7
 10
-2.2077094552057765
 20
 20.723632957540744
 11
-1.9577094552057765
 21
 20.973632957540744
  0
LINE
  8
0
  6
CONTINUOUS
 62
     7
 10
 0.341562909724427
 20
 23.272905322470919
 11
 0.5245756116166653
 21
 23.455918024363129
  0
LINE
  8
0
  6
CONTINUOUS
 62
     7
 10
-2.2642783638971657
 20
 20.723632957540744
 11
-2.0142783638971657
 21
 20.973632957540744
  0
LINE
  8
0
  6
CONTINUOUS
 62
     7
 10
 0.3208572520789907
 20
 23.3087685735169
 11
 0.5038699539712006
 21
 23.491781275409139
  0
LINE
  8
0
  6
CONTINUOUS
 62
     7
 10
-2.3208472725885834
 20
 20.723632957540744
 11
-2.0708472725885834
 21
 20.973632957540744
  0
LINE
  8
0
  6
CONTINUOUS
 62
     7
 10
 0.3001515944335829
 20
 23.34463182456291
 11
 0.4831642963257927
 21
 23.52764452645512
  0
LINE
  8
0
  6
CONTINUOUS
 62
     7
 10
-2.3774161812799726
 20
 20.723632957540744
 11
-2.1274161812799726
 21
 20.973632957540744
  0
LINE
  8
0
  6
CONTINUOUS
 62
     7
 10
 0.279445936788175
 20
 23.380495075608891
 11
 0.4624586386803848
 21
 23.563507777501101
  0
LINE
  8
0
  6
CONTINUOUS
 62
     7
 10
-2.4339850899713902
 20
 20.723632957540744
 11
-2.1839850899713902
 21
 20.973632957540744
  0
LINE
  8
0
  6
CONTINUOUS
 62
     7
 10
 0.2587402791427671
 20
 23.416358326654873
 11
 0.441752981034977
 21
 23.599371028547111
  0
LINE
  8
0
  6
CONTINUOUS
 62
     7
 10
-2.4893575208999046
 20
 20.724829435303647
 11
-2.2405539986628078
 21
 20.973632957540744
  0
LINE
  8
0
  6
CONTINUOUS
 62
     7
 10
 0.2380346214973308
 20
 23.452221577700854
 11
 0.4210473233895691
 21
 23.635234279593092
  0
LINE
  8
0
  6
CONTINUOUS
 62
     7
 10
-2.5366219800344147
 20
 20.734133884860555
 11
-2.297122907354197
 21
 20.973632957540744
  0
LINE
  8
0
  6
CONTINUOUS
 62
     7
 10
 0.2173289638519229
 20
 23.488084828746864
 11
 0.4003416657441328
 21
 23.671097530639074
  0
LINE
  8
0
  6
CONTINUOUS
 62
     7
 10
-2.5771088165143006
 20
 20.750215957072058
 11
-2.3536918160456146
 21
 20.973632957540744
  0
LINE
  8
0
  6
CONTINUOUS
 62
     7
 10
 0.1966233062064866
 20
 23.523948079792845
 11
 0.3796360080987249
 21
 23.706960781685055
  0
LINE
  8
0
  6
CONTINUOUS
 62
     7
 10
-2.6122444577539632
 20
 20.771649224523813
 11
-2.4102607247370038
 21
 20.973632957540744
  0
LINE
  8
0
  6
CONTINUOUS
 62
     7
 10
 0.1759176485610787
 20
 23.559811330838826
 11
 0.358930350453317
 21
 23.742824032731065
  0
LINE
  8
0
  6
CONTINUOUS
 62
     7
 10
-2.6426521870078155
 20
 20.79781040396135
 11
-2.462325985061387
 21
 20.97813660590775
  0
LINE
  8
0
  6
CONTINUOUS
 62
     7
 10
 0.1552119909156708
 20
 23.595674581884836
 11
 0.3382246928078807
 21
 23.778687283777046
  0
LINE
  8
0
  6
CONTINUOUS
 62
     7
 10
-2.66850483038424
 20
 20.828526669276343
 11
-2.3850514187245899
 21
 21.111980080935993
  0
LINE
  8
0
  6
CONTINUOUS
 62
     7
 10
 0.134506333270263
 20
 23.631537832930817
 11
 0.3175190351624728
 21
 23.814550534823027
  0
LINE
  8
0
  6
CONTINUOUS
 62
     7
 10
-2.6896037025927235
 20
 20.863996705759249
 11
-2.3077768523877644
 21
 21.245823555964208
  0
LINE
  8
0
  6
CONTINUOUS
 62
     7
 10
 0.1138006756248267
 20
 23.667401083976799
 11
 0.2968133775170649
 21
 23.850413785869009
  0
LINE
  8
0
  6
CONTINUOUS
 62
     7
 10
-2.7052871850401239
 20
 20.904882132003294
 11
-2.2305022860509389
 21
 21.379667030992451
  0
LINE
  8
0
  6
CONTINUOUS
 62
     7
 10
 0.0930950179794188
 20
 23.70326433502278
 11
 0.2761077198716571
 21
 23.886277036915018
  0
LINE
  8
0
  6
CONTINUOUS
 62
     7
 10
-2.7140476248349223
 20
 20.952690600899857
 11
-2.1532277197141134
 21
 21.513510506020666
  0
LINE
  8
0
  6
CONTINUOUS
 62
     7
 10
 0.0723893603340109
 20
 23.73912758606879
 11
 0.2554020622262208
 21
 23.922140287961
  0
LINE
  8
0
  6
CONTINUOUS
 62
     7
 10
-2.7120841162151414
 20
 21.011223018211055
 11
-2.0759531533772879
 21
 21.647353981048909
  0
LINE
  8
0
  6
CONTINUOUS
 62
     7
 10
 0.0516837026885746
 20
 23.774990837114771
 11
 0.2346964045808129
 21
 23.958003539006981
  0
LINE
  8
0
  6
CONTINUOUS
 62
     7
 10
-2.6816899897425692
 20
 21.098186053375045
 11
-1.9986785870404624
 21
 21.781197456077152
  0
LINE
  8
0
  6
CONTINUOUS
 62
     7
 10
 0.0309780450431667
 20
 23.810854088160752
 11
 0.2139907469353766
 21
 23.993866790052991
  0
LINE
  8
0
  6
CONTINUOUS
 62
     7
 10
-2.6044167225958468
 20
 21.232028229213157
 11
-1.9214040207036369
 21
 21.915040931105366
  0
LINE
  8
0
  6
CONTINUOUS
 62
     7
 10
 0.0102723873977588
 20
 23.846717339206734
 11
 0.1932850892899687
 21
 24.029730041098972
  0
LINE
  8
0
  6
CONTINUOUS
 62
     7
 10
-2.5271421562590213
 20
 21.3658717042414
 11
-1.8441294543668114
 21
 22.048884406133581
  0
LINE
  8
0
  6
CONTINUOUS
 62
     7
 10
-0.0104332702476775
 20
 23.882580590252743
 11
 0.1725794316445608
 21
 24.065593292144953
  0
LINE
  8
0
  6
CONTINUOUS
 62
     7
 10
-2.4498675899221958
 20
 21.499715179269614
 11
-1.7668548880299859
 21
 22.182727881161824
  0
LINE
  8
0
  6
CONTINUOUS
 62
     7
 10
-0.0311389278930854
 20
 23.918443841298725
 11
 0.1518737739991529
 21
 24.101456543190963
  0
LINE
  8
0
  6
CONTINUOUS
 62
     7
 10
-2.3725930235853703
 20
 21.633558654297858
 11
-1.6895803216931604
 21
 22.316571356190067
  0
LINE
  8
0
  6
CONTINUOUS
 62
     7
 10
-0.0518445855384932
 20
 23.954307092344706
 11
 0.1311681163537166
 21
 24.137319794236944
  0
LINE
  8
0
  6
CONTINUOUS
 62
     7
 10
-2.2953184572485448
 20
 21.767402129326101
 11
-1.6123057553563349
 21
 22.450414831218282
  0
LINE
  8
0
  6
CONTINUOUS
 62
     7
 10
-0.0725502431839296
 20
 23.990170343390716
 11
 0.1104624587083087
 21
 24.173183045282926
  0
LINE
  8
0
  6
CONTINUOUS
 62
     7
 10
-2.2180438909117193
 20
 21.901245604354315
 11
-1.5350311890195094
 21
 22.584258306246497
  0
LINE
  8
0
  6
CONTINUOUS
 62
     7
 10
-0.0932559008293374
 20
 24.026033594436697
 11
 0.0897568010628724
 21
 24.209046296328907
  0
LINE
  8
0
  6
CONTINUOUS
 62
     7
 10
-2.1407693245748938
 20
 22.03508907938253
 11
-1.4577566226826839
 21
 22.71810178127474
  0
LINE
  8
0
  6
CONTINUOUS
 62
     7
 10
-0.1139615584747453
 20
 24.061896845482678
 11
 0.0690511434174645
 21
 24.244909547374917
  0
LINE
  8
0
  6
CONTINUOUS
 62
     7
 10
-2.0634947582380683
 20
 22.168932554410773
 11
-1.3804820563458584
 21
 22.851945256302983
  0
LINE
  8
0
  6
CONTINUOUS
 62
     7
 10
-0.1346672161201532
 20
 24.097760096528688
 11
 0.0483454857720567
 21
 24.280772798420898
  0
LINE
  8
0
  6
CONTINUOUS
 62
     7
 10
-1.9862201919012428
 20
 22.302776029439016
 11
-1.3032074900090329
 21
 22.985788731331198
  0
LINE
  8
0
  6
CONTINUOUS
 62
     7
 10
-0.1553728737655895
 20
 24.13362334757467
 11
 0.0276398281266488
 21
 24.316636049466879
  0
LINE
  8
0
  6
CONTINUOUS
 62
     7
 10
-1.9089456255644173
 20
 22.436619504467231
 11
-1.2259329236722074
 21
 23.119632206359441
  0
LINE
  8
0
  6
CONTINUOUS
 62
     7
 10
-0.1760785314109974
 20
 24.169486598620651
 11
 0.0069341704812125
 21
 24.352499300512861
  0
LINE
  8
0
  6
CONTINUOUS
 62
     7
 10
-1.8316710592275918
 20
 22.570462979495446
 11
-1.1486583573354103
 21
 23.253475681387656
  0
LINE
  8
0
  6
CONTINUOUS
 62
     7
 10
-0.1967841890564337
 20
 24.205349849666632
 11
-0.0137714871641954
 21
 24.38836255155887
  0
LINE
  8
0
  6
CONTINUOUS
 62
     7
 10
-1.7543964928907663
 20
 22.704306454523689
 11
-1.0713837909985848
 21
 23.387319156415899
  0
LINE
  8
0
  6
CONTINUOUS
 62
     7
 10
-0.2174898467018416
 20
 24.241213100712613
 11
-0.0344771448096033
 21
 24.424225802604852
  0
LINE
  8
0
  6
CONTINUOUS
 62
     7
 10
-1.6771219265539408
 20
 22.838149929551932
 11
-0.9941092246617593
 21
 23.521162631444113
  0
LINE
  8
0
  6
CONTINUOUS
 62
     7
 10
-0.2381955043472495
 20
 24.277076351758623
 11
-0.0551828024550396
 21
 24.460089053650833
  0
LINE
  8
0
  6
CONTINUOUS
 62
     7
 10
-1.5998473602171153
 20
 22.971993404580147
 11
-0.9168346583249338
 21
 23.655006106472356
  0
LINE
  8
0
  6
CONTINUOUS
 62
     7
 10
-0.2589011619926573
 20
 24.312939602804605
 11
-0.0758884601004475
 21
 24.495952304696843
  0
LINE
  8
0
  6
CONTINUOUS
 62
     7
 10
-1.5225727938802898
 20
 23.10583687960839
 11
-0.8395600919881083
 21
 23.788849581500571
  0
LINE
  8
0
  6
CONTINUOUS
 62
     7
 10
-0.2796068196380936
 20
 24.348802853850586
 11
-0.0965941177458554
 21
 24.531815555742824
  0
LINE
  8
0
  6
CONTINUOUS
 62
     7
 10
-1.4452982275434927
 20
 23.239680354636604
 11
-0.7622855256512828
 21
 23.922693056528814
  0
LINE
  8
0
  6
CONTINUOUS
 62
     7
 10
-0.3003124772835015
 20
 24.384666104896596
 11
-0.1172997753912917
 21
 24.567678806788805
  0
LINE
  8
0
  6
CONTINUOUS
 62
     7
 10
-1.3680236612066672
 20
 23.373523829664848
 11
-0.6850109593144573
 21
 24.056536531557029
  0
LINE
  8
0
  6
CONTINUOUS
 62
     7
 10
-0.3210181349289378
 20
 24.420529355942577
 11
-0.1380054330366995
 21
 24.603542057834815
  0
LINE
  8
0
  6
CONTINUOUS
 62
     7
 10
-1.2907490948698417
 20
 23.507367304693062
 11
-0.6077363929776318
 21
 24.190380006585272
  0
LINE
  8
0
  6
CONTINUOUS
 62
     7
 10
-0.3417237925743457
 20
 24.456392606988558
 11
-0.1587110906821074
 21
 24.639405308880796
  0
LINE
  8
0
  6
CONTINUOUS
 62
     7
 10
-1.2134745285330162
 20
 23.641210779721305
 11
-0.5304618266408063
 21
 24.324223481613487
  0
LINE
  8
0
  6
CONTINUOUS
 62
     7
 10
-0.3624294502197536
 20
 24.492255858034568
 11
-0.1794167483275437
 21
 24.675268559926778
  0
LINE
  8
0
  6
CONTINUOUS
 62
     7
 10
-1.1361999621961907
 20
 23.77505425474952
 11
-0.4531872603039808
 21
 24.45806695664173
  0
LINE
  8
0
  6
CONTINUOUS
 62
     7
 10
-0.3831351078651615
 20
 24.528119109080549
 11
-0.2021007430610844
 21
 24.709153473884626
  0
LINE
  8
0
  6
CONTINUOUS
 62
     7
 10
-1.0589253958593652
 20
 23.908897729777763
 11
-0.2294086637989388
 21
 24.73841446183819
  0
LINE
  8
0
  6
CONTINUOUS
 62
     7
 10
-0.9816508295225397
 20
 24.042741204805978
 11
-0.2612857103857955
 21
 24.76310632394275
  0
LINE
  8
0
  6
CONTINUOUS
 62
     7
 10
-0.9043762631857142
 20
 24.176584679834221
 11
-0.2980317229846783
 21
 24.782929220035285
  0
LINE
  8
0
  6
CONTINUOUS
 62
     7
 10
-0.8271016968488887
 20
 24.310428154862436
 11
-0.3404658746619766
 21
 24.797063977049376
  0
LINE
  8
0
  6
CONTINUOUS
 62
     7
 10
-0.7498271305120916
 20
 24.444271629890679
 11
-0.390451358721311
 21
 24.803647401681431
  0
LINE
  8
0
  6
CONTINUOUS
 62
     7
 10
-0.6725525641752661
 20
 24.578115104918894
 11
-0.4530605076228547
 21
 24.797607161471305
  0
LINE
  8
0
  6
CONTINUOUS
 62
     7
 10
-1.9814338204401345
 20
 20.723632957540744
 11
-1.7314338204401345
 21
 20.973632957540744
  0
LINE
  8
0
  6
CONTINUOUS
 62
     7
 10
 0.424385540306087
 20
 23.129452318286965
 11
 0.6073982421982969
 21
 23.312465020179175
  0
LINE
  8
0
  6
CONTINUOUS
 62
     7
 10
-1.9248649117487453
 20
 20.723632957540744
 11
-1.6748649117487453
 21
 20.973632957540744
  0
LINE
  8
0
  6
CONTINUOUS
 62
     7
 10
 0.4450911979514949
 20
 23.093589067240984
 11
 0.6281038998437332
 21
 23.276601769133194
  0
LINE
  8
0
  6
CONTINUOUS
 62
     7
 10
-1.8682960030573277
 20
 20.723632957540744
 11
-1.6182960030573277
 21
 20.973632957540744
  0
LINE
  8
0
  6
CONTINUOUS
 62
     7
 10
 0.4657968555969028
 20
 23.057725816194974
 11
 0.648809557489141
 21
 23.240738518087213
  0
LINE
  8
0
  6
CONTINUOUS
 62
     7
 10
-1.8117270943659101
 20
 20.723632957540744
 11
-1.5617270943659101
 21
 20.973632957540744
  0
LINE
  8
0
  6
CONTINUOUS
 62
     7
 10
 0.4865025132423675
 20
 23.021862565148993
 11
 0.6695152151345774
 21
 23.204875267041231
  0
LINE
  8
0
  6
CONTINUOUS
 62
     7
 10
-1.7551581856745209
 20
 20.723632957540744
 11
-1.5051581856745209
 21
 20.973632957540744
  0
LINE
  8
0
  6
CONTINUOUS
 62
     7
 10
 0.5072081708877754
 20
 22.985999314103012
 11
 0.6902208727799852
 21
 23.169012015995222
  0
LINE
  8
0
  6
CONTINUOUS
 62
     7
 10
-1.6985892769831032
 20
 20.723632957540744
 11
-1.4485892769831032
 21
 20.973632957540744
  0
LINE
  8
0
  6
CONTINUOUS
 62
     7
 10
 0.5279138285331833
 20
 22.950136063057002
 11
 0.7109265304253931
 21
 23.13314876494924
  0
LINE
  8
0
  6
CONTINUOUS
 62
     7
 10
-1.642020368291714
 20
 20.723632957540744
 11
-1.392020368291714
 21
 20.973632957540744
  0
LINE
  8
0
  6
CONTINUOUS
 62
     7
 10
 0.5486194861785911
 20
 22.914272812011021
 11
 0.731632188070801
 21
 23.097285513903259
  0
LINE
  8
0
  6
CONTINUOUS
 62
     7
 10
-1.5854514596002964
 20
 20.723632957540744
 11
-1.3354514596002964
 21
 20.973632957540744
  0
LINE
  8
0
  6
CONTINUOUS
 62
     7
 10
 0.569325143823999
 20
 22.878409560965039
 11
 0.7523378457162089
 21
 23.061422262857249
  0
LINE
  8
0
  6
CONTINUOUS
 62
     7
 10
-1.5288825509088788
 20
 20.723632957540744
 11
-1.2788825509088788
 21
 20.973632957540744
  0
LINE
  8
0
  6
CONTINUOUS
 62
     7
 10
 0.5900308014694353
 20
 22.842546309919058
 11
 0.7730435033616736
 21
 23.025559011811268
  0
LINE
  8
0
  6
CONTINUOUS
 62
     7
 10
-1.4723136422174896
 20
 20.723632957540744
 11
-1.2223136422174896
 21
 20.973632957540744
  0
LINE
  8
0
  6
CONTINUOUS
 62
     7
 10
 0.6107364591148432
 20
 22.806683058873077
 11
 0.7937491610070815
 21
 22.989695760765287
  0
LINE
  8
0
  6
CONTINUOUS
 62
     7
 10
-1.415744733526072
 20
 20.723632957540744
 11
-1.165744733526072
 21
 20.973632957540744
  0
LINE
  8
0
  6
CONTINUOUS
 62
     7
 10
 0.6314421167602511
 20
 22.770819807827067
 11
 0.8144548186524894
 21
 22.953832509719277
  0
LINE
  8
0
  6
CONTINUOUS
 62
     7
 10
-1.3591758248346828
 20
 20.723632957540744
 11
-1.1091758248346828
 21
 20.973632957540744
  0
LINE
  8
0
  6
CONTINUOUS
 62
     7
 10
 0.6521477744056874
 20
 22.734956556781086
 11
 0.8351604762978973
 21
 22.917969258673295
  0
LINE
  8
0
  6
CONTINUOUS
 62
     7
 10
-1.3026069161432652
 20
 20.723632957540744
 11
-1.0526069161432652
 21
 20.973632957540744
  0
LINE
  8
0
  6
CONTINUOUS
 62
     7
 10
 0.6728534320510953
 20
 22.699093305735104
 11
 0.8558661339433051
 21
 22.882106007627314
  0
LINE
  8
0
  6
CONTINUOUS
 62
     7
 10
-1.2460380074518476
 20
 20.723632957540744
 11
-0.9960380074518476
 21
 20.973632957540744
  0
LINE
  8
0
  6
CONTINUOUS
 62
     7
 10
 0.6935590896965032
 20
 22.663230054689095
 11
 0.8765717915887414
 21
 22.846242756581333
  0
LINE
  8
0
  6
CONTINUOUS
 62
     7
 10
-1.1894690987604584
 20
 20.723632957540744
 11
-0.9394690987604584
 21
 20.973632957540744
  0
LINE
  8
0
  6
CONTINUOUS
 62
     7
 10
 0.714264747341911
 20
 22.627366803643113
 11
 0.8972774492341493
 21
 22.810379505535323
  0
LINE
  8
0
  6
CONTINUOUS
 62
     7
 10
-1.1329001900690407
 20
 20.723632957540744
 11
-0.8829001900690408
 21
 20.973632957540744
  0
LINE
  8
0
  6
CONTINUOUS
 62
     7
 10
 0.7349704049873758
 20
 22.591503552597132
 11
 0.9179831068795572
 21
 22.774516254489342
  0
LINE
  8
0
  6
CONTINUOUS
 62
     7
 10
-1.0763312813776515
 20
 20.723632957540744
 11
-0.8263312813776516
 21
 20.973632957540744
  0
LINE
  8
0
  6
CONTINUOUS
 62
     7
 10
 0.7556760626327836
 20
 22.555640301551122
 11
 0.9386887645249935
 21
 22.73865300344336
  0
LINE
  8
0
  6
CONTINUOUS
 62
     7
 10
-1.0197623726862339
 20
 20.723632957540744
 11
-0.7697623726862339
 21
 20.973632957540744
  0
LINE
  8
0
  6
CONTINUOUS
 62
     7
 10
 0.7763817202781915
 20
 22.519777050505141
 11
 0.9593944221704014
 21
 22.702789752397379
  0
LINE
  8
0
  6
CONTINUOUS
 62
     7
 10
-0.9631934639948163
 20
 20.723632957540744
 11
-0.7131934639948163
 21
 20.973632957540744
  0
LINE
  8
0
  6
CONTINUOUS
 62
     7
 10
 0.7970873779235994
 20
 22.48391379945916
 11
 0.9801000798158093
 21
 22.666926501351369
  0
LINE
  8
0
  6
CONTINUOUS
 62
     7
 10
-0.9066245553034271
 20
 20.723632957540744
 11
-0.6566245553034271
 21
 20.973632957540744
  0
LINE
  8
0
  6
CONTINUOUS
 62
     7
 10
 0.8177930355690073
 20
 22.448050548413178
 11
 1.0008057374612171
 21
 22.631063250305388
  0
LINE
  8
0
  6
CONTINUOUS
 62
     7
 10
-0.8500556466120095
 20
 20.723632957540744
 11
-0.6000556466120095
 21
 20.973632957540744
  0
LINE
  8
0
  6
CONTINUOUS
 62
     7
 10
 0.8384986932144436
 20
 22.412187297367197
 11
 1.021511395106625
 21
 22.595199999259407
  0
LINE
  8
0
  6
CONTINUOUS
 62
     7
 10
-0.7934867379206203
 20
 20.723632957540744
 11
-0.5434867379206203
 21
 20.973632957540744
  0
LINE
  8
0
  6
CONTINUOUS
 62
     7
 10
 0.8592043508598515
 20
 22.376324046321187
 11
 1.0422170527520898
 21
 22.559336748213397
  0
LINE
  8
0
  6
CONTINUOUS
 62
     7
 10
-0.7369178292292027
 20
 20.723632957540744
 11
-0.4869178292292027
 21
 20.973632957540744
  0
LINE
  8
0
  6
CONTINUOUS
 62
     7
 10
 0.8799100085052594
 20
 22.340460795275206
 11
 1.0629227103974976
 21
 22.523473497167416
  0
LINE
  8
0
  6
CONTINUOUS
 62
     7
 10
-0.6803489205377851
 20
 20.723632957540744
 11
-0.4303489205377851
 21
 20.973632957540744
  0
LINE
  8
0
  6
CONTINUOUS
 62
     7
 10
 0.9006156661506957
 20
 22.304597544229225
 11
 1.0836283680429055
 21
 22.487610246121434
  0
LINE
  8
0
  6
CONTINUOUS
 62
     7
 10
-0.6237800118463959
 20
 20.723632957540744
 11
-0.3737800118463959
 21
 20.973632957540744
  0
LINE
  8
0
  6
CONTINUOUS
 62
     7
 10
 0.9213213237961035
 20
 22.268734293183215
 11
 1.1043340256883134
 21
 22.451746995075425
  0
LINE
  8
0
  6
CONTINUOUS
 62
     7
 10
-0.5672111031549783
 20
 20.723632957540744
 11
-0.3172111031549783
 21
 20.973632957540744
  0
LINE
  8
0
  6
CONTINUOUS
 62
     7
 10
 0.9420269814415114
 20
 22.232871042137234
 11
 1.1250396833337213
 21
 22.415883744029443
  0
LINE
  8
0
  6
CONTINUOUS
 62
     7
 10
-0.5106421944635891
 20
 20.723632957540744
 11
-0.2606421944635891
 21
 20.973632957540744
  0
LINE
  8
0
  6
CONTINUOUS
 62
     7
 10
 0.9627326390869193
 20
 22.197007791091252
 11
 1.1457453409791576
 21
 22.380020492983462
  0
LINE
  8
0
  6
CONTINUOUS
 62
     7
 10
-0.4540732857721714
 20
 20.723632957540744
 11
-0.2040732857721714
 21
 20.973632957540744
  0
LINE
  8
0
  6
CONTINUOUS
 62
     7
 10
 0.9834382967323272
 20
 22.161144540045242
 11
 1.1664509986245655
 21
 22.344157241937481
  0
LINE
  8
0
  6
CONTINUOUS
 62
     7
 10
-0.3975043770807538
 20
 20.723632957540744
 11
-0.1475043770807538
 21
 20.973632957540744
  0
LINE
  8
0
  6
CONTINUOUS
 62
     7
 10
 1.0041439543777919
 20
 22.125281288999261
 11
 1.1871566562700018
 21
 22.308293990891499
  0
LINE
  8
0
  6
CONTINUOUS
 62
     7
 10
-0.3409354683893646
 20
 20.723632957540744
 11
-0.0909354683893646
 21
 20.973632957540744
  0
LINE
  8
0
  6
CONTINUOUS
 62
     7
 10
 1.0248496120231998
 20
 22.08941803795328
 11
 1.2078623139154097
 21
 22.27243073984549
  0
LINE
  8
0
  6
CONTINUOUS
 62
     7
 10
-0.284366559697947
 20
 20.723632957540744
 11
-0.034366559697947
 21
 20.973632957540744
  0
LINE
  8
0
  6
CONTINUOUS
 62
     7
 10
 1.0455552696686077
 20
 22.053554786907299
 11
 1.2285679715608175
 21
 22.236567488799508
  0
LINE
  8
0
  6
CONTINUOUS
 62
     7
 10
-0.2277976510065578
 20
 20.723632957540744
 11
 0.0222023489934422
 21
 20.973632957540744
  0
LINE
  8
0
  6
CONTINUOUS
 62
     7
 10
 1.0662609273140156
 20
 22.017691535861289
 11
 1.2492736292062254
 21
 22.200704237753527
  0
LINE
  8
0
  6
CONTINUOUS
 62
     7
 10
-0.1712287423151402
 20
 20.723632957540744
 11
 0.0787712576848598
 21
 20.973632957540744
  0
LINE
  8
0
  6
CONTINUOUS
 62
     7
 10
 1.0869665849594234
 20
 21.981828284815307
 11
 1.2699792868516333
 21
 22.164840986707517
  0
LINE
  8
0
  6
CONTINUOUS
 62
     7
 10
-0.1146598336237226
 20
 20.723632957540744
 11
 0.1353401663762774
 21
 20.973632957540744
  0
LINE
  8
0
  6
CONTINUOUS
 62
     7
 10
 1.1076722426048597
 20
 21.945965033769326
 11
 1.2906849444970412
 21
 22.128977735661536
  0
LINE
  8
0
  6
CONTINUOUS
 62
     7
 10
-0.0580909249323334
 20
 20.723632957540744
 11
 0.1919090750676666
 21
 20.973632957540744
  0
LINE
  8
0
  6
CONTINUOUS
 62
     7
 10
 1.1283779002502676
 20
 21.910101782723345
 11
 1.3113906021425059
 21
 22.093114484615555
  0
LINE
  8
0
  6
CONTINUOUS
 62
     7
 10
-0.0015220162409157
 20
 20.723632957540744
 11
 0.2484779837590843
 21
 20.973632957540744
  0
LINE
  8
0
  6
CONTINUOUS
 62
     7
 10
 1.1490835578957039
 20
 21.874238531677335
 11
 1.3320962597879138
 21
 22.057251233569545
  0
LINE
  8
0
  6
CONTINUOUS
 62
     7
 10
 0.0550468924504735
 20
 20.723632957540744
 11
 0.3050468924504735
 21
 20.973632957540744
  0
LINE
  8
0
  6
CONTINUOUS
 62
     7
 10
 1.1697892155411118
 20
 21.838375280631354
 11
 1.3528019174333217
 21
 22.021387982523564
  0
LINE
  8
0
  6
CONTINUOUS
 62
     7
 10
 0.1116158011418911
 20
 20.723632957540744
 11
 0.3616158011418911
 21
 20.973632957540744
  0
LINE
  8
0
  6
CONTINUOUS
 62
     7
 10
 1.1904948731865197
 20
 21.802512029585372
 11
 1.3735075750787296
 21
 21.985524731477582
  0
LINE
  8
0
  6
CONTINUOUS
 62
     7
 10
 0.1681847098333087
 20
 20.723632957540744
 11
 0.4181847098333087
 21
 20.973632957540744
  0
LINE
  8
0
  6
CONTINUOUS
 62
     7
 10
 1.2112005308319276
 20
 21.766648778539363
 11
 1.3942132327241374
 21
 21.949661480431573
  0
LINE
  8
0
  6
CONTINUOUS
 62
     7
 10
 0.2247536185246979
 20
 20.723632957540744
 11
 0.4747536185246979
 21
 20.973632957540744
  0
LINE
  8
0
  6
CONTINUOUS
 62
     7
 10
 1.2319061884773355
 20
 21.730785527493381
 11
 1.4149188903695737
 21
 21.913798229385591
  0
LINE
  8
0
  6
CONTINUOUS
 62
     7
 10
 0.2813225272160871
 20
 20.723632957540744
 11
 0.5313225272160871
 21
 20.973632957540744
  0
LINE
  8
0
  6
CONTINUOUS
 62
     7
 10
 1.2526118461228002
 20
 21.6949222764474
 11
 1.4356245480149816
 21
 21.87793497833961
  0
LINE
  8
0
  6
CONTINUOUS
 62
     7
 10
 0.3378914359075047
 20
 20.723632957540744
 11
 0.5878914359075047
 21
 20.973632957540744
  0
LINE
  8
0
  6
CONTINUOUS
 62
     7
 10
 1.2733175037682081
 20
 21.659059025401419
 11
 1.4563302056604179
 21
 21.842071727293629
  0
LINE
  8
0
  6
CONTINUOUS
 62
     7
 10
 0.3944603445989223
 20
 20.723632957540744
 11
 0.6444603445989223
 21
 20.973632957540744
  0
LINE
  8
0
  6
CONTINUOUS
 62
     7
 10
 1.294023161413616
 20
 21.623195774355409
 11
 1.4770358633058258
 21
 21.806208476247647
  0
LINE
  8
0
  6
CONTINUOUS
 62
     7
 10
 0.4510292532903399
 20
 20.723632957540744
 11
 0.7010292532903399
 21
 20.973632957540744
  0
LINE
  8
0
  6
CONTINUOUS
 62
     7
 10
 1.3147288190590238
 20
 21.587332523309428
 11
 1.4977415209512337
 21
 21.770345225201638
  0
LINE
  8
0
  6
CONTINUOUS
 62
     7
 10
 0.5075981619817291
 20
 20.723632957540744
 11
 0.7575981619817291
 21
 20.973632957540744
  0
LINE
  8
0
  6
CONTINUOUS
 62
     7
 10
 1.3354344767044317
 20
 21.551469272263446
 11
 1.5184471785966416
 21
 21.734481974155656
  0
LINE
  8
0
  6
CONTINUOUS
 62
     7
 10
 0.5641670706731183
 20
 20.723632957540744
 11
 0.8141670706731183
 21
 20.973632957540744
  0
LINE
  8
0
  6
CONTINUOUS
 62
     7
 10
 1.356140134349868
 20
 21.515606021217465
 11
 1.5391528362420495
 21
 21.698618723109675
  0
LINE
  8
0
  6
CONTINUOUS
 62
     7
 10
 0.620735979364536
 20
 20.723632957540744
 11
 0.870735979364536
 21
 20.973632957540744
  0
LINE
  8
0
  6
CONTINUOUS
 62
     7
 10
 1.3768457919952759
 20
 21.479742770171455
 11
 1.5598584938875142
 21
 21.662755472063665
  0
LINE
  8
0
  6
CONTINUOUS
 62
     7
 10
 0.6773048880559536
 20
 20.723632957540744
 11
 0.9273048880559536
 21
 20.973632957540744
  0
LINE
  8
0
  6
CONTINUOUS
 62
     7
 10
 1.3975514496406838
 20
 21.443879519125474
 11
 1.5805641515329221
 21
 21.626892221017684
  0
LINE
  8
0
  6
CONTINUOUS
 62
     7
 10
 0.7338737967473712
 20
 20.723632957540744
 11
 0.9838737967473712
 21
 20.973632957540744
  0
LINE
  8
0
  6
CONTINUOUS
 62
     7
 10
 1.4182571072861201
 20
 21.408016268079493
 11
 1.60126980917833
 21
 21.591028969971703
  0
LINE
  8
0
  6
CONTINUOUS
 62
     7
 10
 0.7904427054387604
 20
 20.723632957540744
 11
 1.0404427054387604
 21
 20.973632957540744
  0
LINE
  8
0
  6
CONTINUOUS
 62
     7
 10
 1.438962764931528
 20
 21.372153017033483
 11
 1.6219754668237378
 21
 21.555165718925693
  0
LINE
  8
0
  6
CONTINUOUS
 62
     7
 10
 0.8470116141301496
 20
 20.723632957540744
 11
 1.0970116141301496
 21
 20.973632957540744
  0
LINE
  8
0
  6
CONTINUOUS
 62
     7
 10
 1.4596684225769359
 20
 21.336289765987502
 11
 1.6426811244691457
 21
 21.519302467879712
  0
LINE
  8
0
  6
CONTINUOUS
 62
     7
 10
 0.9035805228215672
 20
 20.723632957540744
 11
 1.1535805228215672
 21
 20.973632957540744
  0
LINE
  8
0
  6
CONTINUOUS
 62
     7
 10
 1.4803740802223437
 20
 21.30042651494152
 11
 1.663386782114582
 21
 21.48343921683373
  0
LINE
  8
0
  6
CONTINUOUS
 62
     7
 10
 0.9601494315129848
 20
 20.723632957540744
 11
 1.2101494315129848
 21
 20.973632957540744
  0
LINE
  8
0
  6
CONTINUOUS
 62
     7
 10
 1.5010797378677516
 20
 21.264563263895511
 11
 1.6840924397599899
 21
 21.447575965787749
  0
LINE
  8
0
  6
CONTINUOUS
 62
     7
 10
 1.0167183402044024
 20
 20.723632957540744
 11
 1.2667183402044024
 21
 20.973632957540744
  0
LINE
  8
0
  6
CONTINUOUS
 62
     7
 10
 1.5217853955132163
 20
 21.228700012849529
 11
 1.7047980974053978
 21
 21.411712714741739
  0
LINE
  8
0
  6
CONTINUOUS
 62
     7
 10
 1.0732872488957916
 20
 20.723632957540744
 11
 1.3232872488957916
 21
 20.973632957540744
  0
LINE
  8
0
  6
CONTINUOUS
 62
     7
 10
 1.5424910531586242
 20
 21.192836761803548
 11
 1.7255037550508341
 21
 21.375849463695758
  0
LINE
  8
0
  6
CONTINUOUS
 62
     7
 10
 1.1298561575871808
 20
 20.723632957540744
 11
 1.3798561575871808
 21
 20.973632957540744
  0
LINE
  8
0
  6
CONTINUOUS
 62
     7
 10
 1.5631967108040321
 20
 21.156973510757567
 11
 1.746209412696242
 21
 21.339986212649777
  0
LINE
  8
0
  6
CONTINUOUS
 62
     7
 10
 1.1864250662785985
 20
 20.723632957540744
 11
 1.4364250662785985
 21
 20.973632957540744
  0
LINE
  8
0
  6
CONTINUOUS
 62
     7
 10
 1.58390236844944
 20
 21.121110259711585
 11
 1.7669150703416499
 21
 21.304122961603795
  0
LINE
  8
0
  6
CONTINUOUS
 62
     7
 10
 1.2429939749700161
 20
 20.723632957540744
 11
 1.4929939749700161
 21
 20.973632957540744
  0
LINE
  8
0
  6
CONTINUOUS
 62
     7
 10
 1.6046080260948763
 20
 21.085247008665576
 11
 1.7876207279870577
 21
 21.268259710557786
  0
LINE
  8
0
  6
CONTINUOUS
 62
     7
 10
 1.2995628836614337
 20
 20.723632957540744
 11
 1.5495628836614337
 21
 20.973632957540744
  0
LINE
  8
0
  6
CONTINUOUS
 62
     7
 10
 1.6253136837402842
 20
 21.049383757619594
 11
 1.8083263856324656
 21
 21.232396459511804
  0
LINE
  8
0
  6
CONTINUOUS
 62
     7
 10
 1.3561317923528229
 20
 20.723632957540744
 11
 1.6061317923528229
 21
 20.973632957540744
  0
LINE
  8
0
  6
CONTINUOUS
 62
     7
 10
 1.6460193413856921
 20
 21.013520506573613
 11
 1.8290320432779303
 21
 21.196533208465823
  0
LINE
  8
0
  6
CONTINUOUS
 62
     7
 10
 1.4127007010442121
 20
 20.723632957540744
 11
 1.6627007010442121
 21
 20.973632957540744
  0
LINE
  8
0
  6
CONTINUOUS
 62
     7
 10
 1.6667249990311284
 20
 20.977657255527603
 11
 1.8497377009233382
 21
 21.160669957419813
  0
LINE
  8
0
  6
CONTINUOUS
 62
     7
 10
 1.4692696097356297
 20
 20.723632957540744
 11
 1.8704433585687461
 21
 21.124806706373832
  0
LINE
  8
0
  6
CONTINUOUS
 62
     7
 10
 1.5258385184270473
 20
 20.723632957540744
 11
 1.8909631876441999
 21
 21.088757626757925
  0
LINE
  8
0
  6
CONTINUOUS
 62
     7
 10
 1.5824074271184649
 20
 20.723632957540744
 11
 1.9075028924018333
 21
 21.048728422824112
  0
LINE
  8
0
  6
CONTINUOUS
 62
     7
 10
 1.6389763358098541
 20
 20.723632957540744
 11
 1.9174243296629179
 21
 21.002080951393808
  0
LINE
  8
0
  6
CONTINUOUS
 62
     7
 10
 1.6971268460515994
 20
 20.7252145590911
 11
 1.9174663812525345
 21
 20.945554094292007
  0
LINE
  8
0
  6
CONTINUOUS
 62
     7
 10
 1.7762784055937679
 20
 20.747797209941851
 11
 1.8948837304017552
 21
 20.866402534749838
  0
ARC
  8
0
  6
CONTINUOUS
 62
     3
 10
-0.3979388695506607
 20
 22.033915976462893
 40
 0.119988
 50
 180.00000307046903
 51
 0
  0
ARC
  8
0
  6
CONTINUOUS
 62
     3
 10
-0.3979388695506607
 20
 23.373781976462922
 40
 0.219978
 50
-4.2797832732897314
 51
-175.72021979717459
  0
LINE
  8
0
  6
CONTINUOUS
 62
     3
 10
-0.5175922863328601
 20
 22.024961648104679
 11
-0.6173034669846409
 21
 23.35736570780621
  0
LINE
  8
0
  6
CONTINUOUS
 62
     3
 10
-0.2782854527684613
 20
 22.024961648104679
 11
-0.1785742721166521
 21
 23.35736570780621
  0
LINE
  8
0
  6
CONTINUOUS
 62
     7
 10
-0.5377298970821478
 20
 22.294053179662498
 11
-0.2355327549417901
 21
 22.596250321802856
  0
LINE
  8
0
  6
CONTINUOUS
 62
     7
 10
-0.5408807902588144
 20
 22.336157413438954
 11
-0.231872117149738
 21
 22.645166086548031
  0
LINE
  8
0
  6
CONTINUOUS
 62
     7
 10
-0.5440316834355095
 20
 22.37826164721541
 11
-0.2282114793576859
 21
 22.694081851293205
  0
LINE
  8
0
  6
CONTINUOUS
 62
     7
 10
-0.5471825766121761
 20
 22.420365880991838
 11
-0.2245508415656055
 21
 22.742997616038409
  0
LINE
  8
0
  6
CONTINUOUS
 62
     7
 10
-0.5503334697888427
 20
 22.462470114768294
 11
-0.2208902037735534
 21
 22.791913380783583
  0
LINE
  8
0
  6
CONTINUOUS
 62
     7
 10
-0.5534843629655377
 20
 22.504574348544722
 11
-0.2172295659815013
 21
 22.840829145528758
  0
LINE
  8
0
  6
CONTINUOUS
 62
     7
 10
-0.5566352561422043
 20
 22.546678582321178
 11
-0.2135689281894777
 21
 22.889744910273933
  0
LINE
  8
0
  6
CONTINUOUS
 62
     7
 10
-0.5597861493188994
 20
 22.588782816097634
 11
-0.2099082903973972
 21
 22.938660675019108
  0
LINE
  8
0
  6
CONTINUOUS
 62
     7
 10
-0.562937042495566
 20
 22.63088704987409
 11
-0.2062476526053452
 21
 22.987576439764283
  0
LINE
  8
0
  6
CONTINUOUS
 62
     7
 10
-0.5660879356722326
 20
 22.672991283650546
 11
-0.2025870148132931
 21
 23.036492204509457
  0
LINE
  8
0
  6
CONTINUOUS
 62
     7
 10
-0.5692388288488992
 20
 22.715095517427002
 11
-0.1989263770212411
 21
 23.085407969254661
  0
LINE
  8
0
  6
CONTINUOUS
 62
     7
 10
-0.5723897220255942
 20
 22.75719975120343
 11
-0.195265739229189
 21
 23.134323733999835
  0
LINE
  8
0
  6
CONTINUOUS
 62
     7
 10
-0.5755406152022609
 20
 22.799303984979886
 11
-0.1916051014371369
 21
 23.18323949874501
  0
LINE
  8
0
  6
CONTINUOUS
 62
     7
 10
-0.5786915083789559
 20
 22.841408218756342
 11
-0.1879444636450849
 21
 23.232155263490185
  0
LINE
  8
0
  6
CONTINUOUS
 62
     7
 10
-0.5818424015556225
 20
 22.88351245253277
 11
-0.1842838258530328
 21
 23.28107102823536
  0
LINE
  8
0
  6
CONTINUOUS
 62
     7
 10
-0.5849932947322891
 20
 22.925616686309226
 11
-0.1806231880609808
 21
 23.329986792980534
  0
LINE
  8
0
  6
CONTINUOUS
 62
     7
 10
-0.5881441879089557
 20
 22.967720920085682
 11
-0.1779992586748342
 21
 23.377865849319832
  0
LINE
  8
0
  6
CONTINUOUS
 62
     7
 10
-0.5912950810856508
 20
 23.009825153862138
 11
-0.1825659067533145
 21
 23.418554328194475
  0
LINE
  8
0
  6
CONTINUOUS
 62
     7
 10
-0.5944459742623174
 20
 23.051929387638594
 11
-0.1929028287498973
 21
 23.453472227975212
  0
LINE
  8
0
  6
CONTINUOUS
 62
     7
 10
-0.597596867438984
 20
 23.094033621415022
 11
-0.2075887534177703
 21
 23.48404143026049
  0
LINE
  8
0
  6
CONTINUOUS
 62
     7
 10
-0.600747760615679
 20
 23.136137855191478
 11
-0.2259514469899564
 21
 23.510933863641398
  0
LINE
  8
0
  6
CONTINUOUS
 62
     7
 10
-0.6038986537923456
 20
 23.178242088967934
 11
-0.2476880116449145
 21
 23.534452425939591
  0
LINE
  8
0
  6
CONTINUOUS
 62
     7
 10
-0.6070495469690123
 20
 23.220346322744362
 11
-0.2727395067459675
 21
 23.554656057791632
  0
LINE
  8
0
  6
CONTINUOUS
 62
     7
 10
-0.6102004401457073
 20
 23.262450556520818
 11
-0.3012703373341203
 21
 23.571380659332405
  0
LINE
  8
0
  6
CONTINUOUS
 62
     7
 10
-0.6133513333223739
 20
 23.304554790297274
 11
-0.3337271105198347
 21
 23.584179013099842
  0
LINE
  8
0
  6
CONTINUOUS
 62
     7
 10
-0.6165022264990405
 20
 23.34665902407373
 11
-0.3710504789588534
 21
 23.592110466438143
  0
LINE
  8
0
  6
CONTINUOUS
 62
     7
 10
-0.6172270836802518
 20
 23.391188988669867
 11
-0.4153459037810485
 21
 23.593070168569071
  0
LINE
  8
0
  6
CONTINUOUS
 62
     7
 10
-0.6046495865042125
 20
 23.449021612799029
 11
-0.4731785279102105
 21
 23.580492671393031
  0
LINE
  8
0
  6
CONTINUOUS
 62
     7
 10
-0.5345790039054812
 20
 22.251948945886042
 11
-0.2391933927338137
 21
 22.547334557057681
  0
LINE
  8
0
  6
CONTINUOUS
 62
     7
 10
-0.5314281107287862
 20
 22.209844712109586
 11
-0.2428540305258942
 21
 22.498418792312506
  0
LINE
  8
0
  6
CONTINUOUS
 62
     7
 10
-0.5282772175521195
 20
 22.167740478333158
 11
-0.2465146683179462
 21
 22.449503027567332
  0
LINE
  8
0
  6
CONTINUOUS
 62
     7
 10
-0.5251263243754529
 20
 22.125636244556702
 11
-0.2501753061099983
 21
 22.400587262822157
  0
LINE
  8
0
  6
CONTINUOUS
 62
     7
 10
-0.5219754311987579
 20
 22.083532010780246
 11
-0.2538359439020503
 21
 22.351671498076982
  0
LINE
  8
0
  6
CONTINUOUS
 62
     7
 10
-0.5188245380220913
 20
 22.04142777700379
 11
-0.2574965816941024
 21
 22.302755733331807
  0
LINE
  8
0
  6
CONTINUOUS
 62
     7
 10
-0.5134722889581163
 20
 22.001524593938868
 11
-0.2611572194861545
 21
 22.253839968586632
  0
LINE
  8
0
  6
CONTINUOUS
 62
     7
 10
-0.499585014604822
 20
 21.970156741339039
 11
-0.2648178572782065
 21
 22.204924203841458
  0
LINE
  8
0
  6
CONTINUOUS
 62
     7
 10
-0.4790192436392893
 20
 21.945467385351449
 11
-0.2684784950702586
 21
 22.156008439096283
  0
LINE
  8
0
  6
CONTINUOUS
 62
     7
 10
-0.4522887412282053
 20
 21.926942760809411
 11
-0.2721391328623106
 21
 22.10709267435108
  0
LINE
  8
0
  6
CONTINUOUS
 62
     7
 10
-0.4183071799266038
 20
 21.915669195157918
 11
-0.2757997706543627
 21
 22.058176909605905
  0
LINE
  8
0
  6
CONTINUOUS
 62
     7
 10
-0.3719436575975017
 20
 21.916777590533869
 11
-0.2808008386528691
 21
 22.007920409478501
  0
CIRCLE
  8
0
  6
CONTINUOUS
 62
     3
 10
-0.3979388695506607
 20
 21.573961976462883
 40
 0.219978
  0
LINE
  8
0
  6
CONTINUOUS
 62
     7
 10
-0.553486956097931
 20
 21.418413918498302
 11
-0.2423910850743205
 21
 21.729509789521884
  0
LINE
  8
0
  6
CONTINUOUS
 62
     7
 10
-0.574459900897228
 20
 21.4426961006521
 11
-0.2666732672281462
 21
 21.75048273432121
  0
LINE
  8
0
  6
CONTINUOUS
 62
     7
 10
-0.5920132741087976
 20
 21.470397854393681
 11
-0.2943750209696994
 21
 21.76803610753278
  0
LINE
  8
0
  6
CONTINUOUS
 62
     7
 10
-0.6057756271515764
 20
 21.501890628303997
 11
-0.3258677948800433
 21
 21.781798460575558
  0
LINE
  8
0
  6
CONTINUOUS
 62
     7
 10
-0.6149524428036166
 20
 21.537968939605108
 11
-0.3619461061811258
 21
 21.79097527622757
  0
LINE
  8
0
  6
CONTINUOUS
 62
     7
 10
-0.6178241624602556
 20
 21.580352346901591
 11
-0.4043295134776379
 21
 21.793846995884209
  0
LINE
  8
0
  6
CONTINUOUS
 62
     7
 10
-0.6096182850344185
 20
 21.633813351280551
 11
-0.4577905178565978
 21
 21.785641118458372
  0
LINE
  8
0
  6
CONTINUOUS
 62
     7
 10
-0.5292047781467382
 20
 21.397440969496344
 11
-0.2214181360723906
 21
 21.70522761157072
  0
LINE
  8
0
  6
CONTINUOUS
 62
     7
 10
-0.501503028894394
 20
 21.379887591795566
 11
-0.203864758371612
 21
 21.677525862318376
  0
LINE
  8
0
  6
CONTINUOUS
 62
     7
 10
-0.4700102601558349
 20
 21.366125233581002
 11
-0.19010240015702
 21
 21.646033093579817
  0
LINE
  8
0
  6
CONTINUOUS
 62
     7
 10
-0.4339319554413983
 20
 21.356948411342316
 11
-0.1809255779183623
 21
 21.609954788865352
  0
LINE
  8
0
  6
CONTINUOUS
 62
     7
 10
-0.3915485579884042
 20
 21.354076681842187
 11
-0.1780538484182053
 21
 21.567571391412386
  0
LINE
  8
0
  6
CONTINUOUS
 62
     7
 10
-0.3380875744332919
 20
 21.362282538444177
 11
-0.1862597050201948
 21
 21.514110407857274
  0
ENDBLK
  8
0
  0
BLOCK
  8
0
  2
CADWIN-G1
 70
    0
 10
0.0
 20
0.0
  0
LINE
  8
0
  6
CONTINUOUS
 62
     3
 10
 0.1880752798532388
 20
 7.9588589213865006
 11
 10.523011770392161
 21
 7.9588589213865006
  0
ARC
  8
0
  6
CONTINUOUS
 62
     3
 10
 0.1880752798532388
 20
 8.5838589213865006
 40
 0.625
 50
 150.00000255872399
 51
-90.000001535234532
  0
ARC
  8
0
  6
CONTINUOUS
 62
     3
 10
 10.523011770392161
 20
 8.5838589213865006
 40
 0.625
 50
-90.000001535234816
 51
 30.000000511744783
  0
LINE
  8
0
  6
CONTINUOUS
 62
     3
 10
-0.3531905975120093
 20
 8.8963589213865006
 11
 4.8142776477574376
 21
 17.846676468692003
  0
LINE
  8
0
  6
CONTINUOUS
 62
     3
 10
 5.8968094024879907
 20
 17.846676468692003
 11
 11.064277647757409
 21
 8.8963589213865006
  0
ARC
  8
0
  6
CONTINUOUS
 62
     3
 10
 5.3555435251226857
 20
 17.534176468692003
 40
 0.625
 50
 30.000000511744894
 51
 150.00000255872422
  0
LINE
  8
0
  6
CONTINUOUS
 62
     3
 10
 5.3555435251226857
 20
 17.534176468691975
 11
 0.1880752798532388
 21
 8.5838589213865006
  0
LINE
  8
0
  6
CONTINUOUS
 62
     3
 10
 0.1880752798532388
 20
 8.5838589213865006
 11
 10.523011770392161
 21
 8.5838589213865006
  0
LINE
  8
0
  6
CONTINUOUS
 62
     3
 10
 5.3555435251226857
 20
 17.534176468691975
 11
 10.523011770392161
 21
 8.5838589213865006
  0
LINE
  8
0
  6
CONTINUOUS
 62
     7
 10
 1.2553838761704572
 20
 7.9588589213865006
 11
 1.8803838761704572
 21
 8.5838589213865006
  0
LINE
  8
0
  6
CONTINUOUS
 62
     7
 10
 7.3595904056510211
 20
 14.063065450867064
 11
 7.8171221603815457
 21
 14.520597205597589
  0
LINE
  8
0
  6
CONTINUOUS
 62
     7
 10
 1.1139616044419416
 20
 7.9588589213865006
 11
 1.7389616044419416
 21
 8.5838589213865006
  0
LINE
  8
0
  6
CONTINUOUS
 62
     7
 10
 7.3078262615374729
 20
 14.152723578482032
 11
 7.765358016268026
 21
 14.610255333212585
  0
LINE
  8
0
  6
CONTINUOUS
 62
     7
 10
 0.972539332713426
 20
 7.9588589213865006
 11
 1.597539332713426
 21
 8.5838589213865006
  0
LINE
  8
0
  6
CONTINUOUS
 62
     7
 10
 7.2560621174239248
 20
 14.242381706096999
 11
 7.7135938721544779
 21
 14.699913460827553
  0
LINE
  8
0
  6
CONTINUOUS
 62
     7
 10
 0.8311170609849103
 20
 7.9588589213865006
 11
 1.4561170609849103
 21
 8.5838589213865006
  0
LINE
  8
0
  6
CONTINUOUS
 62
     7
 10
 7.2042979733103767
 20
 14.332039833711967
 11
 7.6618297280409298
 21
 14.78957158844252
  0
LINE
  8
0
  6
CONTINUOUS
 62
     7
 10
 0.6896947892563947
 20
 7.9588589213865006
 11
 1.3146947892563947
 21
 8.5838589213865006
  0
LINE
  8
0
  6
CONTINUOUS
 62
     7
 10
 7.1525338291968286
 20
 14.421697961326934
 11
 7.6100655839273816
 21
 14.879229716057488
  0
LINE
  8
0
  6
CONTINUOUS
 62
     7
 10
 0.5482725175278791
 20
 7.9588589213865006
 11
 1.1732725175278791
 21
 8.5838589213865006
  0
LINE
  8
0
  6
CONTINUOUS
 62
     7
 10
 7.1007696850833089
 20
 14.51135608894193
 11
 7.5583014398138335
 21
 14.968887843672455
  0
LINE
  8
0
  6
CONTINUOUS
 62
     7
 10
 0.4068502457993635
 20
 7.9588589213865006
 11
 1.0318502457993635
 21
 8.5838589213865006
  0
LINE
  8
0
  6
CONTINUOUS
 62
     7
 10
 7.0490055409697607
 20
 14.601014216556898
 11
 7.5065372957003138
 21
 15.058545971287451
  0
LINE
  8
0
  6
CONTINUOUS
 62
     7
 10
 0.2654279740708478
 20
 7.9588589213865006
 11
 0.8904279740708478
 21
 8.5838589213865006
  0
LINE
  8
0
  6
CONTINUOUS
 62
     7
 10
 6.9972413968562126
 20
 14.690672344171865
 11
 7.4547731515867657
 21
 15.148204098902418
  0
LINE
  8
0
  6
CONTINUOUS
 62
     7
 10
 0.1269968967495618
 20
 7.9618501157937871
 11
 0.7490057023423322
 21
 8.5838589213865006
  0
LINE
  8
0
  6
CONTINUOUS
 62
     7
 10
 6.9454772527426645
 20
 14.780330471786833
 11
 7.4030090074732176
 21
 15.237862226517386
  0
LINE
  8
0
  6
CONTINUOUS
 62
     7
 10
 0.0088357489133148
 20
 7.9851112396860273
 11
 0.6075834306138166
 21
 8.5838589213865006
  0
LINE
  8
0
  6
CONTINUOUS
 62
     7
 10
 6.8937131086291163
 20
 14.8699885994018
 11
 7.3512448633596694
 21
 15.327520354132353
  0
LINE
  8
0
  6
CONTINUOUS
 62
     7
 10
-0.0923813422863997
 20
 8.0253164202148568
 11
 0.466161158885301
 21
 8.5838589213865006
  0
LINE
  8
0
  6
CONTINUOUS
 62
     7
 10
 6.8419489645155682
 20
 14.959646727016768
 11
 7.2994807192461213
 21
 15.417178481747321
  0
LINE
  8
0
  6
CONTINUOUS
 62
     7
 10
-0.1802204453855563
 20
 8.078899588844159
 11
 0.3247388871567853
 21
 8.5838589213865006
  0
LINE
  8
0
  6
CONTINUOUS
 62
     7
 10
 6.7901848204020485
 20
 15.049304854631764
 11
 7.2477165751326016
 21
 15.506836609362317
  0
LINE
  8
0
  6
CONTINUOUS
 62
     7
 10
-0.2562397685202154
 20
 8.144302537438044
 11
 0.1945757363458416
 21
 8.5951180423040725
  0
LINE
  8
0
  6
CONTINUOUS
 62
     7
 10
 6.7384206762885004
 20
 15.138962982246731
 11
 7.1959524310190535
 21
 15.596494736977284
  0
LINE
  8
0
  6
CONTINUOUS
 62
     7
 10
-0.3208713769612768
 20
 8.2210932007254982
 11
 0.3877621521878769
 21
 8.9297267298746235
  0
LINE
  8
0
  6
CONTINUOUS
 62
     7
 10
 6.6866565321749523
 20
 15.228621109861699
 11
 7.1441882869055053
 21
 15.686152864592252
  0
LINE
  8
0
  6
CONTINUOUS
 62
     7
 10
-0.3736185574824855
 20
 8.3097682919328051
 11
 0.5809485680299407
 21
 9.2643354174452028
  0
LINE
  8
0
  6
CONTINUOUS
 62
     7
 10
 6.6348923880614041
 20
 15.318279237476666
 11
 7.0924241427919572
 21
 15.775810992207219
  0
LINE
  8
0
  6
CONTINUOUS
 62
     7
 10
-0.412827263600958
 20
 8.4119818575428766
 11
 0.7741349838720044
 21
 9.5989441050157822
  0
LINE
  8
0
  6
CONTINUOUS
 62
     7
 10
 6.583128243947856
 20
 15.407937365091634
 11
 7.0406599986784091
 21
 15.865469119822187
  0
LINE
  8
0
  6
CONTINUOUS
 62
     7
 10
-0.434728363088011
 20
 8.5315030297843109
 11
 0.9673213997140682
 21
 9.9335527925863616
  0
LINE
  8
0
  6
CONTINUOUS
 62
     7
 10
 6.5313640998343363
 20
 15.49759549270663
 11
 6.9888958545648894
 21
 15.955127247437183
  0
LINE
  8
0
  6
CONTINUOUS
 62
     7
 10
-0.4298195915385019
 20
 8.6778340730623071
 11
 1.1605078155561319
 21
 10.268161480156941
  0
LINE
  8
0
  6
CONTINUOUS
 62
     7
 10
 6.4795999557207882
 20
 15.587253620321597
 11
 6.9371317104513412
 21
 16.04478537505215
  0
LINE
  8
0
  6
CONTINUOUS
 62
     7
 10
-0.3538342753570998
 20
 8.8952416609722533
 11
 1.3536942313981957
 21
 10.60277016772752
  0
LINE
  8
0
  6
CONTINUOUS
 62
     7
 10
 6.42783581160724
 20
 15.676911747936565
 11
 6.8853675663377931
 21
 16.134443502667118
  0
LINE
  8
0
  6
CONTINUOUS
 62
     7
 10
-0.1606511074902652
 20
 9.2298471005675751
 11
 1.546880647240231
 21
 10.937378855298071
  0
LINE
  8
0
  6
CONTINUOUS
 62
     7
 10
 6.3760716674936919
 20
 15.766569875551532
 11
 6.833603422224245
 21
 16.224101630282085
  0
LINE
  8
0
  6
CONTINUOUS
 62
     7
 10
 0.0325353083517985
 20
 9.5644557881381544
 11
 1.7400670630822948
 21
 11.271987542868651
  0
LINE
  8
0
  6
CONTINUOUS
 62
     7
 10
 6.3243075233801438
 20
 15.8562280031665
 11
 6.7818392781107253
 21
 16.313759757897081
  0
LINE
  8
0
  6
CONTINUOUS
 62
     7
 10
 0.2257217241938623
 20
 9.8990644757087338
 11
 1.9332534789243585
 21
 11.60659623043923
  0
LINE
  8
0
  6
CONTINUOUS
 62
     7
 10
 6.2725433792666241
 20
 15.945886130781496
 11
 6.7300751339971772
 21
 16.403417885512049
  0
LINE
  8
0
  6
CONTINUOUS
 62
     7
 10
 0.418908140035926
 20
 10.233673163279313
 11
 2.1264398947664223
 21
 11.941204918009809
  0
LINE
  8
0
  6
CONTINUOUS
 62
     7
 10
 6.220779235153076
 20
 16.035544258396463
 11
 6.678310989883629
 21
 16.493076013127016
  0
LINE
  8
0
  6
CONTINUOUS
 62
     7
 10
 0.6120945558779898
 20
 10.568281850849893
 11
 2.319626310608486
 21
 12.275813605580389
  0
LINE
  8
0
  6
CONTINUOUS
 62
     7
 10
 6.1690150910395278
 20
 16.125202386011431
 11
 6.6265468457700809
 21
 16.582734140741984
  0
LINE
  8
0
  6
CONTINUOUS
 62
     7
 10
 0.8052809717200251
 20
 10.902890538420444
 11
 2.5128127264505213
 21
 12.61042229315094
  0
LINE
  8
0
  6
CONTINUOUS
 62
     7
 10
 6.1172509469259797
 20
 16.214860513626398
 11
 6.5747827016565328
 21
 16.672392268356951
  0
LINE
  8
0
  6
CONTINUOUS
 62
     7
 10
 0.9984673875620889
 20
 11.237499225991023
 11
 2.7059991422925851
 21
 12.945030980721519
  0
LINE
  8
0
  6
CONTINUOUS
 62
     7
 10
 6.0654868028124316
 20
 16.304518641241366
 11
 6.5230185575430131
 21
 16.762050395971947
  0
LINE
  8
0
  6
CONTINUOUS
 62
     7
 10
 1.1916538034041526
 20
 11.572107913561602
 11
 2.8991855581346488
 21
 13.279639668292099
  0
LINE
  8
0
  6
CONTINUOUS
 62
     7
 10
 6.0137226586989119
 20
 16.394176768856362
 11
 6.4712544134294649
 21
 16.851708523586915
  0
LINE
  8
0
  6
CONTINUOUS
 62
     7
 10
 1.3848402192462164
 20
 11.906716601132182
 11
 3.0923719739767126
 21
 13.614248355862678
  0
LINE
  8
0
  6
CONTINUOUS
 62
     7
 10
 5.9619585145853637
 20
 16.483834896471329
 11
 6.4194902693159168
 21
 16.941366651201882
  0
LINE
  8
0
  6
CONTINUOUS
 62
     7
 10
 1.5780266350882801
 20
 12.241325288702761
 11
 3.2855583898187763
 21
 13.948857043433257
  0
LINE
  8
0
  6
CONTINUOUS
 62
     7
 10
 5.9101943704718156
 20
 16.573493024086297
 11
 6.3677261252023687
 21
 17.03102477881685
  0
LINE
  8
0
  6
CONTINUOUS
 62
     7
 10
 1.7712130509303154
 20
 12.575933976273312
 11
 3.4787448056608117
 21
 14.283465731003808
  0
LINE
  8
0
  6
CONTINUOUS
 62
     7
 10
 5.8584302263582675
 20
 16.663151151701264
 11
 6.3159619810888206
 21
 17.120682906431817
  0
LINE
  8
0
  6
CONTINUOUS
 62
     7
 10
 1.9643994667723792
 20
 12.910542663843891
 11
 3.6719312215028754
 21
 14.618074418574388
  0
LINE
  8
0
  6
CONTINUOUS
 62
     7
 10
 5.8066660822447194
 20
 16.752809279316232
 11
 6.2641978369753009
 21
 17.210341034046813
  0
LINE
  8
0
  6
CONTINUOUS
 62
     7
 10
 2.157585882614443
 20
 13.245151351414471
 11
 3.8651176373449392
 21
 14.952683106144967
  0
LINE
  8
0
  6
CONTINUOUS
 62
     7
 10
 5.7549019381311712
 20
 16.842467406931199
 11
 6.2124336928617527
 21
 17.299999161661781
  0
LINE
  8
0
  6
CONTINUOUS
 62
     7
 10
 2.3507722984565067
 20
 13.57976003898505
 11
 4.0583040531870029
 21
 15.287291793715546
  0
LINE
  8
0
  6
CONTINUOUS
 62
     7
 10
 5.7031377940176515
 20
 16.932125534546195
 11
 6.1606695487482046
 21
 17.389657289276748
  0
LINE
  8
0
  6
CONTINUOUS
 62
     7
 10
 2.5439587142985705
 20
 13.91436872655563
 11
 4.2514904690290667
 21
 15.621900481286126
  0
LINE
  8
0
  6
CONTINUOUS
 62
     7
 10
 5.6513736499041034
 20
 17.021783662161162
 11
 6.1089054046346565
 21
 17.479315416891716
  0
LINE
  8
0
  6
CONTINUOUS
 62
     7
 10
 2.7371451301406058
 20
 14.24897741412618
 11
 4.444676884871102
 21
 15.956509168856677
  0
LINE
  8
0
  6
CONTINUOUS
 62
     7
 10
 5.5996095057905553
 20
 17.11144178977613
 11
 6.0571412605211084
 21
 17.568973544506683
  0
LINE
  8
0
  6
CONTINUOUS
 62
     7
 10
 2.9303315459826695
 20
 14.58358610169676
 11
 4.6378633007131658
 21
 16.291117856427256
  0
LINE
  8
0
  6
CONTINUOUS
 62
     7
 10
 5.5478453616770071
 20
 17.201099917391097
 11
 6.0053771164075886
 21
 17.658631672121679
  0
LINE
  8
0
  6
CONTINUOUS
 62
     7
 10
 3.1235179618247333
 20
 14.918194789267339
 11
 4.8310497165552295
 21
 16.625726543997835
  0
LINE
  8
0
  6
CONTINUOUS
 62
     7
 10
 5.496081217563459
 20
 17.290758045006065
 11
 5.9536129722940405
 21
 17.748289799736646
  0
LINE
  8
0
  6
CONTINUOUS
 62
     7
 10
 3.316704377666797
 20
 15.252803476837919
 11
 5.0242361323972933
 21
 16.960335231568415
  0
LINE
  8
0
  6
CONTINUOUS
 62
     7
 10
 5.4443170734499393
 20
 17.380416172621061
 11
 5.9018488281804924
 21
 17.837947927351614
  0
LINE
  8
0
  6
CONTINUOUS
 62
     7
 10
 3.5098907935088324
 20
 15.58741216440847
 11
 5.217422548239357
 21
 17.294943919138994
  0
LINE
  8
0
  6
CONTINUOUS
 62
     7
 10
 5.3925529293363912
 20
 17.470074300236028
 11
 5.8451388413465839
 21
 17.92266021224625
  0
LINE
  8
0
  6
CONTINUOUS
 62
     7
 10
 3.7030772093508961
 20
 15.922020851979049
 11
 5.7768690395019622
 21
 17.995812682130143
  0
LINE
  8
0
  6
CONTINUOUS
 62
     7
 10
 3.8962636251929599
 20
 16.256629539549628
 11
 5.6971764230348345
 21
 18.057542337391531
  0
LINE
  8
0
  6
CONTINUOUS
 62
     7
 10
 4.0894500410350236
 20
 16.591238227120208
 11
 5.605311391537656
 21
 18.107099577622897
  0
LINE
  8
0
  6
CONTINUOUS
 62
     7
 10
 4.2826364568770874
 20
 16.925846914690787
 11
 5.4992260123444101
 21
 18.14243647015811
  0
LINE
  8
0
  6
CONTINUOUS
 62
     7
 10
 4.4758228727191227
 20
 17.260455602261338
 11
 5.3742623021960174
 21
 18.158895031738261
  0
LINE
  8
0
  6
CONTINUOUS
 62
     7
 10
 4.6690092885611865
 20
 17.595064289831917
 11
 5.2177394299421724
 21
 18.143794431212932
  0
LINE
  8
0
  6
CONTINUOUS
 62
     7
 10
 1.3968061478989728
 20
 7.9588589213865006
 11
 2.0218061478989728
 21
 8.5838589213865006
  0
LINE
  8
0
  6
CONTINUOUS
 62
     7
 10
 7.4113545497645408
 20
 13.973407323252069
 11
 7.8688863044950939
 21
 14.430939077982622
  0
LINE
  8
0
  6
CONTINUOUS
 62
     7
 10
 1.5382284196274885
 20
 7.9588589213865006
 11
 2.1632284196274885
 21
 8.5838589213865006
  0
LINE
  8
0
  6
CONTINUOUS
 62
     7
 10
 7.4631186938780889
 20
 13.883749195637101
 11
 7.920650448608642
 21
 14.341280950367654
  0
LINE
  8
0
  6
CONTINUOUS
 62
     7
 10
 1.6796506913560041
 20
 7.9588589213865006
 11
 2.3046506913560041
 21
 8.5838589213865006
  0
LINE
  8
0
  6
CONTINUOUS
 62
     7
 10
 7.514882837991637
 20
 13.794091068022134
 11
 7.9724145927221901
 21
 14.251622822752687
  0
LINE
  8
0
  6
CONTINUOUS
 62
     7
 10
 1.8210729630845197
 20
 7.9588589213865006
 11
 2.4460729630845197
 21
 8.5838589213865006
  0
LINE
  8
0
  6
CONTINUOUS
 62
     7
 10
 7.5666469821051852
 20
 13.704432940407166
 11
 8.0241787368357382
 21
 14.161964695137719
  0
LINE
  8
0
  6
CONTINUOUS
 62
     7
 10
 1.9624952348130353
 20
 7.9588589213865006
 11
 2.5874952348130353
 21
 8.5838589213865006
  0
LINE
  8
0
  6
CONTINUOUS
 62
     7
 10
 7.6184111262187333
 20
 13.614774812792199
 11
 8.0759428809492579
 21
 14.072306567522723
  0
LINE
  8
0
  6
CONTINUOUS
 62
     7
 10
 2.103917506541551
 20
 7.9588589213865006
 11
 2.728917506541551
 21
 8.5838589213865006
  0
LINE
  8
0
  6
CONTINUOUS
 62
     7
 10
 7.670175270332253
 20
 13.525116685177203
 11
 8.1277070250628061
 21
 13.982648439907756
  0
LINE
  8
0
  6
CONTINUOUS
 62
     7
 10
 2.2453397782700666
 20
 7.9588589213865006
 11
 2.8703397782700666
 21
 8.5838589213865006
  0
LINE
  8
0
  6
CONTINUOUS
 62
     7
 10
 7.7219394144458011
 20
 13.435458557562235
 11
 8.1794711691763542
 21
 13.892990312292788
  0
LINE
  8
0
  6
CONTINUOUS
 62
     7
 10
 2.3867620499985822
 20
 7.9588589213865006
 11
 3.0117620499985822
 21
 8.5838589213865006
  0
LINE
  8
0
  6
CONTINUOUS
 62
     7
 10
 7.7737035585593492
 20
 13.345800429947268
 11
 8.2312353132899023
 21
 13.803332184677821
  0
LINE
  8
0
  6
CONTINUOUS
 62
     7
 10
 2.5281843217270978
 20
 7.9588589213865006
 11
 3.1531843217270978
 21
 8.5838589213865006
  0
LINE
  8
0
  6
CONTINUOUS
 62
     7
 10
 7.8254677026728974
 20
 13.2561423023323
 11
 8.2829994574034504
 21
 13.713674057062853
  0
LINE
  8
0
  6
CONTINUOUS
 62
     7
 10
 2.6696065934556135
 20
 7.9588589213865006
 11
 3.2946065934556135
 21
 8.5838589213865006
  0
LINE
  8
0
  6
CONTINUOUS
 62
     7
 10
 7.8772318467864455
 20
 13.166484174717333
 11
 8.3347636015169702
 21
 13.624015929447857
  0
LINE
  8
0
  6
CONTINUOUS
 62
     7
 10
 2.8110288651841291
 20
 7.9588589213865006
 11
 3.4360288651841291
 21
 8.5838589213865006
  0
LINE
  8
0
  6
CONTINUOUS
 62
     7
 10
 7.9289959908999652
 20
 13.076826047102337
 11
 8.3865277456305183
 21
 13.53435780183289
  0
LINE
  8
0
  6
CONTINUOUS
 62
     7
 10
 2.9524511369126447
 20
 7.9588589213865006
 11
 3.5774511369126447
 21
 8.5838589213865006
  0
LINE
  8
0
  6
CONTINUOUS
 62
     7
 10
 7.9807601350135133
 20
 12.987167919487369
 11
 8.4382918897440664
 21
 13.444699674217922
  0
LINE
  8
0
  6
CONTINUOUS
 62
     7
 10
 3.0938734086411603
 20
 7.9588589213865006
 11
 3.7188734086411603
 21
 8.5838589213865006
  0
LINE
  8
0
  6
CONTINUOUS
 62
     7
 10
 8.0325242791270615
 20
 12.897509791872402
 11
 8.4900560338576145
 21
 13.355041546602955
  0
LINE
  8
0
  6
CONTINUOUS
 62
     7
 10
 3.235295680369676
 20
 7.9588589213865006
 11
 3.860295680369676
 21
 8.5838589213865006
  0
LINE
  8
0
  6
CONTINUOUS
 62
     7
 10
 8.0842884232406096
 20
 12.807851664257434
 11
 8.5418201779711627
 21
 13.265383418987987
  0
LINE
  8
0
  6
CONTINUOUS
 62
     7
 10
 3.3767179520981916
 20
 7.9588589213865006
 11
 4.0017179520981916
 21
 8.5838589213865006
  0
LINE
  8
0
  6
CONTINUOUS
 62
     7
 10
 8.1360525673541577
 20
 12.718193536642467
 11
 8.5935843220846824
 21
 13.175725291372991
  0
LINE
  8
0
  6
CONTINUOUS
 62
     7
 10
 3.5181402238267072
 20
 7.9588589213865006
 11
 4.1431402238267072
 21
 8.5838589213865006
  0
LINE
  8
0
  6
CONTINUOUS
 62
     7
 10
 8.1878167114677058
 20
 12.628535409027499
 11
 8.6453484661982305
 21
 13.086067163758024
  0
LINE
  8
0
  6
CONTINUOUS
 62
     7
 10
 3.6595624955552228
 20
 7.9588589213865006
 11
 4.2845624955552228
 21
 8.5838589213865006
  0
LINE
  8
0
  6
CONTINUOUS
 62
     7
 10
 8.2395808555812255
 20
 12.538877281412503
 11
 8.6971126103117786
 21
 12.996409036143056
  0
LINE
  8
0
  6
CONTINUOUS
 62
     7
 10
 3.8009847672837385
 20
 7.9588589213865006
 11
 4.4259847672837385
 21
 8.5838589213865006
  0
LINE
  8
0
  6
CONTINUOUS
 62
     7
 10
 8.2913449996947737
 20
 12.449219153797536
 11
 8.7488767544253268
 21
 12.906750908528089
  0
LINE
  8
0
  6
CONTINUOUS
 62
     7
 10
 3.9424070390122541
 20
 7.9588589213865006
 11
 4.5674070390122541
 21
 8.5838589213865006
  0
LINE
  8
0
  6
CONTINUOUS
 62
     7
 10
 8.3431091438083218
 20
 12.359561026182568
 11
 8.8006408985388749
 21
 12.817092780913121
  0
LINE
  8
0
  6
CONTINUOUS
 62
     7
 10
 4.0838293107407697
 20
 7.9588589213865006
 11
 4.7088293107407697
 21
 8.5838589213865006
  0
LINE
  8
0
  6
CONTINUOUS
 62
     7
 10
 8.3948732879218699
 20
 12.269902898567601
 11
 8.8524050426523946
 21
 12.727434653298126
  0
LINE
  8
0
  6
CONTINUOUS
 62
     7
 10
 4.2252515824692853
 20
 7.9588589213865006
 11
 4.8502515824692853
 21
 8.5838589213865006
  0
LINE
  8
0
  6
CONTINUOUS
 62
     7
 10
 8.4466374320354181
 20
 12.180244770952633
 11
 8.9041691867659427
 21
 12.637776525683158
  0
LINE
  8
0
  6
CONTINUOUS
 62
     7
 10
 4.366673854197801
 20
 7.9588589213865006
 11
 4.991673854197801
 21
 8.5838589213865006
  0
LINE
  8
0
  6
CONTINUOUS
 62
     7
 10
 8.4984015761489378
 20
 12.090586643337637
 11
 8.9559333308794908
 21
 12.548118398068191
  0
LINE
  8
0
  6
CONTINUOUS
 62
     7
 10
 4.5080961259263166
 20
 7.9588589213865006
 11
 5.1330961259263166
 21
 8.5838589213865006
  0
LINE
  8
0
  6
CONTINUOUS
 62
     7
 10
 8.5501657202624859
 20
 12.00092851572267
 11
 9.007697474993039
 21
 12.458460270453223
  0
LINE
  8
0
  6
CONTINUOUS
 62
     7
 10
 4.6495183976548322
 20
 7.9588589213865006
 11
 5.2745183976548322
 21
 8.5838589213865006
  0
LINE
  8
0
  6
CONTINUOUS
 62
     7
 10
 8.601929864376034
 20
 11.911270388107702
 11
 9.0594616191065871
 21
 12.368802142838256
  0
LINE
  8
0
  6
CONTINUOUS
 62
     7
 10
 4.7909406693833478
 20
 7.9588589213865006
 11
 5.4159406693833478
 21
 8.5838589213865006
  0
LINE
  8
0
  6
CONTINUOUS
 62
     7
 10
 8.6536940084895821
 20
 11.821612260492735
 11
 9.1112257632201068
 21
 12.27914401522326
  0
LINE
  8
0
  6
CONTINUOUS
 62
     7
 10
 4.9323629411118635
 20
 7.9588589213865006
 11
 5.5573629411118635
 21
 8.5838589213865006
  0
LINE
  8
0
  6
CONTINUOUS
 62
     7
 10
 8.7054581526031303
 20
 11.731954132877767
 11
 9.1629899073336549
 21
 12.189485887608292
  0
LINE
  8
0
  6
CONTINUOUS
 62
     7
 10
 5.0737852128403791
 20
 7.9588589213865006
 11
 5.6987852128403791
 21
 8.5838589213865006
  0
LINE
  8
0
  6
CONTINUOUS
 62
     7
 10
 8.75722229671665
 20
 11.642296005262772
 11
 9.2147540514472031
 21
 12.099827759993325
  0
LINE
  8
0
  6
CONTINUOUS
 62
     7
 10
 5.2152074845688947
 20
 7.9588589213865006
 11
 5.8402074845688947
 21
 8.5838589213865006
  0
LINE
  8
0
  6
CONTINUOUS
 62
     7
 10
 8.8089864408301981
 20
 11.552637877647804
 11
 9.2665181955607512
 21
 12.010169632378357
  0
LINE
  8
0
  6
CONTINUOUS
 62
     7
 10
 5.3566297562974103
 20
 7.9588589213865006
 11
 5.9816297562974103
 21
 8.5838589213865006
  0
LINE
  8
0
  6
CONTINUOUS
 62
     7
 10
 8.8607505849437462
 20
 11.462979750032837
 11
 9.3182823396742993
 21
 11.92051150476339
  0
LINE
  8
0
  6
CONTINUOUS
 62
     7
 10
 5.498052028025926
 20
 7.9588589213865006
 11
 6.123052028025926
 21
 8.5838589213865006
  0
LINE
  8
0
  6
CONTINUOUS
 62
     7
 10
 8.9125147290572944
 20
 11.373321622417869
 11
 9.370046483787819
 21
 11.830853377148394
  0
LINE
  8
0
  6
CONTINUOUS
 62
     7
 10
 5.6394742997544416
 20
 7.9588589213865006
 11
 6.2644742997544416
 21
 8.5838589213865006
  0
LINE
  8
0
  6
CONTINUOUS
 62
     7
 10
 8.9642788731708425
 20
 11.283663494802902
 11
 9.4218106279013671
 21
 11.741195249533426
  0
LINE
  8
0
  6
CONTINUOUS
 62
     7
 10
 5.7808965714829572
 20
 7.9588589213865006
 11
 6.4058965714829572
 21
 8.5838589213865006
  0
LINE
  8
0
  6
CONTINUOUS
 62
     7
 10
 9.0160430172843622
 20
 11.194005367187906
 11
 9.4735747720149153
 21
 11.651537121918459
  0
LINE
  8
0
  6
CONTINUOUS
 62
     7
 10
 5.9223188432114728
 20
 7.9588589213865006
 11
 6.5473188432114728
 21
 8.5838589213865006
  0
LINE
  8
0
  6
CONTINUOUS
 62
     7
 10
 9.0678071613979103
 20
 11.104347239572938
 11
 9.5253389161284634
 21
 11.561878994303491
  0
LINE
  8
0
  6
CONTINUOUS
 62
     7
 10
 6.0637411149399885
 20
 7.9588589213865006
 11
 6.6887411149399885
 21
 8.5838589213865006
  0
LINE
  8
0
  6
CONTINUOUS
 62
     7
 10
 9.1195713055114584
 20
 11.014689111957971
 11
 9.5771030602419831
 21
 11.472220866688495
  0
LINE
  8
0
  6
CONTINUOUS
 62
     7
 10
 6.2051633866685041
 20
 7.9588589213865006
 11
 6.8301633866685041
 21
 8.5838589213865006
  0
LINE
  8
0
  6
CONTINUOUS
 62
     7
 10
 9.1713354496250066
 20
 10.925030984343003
 11
 9.6288672043555312
 21
 11.382562739073528
  0
LINE
  8
0
  6
CONTINUOUS
 62
     7
 10
 6.3465856583970197
 20
 7.9588589213865006
 11
 6.9715856583970197
 21
 8.5838589213865006
  0
LINE
  8
0
  6
CONTINUOUS
 62
     7
 10
 9.2230995937385547
 20
 10.835372856728036
 11
 9.6806313484690794
 21
 11.29290461145856
  0
LINE
  8
0
  6
CONTINUOUS
 62
     7
 10
 6.4880079301255353
 20
 7.9588589213865006
 11
 7.1130079301255353
 21
 8.5838589213865006
  0
LINE
  8
0
  6
CONTINUOUS
 62
     7
 10
 9.2748637378521028
 20
 10.745714729113068
 11
 9.7323954925826275
 21
 11.203246483843593
  0
LINE
  8
0
  6
CONTINUOUS
 62
     7
 10
 6.629430201854051
 20
 7.9588589213865006
 11
 7.254430201854051
 21
 8.5838589213865006
  0
LINE
  8
0
  6
CONTINUOUS
 62
     7
 10
 9.3266278819656225
 20
 10.656056601498072
 11
 9.7841596366961756
 21
 11.113588356228625
  0
LINE
  8
0
  6
CONTINUOUS
 62
     7
 10
 6.7708524735825666
 20
 7.9588589213865006
 11
 7.3958524735825666
 21
 8.5838589213865006
  0
LINE
  8
0
  6
CONTINUOUS
 62
     7
 10
 9.3783920260791707
 20
 10.566398473883105
 11
 9.8359237808096953
 21
 11.023930228613629
  0
LINE
  8
0
  6
CONTINUOUS
 62
     7
 10
 6.9122747453110822
 20
 7.9588589213865006
 11
 7.5372747453110822
 21
 8.5838589213865006
  0
LINE
  8
0
  6
CONTINUOUS
 62
     7
 10
 9.4301561701927188
 20
 10.476740346268137
 11
 9.8876879249232434
 21
 10.934272100998662
  0
LINE
  8
0
  6
CONTINUOUS
 62
     7
 10
 7.0536970170395978
 20
 7.9588589213865006
 11
 7.6786970170395978
 21
 8.5838589213865006
  0
LINE
  8
0
  6
CONTINUOUS
 62
     7
 10
 9.4819203143062669
 20
 10.38708221865317
 11
 9.9394520690367916
 21
 10.844613973383694
  0
LINE
  8
0
  6
CONTINUOUS
 62
     7
 10
 7.1951192887681135
 20
 7.9588589213865006
 11
 7.8201192887681135
 21
 8.5838589213865006
  0
LINE
  8
0
  6
CONTINUOUS
 62
     7
 10
 9.533684458419815
 20
 10.297424091038202
 11
 9.9912162131503397
 21
 10.754955845768727
  0
LINE
  8
0
  6
CONTINUOUS
 62
     7
 10
 7.3365415604966291
 20
 7.9588589213865006
 11
 7.9615415604966291
 21
 8.5838589213865006
  0
LINE
  8
0
  6
CONTINUOUS
 62
     7
 10
 9.5854486025333347
 20
 10.207765963423206
 11
 10.042980357263888
 21
 10.665297718153759
  0
LINE
  8
0
  6
CONTINUOUS
 62
     7
 10
 7.4779638322251447
 20
 7.9588589213865006
 11
 8.1029638322251447
 21
 8.5838589213865006
  0
LINE
  8
0
  6
CONTINUOUS
 62
     7
 10
 9.6372127466468829
 20
 10.118107835808239
 11
 10.094744501377408
 21
 10.575639590538763
  0
LINE
  8
0
  6
CONTINUOUS
 62
     7
 10
 7.6193861039536603
 20
 7.9588589213865006
 11
 8.2443861039536603
 21
 8.5838589213865006
  0
LINE
  8
0
  6
CONTINUOUS
 62
     7
 10
 9.688976890760431
 20
 10.028449708193271
 11
 10.146508645490956
 21
 10.485981462923796
  0
LINE
  8
0
  6
CONTINUOUS
 62
     7
 10
 7.760808375682176
 20
 7.9588589213865006
 11
 8.385808375682176
 21
 8.5838589213865006
  0
LINE
  8
0
  6
CONTINUOUS
 62
     7
 10
 9.7407410348739791
 20
 9.9387915805783038
 11
 10.198272789604504
 21
 10.396323335308828
  0
LINE
  8
0
  6
CONTINUOUS
 62
     7
 10
 7.9022306474106916
 20
 7.9588589213865006
 11
 8.5272306474106916
 21
 8.5838589213865006
  0
LINE
  8
0
  6
CONTINUOUS
 62
     7
 10
 9.7925051789875273
 20
 9.8491334529633363
 11
 10.250036933718052
 21
 10.306665207693861
  0
LINE
  8
0
  6
CONTINUOUS
 62
     7
 10
 8.0436529191392072
 20
 7.9588589213865006
 11
 8.6686529191392072
 21
 8.5838589213865006
  0
LINE
  8
0
  6
CONTINUOUS
 62
     7
 10
 9.844269323101047
 20
 9.7594753253483404
 11
 10.3018010778316
 21
 10.217007080078893
  0
LINE
  8
0
  6
CONTINUOUS
 62
     7
 10
 8.1850751908677228
 20
 7.9588589213865006
 11
 8.8100751908677228
 21
 8.5838589213865006
  0
LINE
  8
0
  6
CONTINUOUS
 62
     7
 10
 9.8960334672145951
 20
 9.6698171977333729
 11
 10.35356522194512
 21
 10.127348952463898
  0
LINE
  8
0
  6
CONTINUOUS
 62
     7
 10
 8.3264974625962385
 20
 7.9588589213865006
 11
 8.9514974625962385
 21
 8.5838589213865006
  0
LINE
  8
0
  6
CONTINUOUS
 62
     7
 10
 9.9477976113281432
 20
 9.5801590701184054
 11
 10.405329366058668
 21
 10.03769082484893
  0
LINE
  8
0
  6
CONTINUOUS
 62
     7
 10
 8.4679197343247541
 20
 7.9588589213865006
 11
 9.0929197343247541
 21
 8.5838589213865006
  0
LINE
  8
0
  6
CONTINUOUS
 62
     7
 10
 9.9995617554416913
 20
 9.4905009425034379
 11
 10.457093510172216
 21
 9.9480326972339626
  0
LINE
  8
0
  6
CONTINUOUS
 62
     7
 10
 8.6093420060532697
 20
 7.9588589213865006
 11
 9.2343420060532697
 21
 8.5838589213865006
  0
LINE
  8
0
  6
CONTINUOUS
 62
     7
 10
 10.051325899555239
 20
 9.4008428148884704
 11
 10.508857654285764
 21
 9.8583745696189951
  0
LINE
  8
0
  6
CONTINUOUS
 62
     7
 10
 8.7507642777817853
 20
 7.9588589213865006
 11
 9.3757642777817853
 21
 8.5838589213865006
  0
LINE
  8
0
  6
CONTINUOUS
 62
     7
 10
 10.103090043668759
 20
 9.3111846872734745
 11
 10.560621798399312
 21
 9.7687164420040276
  0
LINE
  8
0
  6
CONTINUOUS
 62
     7
 10
 8.892186549510301
 20
 7.9588589213865006
 11
 9.517186549510301
 21
 8.5838589213865006
  0
LINE
  8
0
  6
CONTINUOUS
 62
     7
 10
 10.154854187782307
 20
 9.221526559658507
 11
 10.612385942512832
 21
 9.6790583143890316
  0
LINE
  8
0
  6
CONTINUOUS
 62
     7
 10
 9.0336088212388166
 20
 7.9588589213865006
 11
 9.6586088212388166
 21
 8.5838589213865006
  0
LINE
  8
0
  6
CONTINUOUS
 62
     7
 10
 10.206618331895855
 20
 9.1318684320435395
 11
 10.66415008662638
 21
 9.5894001867740641
  0
LINE
  8
0
  6
CONTINUOUS
 62
     7
 10
 9.1750310929673322
 20
 7.9588589213865006
 11
 9.8000310929673322
 21
 8.5838589213865006
  0
LINE
  8
0
  6
CONTINUOUS
 62
     7
 10
 10.258382476009404
 20
 9.042210304428572
 11
 10.715914230739928
 21
 9.4997420591590966
  0
LINE
  8
0
  6
CONTINUOUS
 62
     7
 10
 9.3164533646958478
 20
 7.9588589213865006
 11
 9.9414533646958478
 21
 8.5838589213865006
  0
LINE
  8
0
  6
CONTINUOUS
 62
     7
 10
 10.310146620122952
 20
 8.9525521768136045
 11
 10.767678374853476
 21
 9.4100839315441291
  0
LINE
  8
0
  6
CONTINUOUS
 62
     7
 10
 9.4578756364243635
 20
 7.9588589213865006
 11
 10.082875636424363
 21
 8.5838589213865006
  0
LINE
  8
0
  6
CONTINUOUS
 62
     7
 10
 10.3619107642365
 20
 8.862894049198637
 11
 10.819442518967024
 21
 9.3204258039291616
  0
LINE
  8
0
  6
CONTINUOUS
 62
     7
 10
 9.5992979081528791
 20
 7.9588589213865006
 11
 10.224297908152879
 21
 8.5838589213865006
  0
LINE
  8
0
  6
CONTINUOUS
 62
     7
 10
 10.41367490835002
 20
 8.7732359215836411
 11
 10.871206663080544
 21
 9.2307676763141657
  0
LINE
  8
0
  6
CONTINUOUS
 62
     7
 10
 9.7407201798813947
 20
 7.9588589213865006
 11
 10.365720179881395
 21
 8.5838589213865006
  0
LINE
  8
0
  6
CONTINUOUS
 62
     7
 10
 10.465439052463568
 20
 8.6835777939686736
 11
 10.922970807194092
 21
 9.1411095486991982
  0
LINE
  8
0
  6
CONTINUOUS
 62
     7
 10
 9.8821424516099103
 20
 7.9588589213865006
 11
 10.50714245160991
 21
 8.5838589213865006
  0
LINE
  8
0
  6
CONTINUOUS
 62
     7
 10
 10.517203196577116
 20
 8.5939196663537061
 11
 10.97473495130764
 21
 9.0514514210842307
  0
LINE
  8
0
  6
CONTINUOUS
 62
     7
 10
 10.023564723338426
 20
 7.9588589213865006
 11
 11.026499095421189
 21
 8.9617932934692632
  0
LINE
  8
0
  6
CONTINUOUS
 62
     7
 10
 10.164986995066942
 20
 7.9588589213865006
 11
 11.07779866810988
 21
 8.8716705944294674
  0
LINE
  8
0
  6
CONTINUOUS
 62
     7
 10
 10.306409266795457
 20
 7.9588589213865006
 11
 11.119147930003907
 21
 8.7715975845949501
  0
LINE
  8
0
  6
CONTINUOUS
 62
     7
 10
 10.447831538523973
 20
 7.9588589213865006
 11
 11.143951523156618
 21
 8.6549789060191742
  0
LINE
  8
0
  6
CONTINUOUS
 62
     7
 10
 10.59320781412835
 20
 7.9628129252623907
 11
 11.14405665213066
 21
 8.5136617632647003
  0
LINE
  8
0
  6
CONTINUOUS
 62
     7
 10
 10.791086712983757
 20
 8.0192695523893107
 11
 11.087600025003768
 21
 8.3157828644092646
  0
LINE
  8
0
  6
CONTINUOUS
 62
     3
 10
 4.6012190858464113
 20
 12.33118122873659
 11
 6.2550085272551872
 21
 13.160908855573915
  0
LINE
  8
0
  6
CONTINUOUS
 62
     7
 10
 5.3852758385045707
 20
 12.007503361231294
 11
 6.1355673459533353
 21
 12.757794868680058
  0
LINE
  8
0
  6
CONTINUOUS
 62
     7
 10
 5.4121645057696686
 20
 12.147529845879227
 11
 6.1832043216934256
 21
 12.918569661802984
  0
LINE
  8
0
  6
CONTINUOUS
 62
     7
 10
 5.3350522760483035
 20
 12.18355543354064
 11
 6.2308412974335727
 21
 13.079344454925938
  0
LINE
  8
0
  6
CONTINUOUS
 62
     7
 10
 5.0925905406199536
 20
 12.054231515495125
 11
 6.1431439910003736
 21
 13.104784965875517
  0
LINE
  8
0
  6
CONTINUOUS
 62
     7
 10
 4.8501288051916038
 20
 11.924907597449611
 11
 5.9160904805679468
 21
 12.990869272825954
  0
LINE
  8
0
  6
CONTINUOUS
 62
     7
 10
 4.6076670697632824
 20
 11.795583679404068
 11
 5.689036970135577
 21
 12.876953579776362
  0
LINE
  8
0
  6
CONTINUOUS
 62
     7
 10
 5.358387171239416
 20
 11.867476876583332
 11
 6.0879303702131882
 21
 12.597020075557104
  0
LINE
  8
0
  6
CONTINUOUS
 62
     7
 10
 5.3314985039742613
 20
 11.727450391935399
 11
 6.040293394473041
 21
 12.43624528243415
  0
LINE
  8
0
  6
CONTINUOUS
 62
     7
 10
 5.3046098367091634
 20
 11.587423907287437
 11
 5.9926564187328939
 21
 12.275470489311196
  0
LINE
  8
0
  6
CONTINUOUS
 62
     7
 10
 5.2777211694440087
 20
 11.447397422639504
 11
 5.9450194429927752
 21
 12.114695696188242
  0
LINE
  8
0
  6
CONTINUOUS
 62
     7
 10
 5.250832502178854
 20
 11.307370937991543
 11
 5.897382467252628
 21
 11.953920903065317
  0
LINE
  8
0
  6
CONTINUOUS
 62
     7
 10
 5.2239438349137561
 20
 11.16734445334361
 11
 5.8497454915124809
 21
 11.793146109942363
  0
LINE
  8
0
  6
CONTINUOUS
 62
     7
 10
 5.1970551676486014
 20
 11.027317968695648
 11
 5.8021085157723622
 21
 11.632371316819409
  0
LINE
  8
0
  6
CONTINUOUS
 62
     7
 10
 5.1701665003834467
 20
 10.887291484047715
 11
 5.7544715400322151
 21
 11.471596523696455
  0
LINE
  8
0
  6
CONTINUOUS
 62
     7
 10
 5.1432778331183489
 20
 10.747264999399754
 11
 5.7068345642920679
 21
 11.310821730573501
  0
LINE
  8
0
  6
CONTINUOUS
 62
     7
 10
 5.1163891658531941
 20
 10.607238514751792
 11
 5.6591975885519208
 21
 11.150046937450576
  0
LINE
  8
0
  6
CONTINUOUS
 62
     7
 10
 4.6098671924973917
 20
 10.213854358778825
 11
 4.6385237051102752
 21
 10.242510871391708
  0
LINE
  8
0
  6
CONTINUOUS
 62
     7
 10
 4.6446788286152287
 20
 10.135528177513827
 11
 4.704520765250253
 21
 10.195370114148851
  0
LINE
  8
0
  6
CONTINUOUS
 62
     7
 10
 4.6794904647330089
 20
 10.0572019962488
 11
 4.7705178253902307
 21
 10.148229356906022
  0
LINE
  8
0
  6
CONTINUOUS
 62
     7
 10
 5.0895004985880679
 20
 10.467212030103859
 11
 5.6115606128118305
 21
 10.989272144327622
  0
LINE
  8
0
  6
CONTINUOUS
 62
     7
 10
 5.0626118313229416
 20
 10.327185545455926
 11
 5.5639236370716834
 21
 10.828497351204668
  0
LINE
  8
0
  6
CONTINUOUS
 62
     7
 10
 5.0357231640577869
 20
 10.187159060807964
 11
 5.5162866613315646
 21
 10.667722558081742
  0
LINE
  8
0
  6
CONTINUOUS
 62
     7
 10
 5.0088344967926606
 20
 10.047132576160003
 11
 5.4686496855914175
 21
 10.50694776495876
  0
LINE
  8
0
  6
CONTINUOUS
 62
     3
 10
 5.4310175334077702
 20
 15.175263569102178
 11
 5.8072056303507953
 21
 15.157982443666349
  0
LINE
  8
0
  6
CONTINUOUS
 62
     7
 10
 4.6208920556112947
 20
 14.184702830291165
 11
 5.6035280973906527
 21
 15.167338872070495
  0
LINE
  8
0
  6
CONTINUOUS
 62
     7
 10
 4.6740623684670357
 20
 14.351010960529742
 11
 5.4953592806374321
 21
 15.172307872700109
  0
LINE
  8
0
  6
CONTINUOUS
 62
     3
 10
 5.0716325334077386
 20
 15.594546069102215
 11
 5.4310175334077702
 21
 15.175263569102178
  0
LINE
  8
0
  6
CONTINUOUS
 62
     7
 10
 4.9399139327459114
 20
 15.182551611722651
 11
 5.2009906211236387
 21
 15.44362830010035
  0
LINE
  8
0
  6
CONTINUOUS
 62
     7
 10
 4.9930842456016808
 20
 15.348859741961228
 11
 5.1487731669469259
 21
 15.504548663306501
  0
LINE
  8
0
  6
CONTINUOUS
 62
     7
 10
 5.0462545584574503
 20
 15.515167872199832
 11
 5.0965557127702699
 21
 15.565469026512623
  0
LINE
  8
0
  6
CONTINUOUS
 62
     7
 10
 4.7272326813228336
 20
 14.517319090768318
 11
 5.4098604378303481
 21
 15.199946847275832
  0
LINE
  8
0
  6
CONTINUOUS
 62
     7
 10
 4.780402994178603
 20
 14.683627221006894
 11
 5.3576429836536636
 21
 15.260867210481955
  0
LINE
  8
0
  6
CONTINUOUS
 62
     7
 10
 4.8335733070343725
 20
 14.849935351245499
 11
 5.3054255294769792
 21
 15.321787573688106
  0
LINE
  8
0
  6
CONTINUOUS
 62
     7
 10
 4.8867436198901704
 20
 15.016243481484075
 11
 5.2532080753002948
 21
 15.382707936894228
  0
LINE
  8
0
  6
CONTINUOUS
 62
     3
 10
 4.6012190858464113
 20
 12.33118122873659
 11
 5.8072056303507953
 21
 15.157982443666349
  0
LINE
  8
0
  6
CONTINUOUS
 62
     7
 10
 4.5677217427555252
 20
 14.018394700052589
 11
 5.7116969141438449
 21
 15.162369871440909
  0
LINE
  8
0
  6
CONTINUOUS
 62
     7
 10
 4.5145514298997558
 20
 13.852086569814013
 11
 5.7973530048532087
 21
 15.134888144767466
  0
LINE
  8
0
  6
CONTINUOUS
 62
     7
 10
 4.4613811170440147
 20
 13.685778439575436
 11
 5.7131714584198665
 21
 14.937568780951288
  0
LINE
  8
0
  6
CONTINUOUS
 62
     7
 10
 4.4082108041882169
 20
 13.519470309336832
 11
 5.6289899119865243
 21
 14.740249417135139
  0
LINE
  8
0
  6
CONTINUOUS
 62
     3
 10
 4.5778785272551534
 20
 10.285828855573946
 11
 4.9971610272551619
 21
 9.9863413555739484
  0
LINE
  8
0
  6
CONTINUOUS
 62
     3
 10
 4.9971610272551619
 20
 9.9863413555739484
 11
 5.4286709887633879
 21
 12.233489658045436
  0
LINE
  8
0
  6
CONTINUOUS
 62
     3
 10
 5.8956235272552124
 20
 10.285828855573889
 11
 5.2966485272551598
 21
 9.9264438555739147
  0
LINE
  8
0
  6
CONTINUOUS
 62
     3
 10
 5.2966485272551598
 20
 9.9264438555739147
 11
 6.2550085272551872
 21
 13.160908855573915
  0
LINE
  8
0
  6
CONTINUOUS
 62
     7
 10
 4.7143021008507606
 20
 9.9788758149837733
 11
 4.8365148855302085
 21
 10.101088599663193
  0
LINE
  8
0
  6
CONTINUOUS
 62
     7
 10
 4.7491137369685692
 20
 9.9005496337187466
 11
 4.9025119456701862
 21
 10.053947842420335
  0
LINE
  8
0
  6
CONTINUOUS
 62
     7
 10
 4.7839253730863778
 20
 9.82222345245372
 11
 4.968509005810164
 21
 10.006807085177506
  0
LINE
  8
0
  6
CONTINUOUS
 62
     7
 10
 4.8187370092041295
 20
 9.7438972711886933
 11
 5.4210127098512704
 21
 10.346172971835834
  0
LINE
  8
0
  6
CONTINUOUS
 62
     7
 10
 4.8535486453219381
 20
 9.6655710899236951
 11
 5.3733757341111517
 21
 10.18539817871288
  0
LINE
  8
0
  6
CONTINUOUS
 62
     7
 10
 4.8883602814397467
 20
 9.5872449086586684
 11
 5.3257387583710045
 21
 10.024623385589926
  0
LINE
  8
0
  6
CONTINUOUS
 62
     7
 10
 4.9231719175574984
 20
 9.5089187273936417
 11
 5.406769823461774
 21
 9.9925166332978606
  0
LINE
  8
0
  6
CONTINUOUS
 62
     7
 10
 4.957983553675307
 20
 9.4305925461286151
 11
 5.6896143669186916
 21
 10.162223359372
  0
LINE
  8
0
  6
CONTINUOUS
 62
     7
 10
 4.9927951897930871
 20
 9.3522663648635884
 11
 5.7880539908865831
 21
 10.147525165957084
  0
LINE
  8
0
  6
CONTINUOUS
 62
     3
 10
 5.0570585272551671
 20
 9.2076738555739084
 11
 5.8956235272552124
 21
 10.285828855573889
  0
LINE
  8
0
  6
CONTINUOUS
 62
     3
 10
 5.0570585272551671
 20
 9.2076738555739084
 11
 4.5778785272551534
 21
 10.285828855573946
  0
LINE
  8
0
  6
CONTINUOUS
 62
     7
 10
 5.0276068259108673
 20
 9.2739401835985618
 11
 5.3920716300465177
 21
 9.6384049877342122
  0
LINE
  8
0
  6
CONTINUOUS
 62
     7
 10
 4.3652053343349611
 20
 11.666259761358553
 11
 5.4619834597031787
 21
 12.763037886726799
  0
LINE
  8
0
  6
CONTINUOUS
 62
     7
 10
 4.1227435989066397
 20
 11.536935843313039
 11
 5.2349299492707804
 21
 12.649122193677236
  0
LINE
  8
0
  6
CONTINUOUS
 62
     7
 10
 4.1955295527651391
 20
 12.854237788382498
 11
 5.2922637262531271
 21
 13.950971961870486
  0
LINE
  8
0
  6
CONTINUOUS
 62
     7
 10
 4.2486998656209369
 20
 13.020545918621103
 11
 5.3764452726864977
 21
 14.148291325686664
  0
LINE
  8
0
  6
CONTINUOUS
 62
     7
 10
 4.0891889270536002
 20
 12.521621527905346
 11
 5.1239006333864427
 21
 13.55633323423816
  0
LINE
  8
0
  6
CONTINUOUS
 62
     7
 10
 4.1423592399093696
 20
 12.687929658143922
 11
 5.2080821798197849
 21
 13.753652598054337
  0
LINE
  8
0
  6
CONTINUOUS
 62
     7
 10
 3.9828483013420612
 20
 12.189005267428193
 11
 4.9555375405197299
 21
 13.161694506605862
  0
LINE
  8
0
  6
CONTINUOUS
 62
     7
 10
 4.0360186141978591
 20
 12.35531339766677
 11
 5.0397190869530721
 21
 13.359013870422011
  0
LINE
  8
0
  6
CONTINUOUS
 62
     7
 10
 3.8802818634782898
 20
 11.407611925267524
 11
 5.0078764388384105
 21
 12.535206500627645
  0
LINE
  8
0
  6
CONTINUOUS
 62
     3
 10
 3.7027565858464175
 20
 11.312923728736585
 11
 5.4286709887633879
 21
 12.233489658045436
  0
LINE
  8
0
  6
CONTINUOUS
 62
     7
 10
 3.716996737063214
 20
 11.357464616235283
 11
 4.7808229284060406
 21
 12.421290807578082
  0
LINE
  8
0
  6
CONTINUOUS
 62
     7
 10
 3.7701670499189834
 20
 11.52377274647386
 11
 4.6188113547863612
 21
 12.372417051341209
  0
LINE
  8
0
  6
CONTINUOUS
 62
     7
 10
 3.8233373627747813
 20
 11.690080876712436
 11
 4.7029929012197034
 21
 12.569736415157386
  0
LINE
  8
0
  6
CONTINUOUS
 62
     7
 10
 4.3550404913324758
 20
 13.353162179098256
 11
 5.5448083655531821
 21
 14.54293005331899
  0
LINE
  8
0
  6
CONTINUOUS
 62
     7
 10
 4.301870178476678
 20
 13.186854048859679
 11
 5.4606268191198115
 21
 14.345610689502813
  0
LINE
  8
0
  6
CONTINUOUS
 62
     7
 10
 3.8765076756305223
 20
 11.856389006951012
 11
 4.7871744476530456
 21
 12.767055778973535
  0
LINE
  8
0
  6
CONTINUOUS
 62
     7
 10
 3.9296779884863202
 20
 12.022697137189617
 11
 4.8713559940863878
 21
 12.964375142789685
  0
LINE
  8
0
  6
CONTINUOUS
 62
     3
 10
 3.7027565858464175
 20
 11.312923728736585
 11
 5.0716325334077386
 21
 15.594546069102215
  0
ENDBLK
  8
0
  0
ENDSEC
  0
SECTION
  2
ENTITIES
  0
TEXT
  8
0
  6
CONTINUOUS
 62
     7
 10
-34.102955062495269
 20
 2.3616909331314342
 11
-28.002955062495268
 21
 2.3616909331314346
 40
 3.5000000000000004
 41
 0.8
  1
黒色
 50
 0
 72
  5
  0
LINE
  8
0
  6
CONTINUOUS
 62
     7
 10
-38.030650622748986
 20
 1.4478431530045945
 11
-17.93551320203013
 21
 1.4478431530045945
  0
TEXT
  8
0
  6
CONTINUOUS
 62
     7
 10
-38.466675992727829
 20
-1.8720299971011163
 11
-20.886675992727824
 21
-1.8720299971011163
 40
 2.2000000000000002
 41
 0.8
  1
マンセル（Ｎ１）
 50
 0
 72
  5
  0
TEXT
  8
0
  6
CONTINUOUS
 62
     7
 10
-34.102955062495269
 20
 18.111690933131456
 11
-28.002955062495268
 21
 18.111690933131456
 40
 3.5000000000000004
 41
 0.8
  1
黄色
 50
 0
 72
  5
  0
LINE
  8
0
  6
CONTINUOUS
 62
     7
 10
-38.030650622748986
 20
 17.197843153004598
 11
-17.93551320203013
 21
 17.197843153004598
  0
TEXT
  8
0
  6
CONTINUOUS
 62
     7
 10
-38.466675992727829
 20
 13.877970002898888
 11
-29.926675992727827
 21
 13.877970002898886
 40
 2.2000000000000002
 41
 0.8
  1
マンセル
 50
 0
 72
  5
  0
TEXT
  8
0
  6
CONTINUOUS
 62
     7
 10
-38.466675992727829
 20
 10.877970002898877
 11
-19.066675992727824
 21
 10.877970002898879
 40
 2.2000000000000002
 41
 0.8
  1
（２．５Ｙ８／１４）
 50
 0
 72
  5
  0
LINE
  8
0
  6
CONTINUOUS
 62
     3
 10
-9.4999952316284251
 20
-5.8499898279679066
 11
 20.500004768371589
 21
-5.8499898279679066
  0
LINE
  8
0
  6
CONTINUOUS
 62
     3
 10
 20.500004768371589
 20
-5.8499898279679066
 11
 20.500004768371589
 21
 28.150010172032104
  0
LINE
  8
0
  6
CONTINUOUS
 62
     3
 10
 20.500004768371589
 20
 28.150010172032104
 11
-9.4999952316284251
 21
 28.150010172032104
  0
LINE
  8
0
  6
CONTINUOUS
 62
     3
 10
-9.4999952316284251
 20
 28.150010172032104
 11
-9.4999952316284251
 21
-5.8499898279679066
  0
LINE
  8
0
  6
CONTINUOUS
 62
     2
 10
-7.4999952316284251
 20
 26.150010172032104
 11
 18.500004768371589
 21
 26.150010172032104
  0
LINE
  8
0
  6
CONTINUOUS
 62
     2
 10
 18.500004768371589
 20
 26.150010172032104
 11
 18.500004768371589
 21
-3.8499898279679066
  0
LINE
  8
0
  6
CONTINUOUS
 62
     2
 10
 18.500004768371589
 20
-3.8499898279679066
 11
-7.4999952316284251
 21
-3.8499898279679066
  0
LINE
  8
0
  6
CONTINUOUS
 62
     2
 10
-7.4999952316284251
 20
-3.8499898279679066
 11
-7.4999952316284251
 21
 26.150010172032104
  0
LINE
  8
0
  6
CONTINUOUS
 62
     2
 10
-7.4999952316284251
 20
 19.150010172032104
 11
 18.500004768371589
 21
 19.150010172032104
  0
LINE
  8
0
  6
CONTINUOUS
 62
     2
 10
 18.500004768371589
 20
 6.1500101720320934
 11
-7.4999952316284251
 21
 6.1500101720320934
  0
TEXT
  8
0
  6
CONTINUOUS
 62
     4
 10
 3.3000047683715747
 20
 19.900010172032111
 11
 14.100004768371576
 21
 19.900010172032111
 40
 5.5
 41
 0.8
  1
警告
 50
 0
 72
  5
  0
TEXT
  8
0
  6
CONTINUOUS
 62
     2
 10
-6.737733075180218
 20
 1.6957289880997375
 11
 17.962266924819787
 21
 1.6957289880997377
 40
 3.5000000000000004
 41
 0.8
  1
感電の恐れあり
 50
 0
 72
  5
  0
TEXT
  8
0
  6
CONTINUOUS
 62
     2
 10
-6.737733075180218
 20
-2.3042710119002514
 11
 17.962266924819787
 21
-2.3042710119002514
 40
 3.5000000000000004
 41
 0.8
  1
保護板を開くな
 50
 0
 72
  5
  0
TEXT
  8
0
  6
CONTINUOUS
 62
     7
 10
 11.215803037632163
 20
 6.3221368499349282
 11
 18.315803037632165
 21
 6.3221368499349282
 40
 1
 41
 0.8
  1
Ｉ－４５７０６Ａ
 50
 0
 72
  5
  0
LINE
  8
0
  6
CONTINUOUS
 62
     7
 10
-17.93551320203013
 20
 17.197843153004598
 11
-1.0644772612267488
 21
 22.6476317365141
  0
LINE
  8
0
  6
CONTINUOUS
 62
     7
 10
-1.0644772612267488
 20
 22.6476317365141
 11
-4.0606305048902334
 21
 22.495757642328222
  0
LINE
  8
0
  6
CONTINUOUS
 62
     7
 10
-1.0644772612267488
 20
 22.6476317365141
 11
-3.583285036777534
 21
 21.018028290940634
  0
LINE
  8
0
  6
CONTINUOUS
 62
     7
 10
-17.93551320203013
 20
 17.197843153004598
 11
 3.2567043988266491
 21
 12.741749830446057
  0
LINE
  8
0
  6
CONTINUOUS
 62
     7
 10
 3.2567043988266491
 20
 12.741749830446057
 11
 0.5807105887366246
 21
 14.097868235438732
  0
LINE
  8
0
  6
CONTINUOUS
 62
     7
 10
 3.2567043988266491
 20
 12.741749830446057
 11
 0.2611665764224398
 21
 12.578185914664335
  0
LINE
  8
0
  6
CONTINUOUS
 62
     7
 10
-17.93551320203013
 20
 1.4478431530045945
 11
 0.5660475315471985
 21
 10.540038713505449
  0
LINE
  8
0
  6
CONTINUOUS
 62
     7
 10
 0.5660475315471985
 20
 10.540038713505449
 11
-2.3771143120806255
 21
 9.9588344789946621
  0
LINE
  8
0
  6
CONTINUOUS
 62
     7
 10
 0.5660475315471985
 20
 10.540038713505449
 11
-1.6922032752281475
 21
 8.5651201598181075
  0
LINE
  8
0
  6
CONTINUOUS
 62
     7
 10
-17.93551320203013
 20
 1.4478431530045945
 11
-7.4999952316284251
 21
 11.150010172032108
  0
LINE
  8
0
  6
CONTINUOUS
 62
     7
 10
-7.4999952316284251
 20
 11.150010172032108
 11
-10.150939469425968
 21
 9.7455548868457083
  0
LINE
  8
0
  6
CONTINUOUS
 62
     7
 10
-7.4999952316284251
 20
 11.150010172032108
 11
-9.0935526429838731
 21
 8.6082440976825971
  0
LINE
  8
0
  6
CONTINUOUS
 62
     7
 10
 22.500004768371589
 20
 28.150010172032104
 11
 40.559201385707716
 21
 28.150010172032104
  0
LINE
  8
0
  6
CONTINUOUS
 62
     7
 10
 22.500004768371589
 20
-5.8499898279679066
 11
 40.559201385707716
 21
-5.8499898279679066
  0
LINE
  8
0
  6
CONTINUOUS
 62
     7
 10
 39.559201385707716
 20
 28.150010172032104
 11
 39.559201385707716
 21
-5.8499898279679066
  0
LINE
  8
0
  6
CONTINUOUS
 62
     7
 10
 39.559201385707716
 20
 28.150010172032104
 11
 38.782744250400157
 21
 25.252232693164899
  0
LINE
  8
0
  6
CONTINUOUS
 62
     7
 10
 39.559201385707716
 20
 28.150010172032104
 11
 40.335658521015276
 21
 25.252232693164899
  0
LINE
  8
0
  6
CONTINUOUS
 62
     7
 10
 39.559201385707716
 20
-5.8499898279679066
 11
 40.335658521015276
 21
-2.9522123491007015
  0
LINE
  8
0
  6
CONTINUOUS
 62
     7
 10
 39.559201385707716
 20
-5.8499898279679066
 11
 38.782744250400157
 21
-2.9522123491007015
  0
TEXT
  8
0
  6
CONTINUOUS
 62
     7
 10
 38.559201385707723
 20
 9.140010172032099
 11
 38.559201385707723
 21
 13.160010172032102
 40
 2.2000000000000002
 41
 0.8
  1
34
 50
 90.000001535234517
 72
  5
  0
LINE
  8
0
  6
CONTINUOUS
 62
     7
 10
 22.500004768371589
 20
 26.150010172032104
 11
 35.559201385707716
 21
 26.150010172032104
  0
LINE
  8
0
  6
CONTINUOUS
 62
     7
 10
 22.500004768371589
 20
-3.8499898279679066
 11
 35.559201385707716
 21
-3.8499898279679066
  0
LINE
  8
0
  6
CONTINUOUS
 62
     7
 10
 34.559201385707716
 20
 26.150010172032104
 11
 34.559201385707716
 21
-3.8499898279679066
  0
LINE
  8
0
  6
CONTINUOUS
 62
     7
 10
 34.559201385707716
 20
 26.150010172032104
 11
 33.782744250400157
 21
 23.252232693164899
  0
LINE
  8
0
  6
CONTINUOUS
 62
     7
 10
 34.559201385707716
 20
 26.150010172032104
 11
 35.335658521015276
 21
 23.252232693164899
  0
LINE
  8
0
  6
CONTINUOUS
 62
     7
 10
 34.559201385707716
 20
-3.8499898279679066
 11
 35.335658521015276
 21
-0.9522123491007015
  0
LINE
  8
0
  6
CONTINUOUS
 62
     7
 10
 34.559201385707716
 20
-3.8499898279679066
 11
 33.782744250400157
 21
-0.9522123491007015
  0
TEXT
  8
0
  6
CONTINUOUS
 62
     7
 10
 33.559201385707738
 20
 9.1400101720321025
 11
 33.559201385707738
 21
 13.160010172032102
 40
 2.2000000000000002
 41
 0.8
  1
30
 50
 90.000001535234517
 72
  5
  0
LINE
  8
0
  6
CONTINUOUS
 62
     7
 10
 22.500004768371589
 20
 19.150010172032104
 11
 30.559201385707716
 21
 19.150010172032104
  0
LINE
  8
0
  6
CONTINUOUS
 62
     7
 10
 29.559201385707716
 20
 19.150010172032104
 11
 29.559201385707716
 21
 26.150010172032104
  0
LINE
  8
0
  6
CONTINUOUS
 62
     7
 10
 29.559201385707716
 20
 19.150010172032104
 11
 30.335658521015279
 21
 22.047787650899309
  0
LINE
  8
0
  6
CONTINUOUS
 62
     7
 10
 29.559201385707716
 20
 19.150010172032104
 11
 28.782744250400153
 21
 22.047787650899309
  0
LINE
  8
0
  6
CONTINUOUS
 62
     7
 10
 29.559201385707716
 20
 26.150010172032104
 11
 28.782744250400153
 21
 23.252232693164899
  0
LINE
  8
0
  6
CONTINUOUS
 62
     7
 10
 29.559201385707716
 20
 26.150010172032104
 11
 30.335658521015279
 21
 23.252232693164899
  0
TEXT
  8
0
  6
CONTINUOUS
 62
     7
 10
 28.55920138570772
 20
 21.770010172032112
 11
 28.559201385707723
 21
 23.530010172032114
 40
 2.2000000000000002
 41
 0.8
  1
7
 50
 90.000001535234517
 72
  5
  0
LINE
  8
0
  6
CONTINUOUS
 62
     7
 10
 22.500004768371589
 20
 6.1500101720320934
 11
 30.559201385707716
 21
 6.1500101720320934
  0
LINE
  8
0
  6
CONTINUOUS
 62
     7
 10
 29.559201385707716
 20
 6.1500101720320934
 11
 29.559201385707716
 21
 19.150010172032104
  0
LINE
  8
0
  6
CONTINUOUS
 62
     7
 10
 29.559201385707716
 20
 6.1500101720320934
 11
 30.335658521015279
 21
 9.0477876508992985
  0
LINE
  8
0
  6
CONTINUOUS
 62
     7
 10
 29.559201385707716
 20
 6.1500101720320934
 11
 28.782744250400153
 21
 9.0477876508992985
  0
LINE
  8
0
  6
CONTINUOUS
 62
     7
 10
 29.559201385707716
 20
 19.150010172032104
 11
 28.782744250400153
 21
 16.252232693164899
  0
LINE
  8
0
  6
CONTINUOUS
 62
     7
 10
 29.559201385707716
 20
 19.150010172032104
 11
 30.335658521015279
 21
 16.252232693164899
  0
TEXT
  8
0
  6
CONTINUOUS
 62
     7
 10
 28.55920138570772
 20
 10.64001017203211
 11
 28.559201385707723
 21
 14.660010172032109
 40
 2.2000000000000002
 41
 0.8
  1
13
 50
 90.000001535234517
 72
  5
  0
LINE
  8
0
  6
CONTINUOUS
 62
     7
 10
 29.559201385707716
 20
 6.1500101720320934
 11
 29.559201385707716
 21
-3.8499898279679066
  0
LINE
  8
0
  6
CONTINUOUS
 62
     7
 10
 29.559201385707716
 20
 6.1500101720320934
 11
 28.782744250400153
 21
 3.2522326931648884
  0
LINE
  8
0
  6
CONTINUOUS
 62
     7
 10
 29.559201385707716
 20
 6.1500101720320934
 11
 30.335658521015279
 21
 3.2522326931648884
  0
LINE
  8
0
  6
CONTINUOUS
 62
     7
 10
 29.559201385707716
 20
-3.8499898279679066
 11
 30.335658521015279
 21
-0.9522123491007015
  0
LINE
  8
0
  6
CONTINUOUS
 62
     7
 10
 29.559201385707716
 20
-3.8499898279679066
 11
 28.782744250400153
 21
-0.9522123491007015
  0
TEXT
  8
0
  6
CONTINUOUS
 62
     7
 10
 28.55920138570772
 20
-0.8599898279679046
 11
 28.559201385707723
 21
 3.160010172032095
 40
 2.2000000000000002
 41
 0.8
  1
10
 50
 90.000001535234517
 72
  5
  0
LINE
  8
0
  6
CONTINUOUS
 62
     7
 10
 34.559201385707716
 20
 26.150010172032104
 11
 34.559201385707716
 21
 28.150010172032104
  0
TEXT
  8
0
  6
CONTINUOUS
 62
     7
 10
 33.559201385707738
 20
 29.910010172032106
 11
 33.559201385707738
 21
 31.6700101720321
 40
 2.2000000000000002
 41
 0.8
  1
2
 50
 90.000001535234517
 72
  5
  0
LINE
  8
0
  6
CONTINUOUS
 62
     7
 10
 34.559201385707716
 20
 33.430010172032112
 11
 34.559201385707716
 21
 28.150010172032104
  0
LINE
  8
0
  6
CONTINUOUS
 62
     7
 10
 34.559201385707716
 20
 28.150010172032104
 11
 35.335658521015276
 21
 31.047787650899309
  0
LINE
  8
0
  6
CONTINUOUS
 62
     7
 10
 34.559201385707716
 20
 28.150010172032104
 11
 33.782744250400157
 21
 31.047787650899309
  0
LINE
  8
0
  6
CONTINUOUS
 62
     7
 10
 34.559201385707716
 20
 21.150010172032111
 11
 34.559201385707716
 21
 26.150010172032104
  0
LINE
  8
0
  6
CONTINUOUS
 62
     7
 10
 34.559201385707716
 20
 26.150010172032104
 11
 33.782744250400157
 21
 23.252232693164899
  0
LINE
  8
0
  6
CONTINUOUS
 62
     7
 10
 34.559201385707716
 20
 26.150010172032104
 11
 35.335658521015276
 21
 23.252232693164899
  0
LINE
  8
0
  6
CONTINUOUS
 62
     7
 10
 34.559201385707716
 20
-3.8499898279679066
 11
 34.559201385707716
 21
-5.8499898279679066
  0
TEXT
  8
0
  6
CONTINUOUS
 62
     7
 10
 33.559201385707738
 20
-9.3699898279679026
 11
 33.559201385707738
 21
-7.6099898279679081
 40
 2.2000000000000002
 41
 0.8
  1
2
 50
 90.000001535234517
 72
  5
  0
LINE
  8
0
  6
CONTINUOUS
 62
     7
 10
 34.559201385707716
 20
-11.129989827967901
 11
 34.559201385707716
 21
-5.8499898279679066
  0
LINE
  8
0
  6
CONTINUOUS
 62
     7
 10
 34.559201385707716
 20
-5.8499898279679066
 11
 33.782744250400157
 21
-8.7477673068351116
  0
LINE
  8
0
  6
CONTINUOUS
 62
     7
 10
 34.559201385707716
 20
-5.8499898279679066
 11
 35.335658521015276
 21
-8.7477673068351116
  0
LINE
  8
0
  6
CONTINUOUS
 62
     7
 10
 34.559201385707716
 20
 1.1500101720321005
 11
 34.559201385707716
 21
-3.8499898279679066
  0
LINE
  8
0
  6
CONTINUOUS
 62
     7
 10
 34.559201385707716
 20
-3.8499898279679066
 11
 35.335658521015276
 21
-0.9522123491007015
  0
LINE
  8
0
  6
CONTINUOUS
 62
     7
 10
 34.559201385707716
 20
-3.8499898279679066
 11
 33.782744250400157
 21
-0.9522123491007015
  0
LINE
  8
0
  6
CONTINUOUS
 62
     7
 10
-9.4999952316284251
 20
 30.150010172032104
 11
-9.4999952316284251
 21
 44.292452032497209
  0
LINE
  8
0
  6
CONTINUOUS
 62
     7
 10
 20.500004768371589
 20
 30.150010172032104
 11
 20.500004768371589
 21
 44.292452032497209
  0
LINE
  8
0
  6
CONTINUOUS
 62
     7
 10
-9.4999952316284251
 20
 43.292452032497209
 11
 20.500004768371589
 21
 43.292452032497209
  0
LINE
  8
0
  6
CONTINUOUS
 62
     7
 10
-9.4999952316284251
 20
 43.292452032497209
 11
-6.60221775276122
 21
 42.51599489718965
  0
LINE
  8
0
  6
CONTINUOUS
 62
     7
 10
-9.4999952316284251
 20
 43.292452032497209
 11
-6.60221775276122
 21
 44.068909167804769
  0
LINE
  8
0
  6
CONTINUOUS
 62
     7
 10
 20.500004768371589
 20
 43.292452032497209
 11
 17.602227289504384
 21
 44.068909167804769
  0
LINE
  8
0
  6
CONTINUOUS
 62
     7
 10
 20.500004768371589
 20
 43.292452032497209
 11
 17.602227289504384
 21
 42.51599489718965
  0
TEXT
  8
0
  6
CONTINUOUS
 62
     7
 10
 3.4900047683715938
 20
 44.292452032497209
 11
 7.5100047683715934
 21
 44.292452032497209
 40
 2.2000000000000002
 41
 0.8
  1
30
 50
 0
 72
  5
  0
LINE
  8
0
  6
CONTINUOUS
 62
     7
 10
-7.4999952316284251
 20
 30.150010172032104
 11
-7.4999952316284251
 21
 39.292452032497209
  0
LINE
  8
0
  6
CONTINUOUS
 62
     7
 10
 18.500004768371589
 20
 30.150010172032104
 11
 18.500004768371589
 21
 39.292452032497209
  0
LINE
  8
0
  6
CONTINUOUS
 62
     7
 10
-7.4999952316284251
 20
 38.292452032497209
 11
 18.500004768371589
 21
 38.292452032497209
  0
LINE
  8
0
  6
CONTINUOUS
 62
     7
 10
-7.4999952316284251
 20
 38.292452032497209
 11
-4.60221775276122
 21
 37.51599489718965
  0
LINE
  8
0
  6
CONTINUOUS
 62
     7
 10
-7.4999952316284251
 20
 38.292452032497209
 11
-4.60221775276122
 21
 39.068909167804769
  0
LINE
  8
0
  6
CONTINUOUS
 62
     7
 10
 18.500004768371589
 20
 38.292452032497209
 11
 15.602227289504384
 21
 39.068909167804769
  0
LINE
  8
0
  6
CONTINUOUS
 62
     7
 10
 18.500004768371589
 20
 38.292452032497209
 11
 15.602227289504384
 21
 37.51599489718965
  0
TEXT
  8
0
  6
CONTINUOUS
 62
     7
 10
 3.4900047683715938
 20
 39.292452032497209
 11
 7.5100047683715934
 21
 39.292452032497209
 40
 2.2000000000000002
 41
 0.8
  1
26
 50
 0
 72
  5
  0
LINE
  8
0
  6
CONTINUOUS
 62
     7
 10
 18.500004768371589
 20
 38.292452032497209
 11
 20.500004768371589
 21
 38.292452032497209
  0
TEXT
  8
0
  6
CONTINUOUS
 62
     7
 10
 22.260004768371591
 20
 39.292452032497209
 11
 24.020004768371592
 21
 39.292452032497209
 40
 2.2000000000000002
 41
 0.8
  1
2
 50
 0
 72
  5
  0
LINE
  8
0
  6
CONTINUOUS
 62
     7
 10
 25.780004768371604
 20
 38.292452032497209
 11
 20.500004768371589
 21
 38.292452032497209
  0
LINE
  8
0
  6
CONTINUOUS
 62
     7
 10
 20.500004768371589
 20
 38.292452032497209
 11
 23.397782247238794
 21
 37.51599489718965
  0
LINE
  8
0
  6
CONTINUOUS
 62
     7
 10
 20.500004768371589
 20
 38.292452032497209
 11
 23.397782247238794
 21
 39.068909167804769
  0
LINE
  8
0
  6
CONTINUOUS
 62
     7
 10
 13.500004768371603
 20
 38.292452032497209
 11
 18.500004768371589
 21
 38.292452032497209
  0
LINE
  8
0
  6
CONTINUOUS
 62
     7
 10
 18.500004768371589
 20
 38.292452032497209
 11
 15.602227289504384
 21
 39.068909167804769
  0
LINE
  8
0
  6
CONTINUOUS
 62
     7
 10
 18.500004768371589
 20
 38.292452032497209
 11
 15.602227289504384
 21
 37.51599489718965
  0
LINE
  8
0
  6
CONTINUOUS
 62
     7
 10
-7.4999952316284251
 20
 38.292452032497209
 11
-9.4999952316284251
 21
 38.292452032497209
  0
TEXT
  8
0
  6
CONTINUOUS
 62
     7
 10
-13.019995231628426
 20
 39.292452032497209
 11
-11.259995231628427
 21
 39.292452032497209
 40
 2.2000000000000002
 41
 0.8
  1
2
 50
 0
 72
  5
  0
LINE
  8
0
  6
CONTINUOUS
 62
     7
 10
-14.779995231628412
 20
 38.292452032497209
 11
-9.4999952316284251
 21
 38.292452032497209
  0
LINE
  8
0
  6
CONTINUOUS
 62
     7
 10
-9.4999952316284251
 20
 38.292452032497209
 11
-12.39777271049563
 21
 39.068909167804769
  0
LINE
  8
0
  6
CONTINUOUS
 62
     7
 10
-9.4999952316284251
 20
 38.292452032497209
 11
-12.39777271049563
 21
 37.51599489718965
  0
LINE
  8
0
  6
CONTINUOUS
 62
     7
 10
-2.4999952316284109
 20
 38.292452032497209
 11
-7.4999952316284251
 21
 38.292452032497209
  0
LINE
  8
0
  6
CONTINUOUS
 62
     7
 10
-7.4999952316284251
 20
 38.292452032497209
 11
-4.60221775276122
 21
 37.51599489718965
  0
LINE
  8
0
  6
CONTINUOUS
 62
     7
 10
-7.4999952316284251
 20
 38.292452032497209
 11
-4.60221775276122
 21
 39.068909167804769
  0
INSERT
  8
0
  2
CADWIN-G0
 10
0.0
 20
0.0
  0
INSERT
  8
0
  2
CADWIN-G1
 10
0.0
 20
0.0
  0
LINE
  8
256
  6
CONTINUOUS
 62
     7
 10
 3.5
 20
-118.09998805609465
 11
 98.500015258789063
 21
-118.09998805609465
  0
LINE
  8
256
  6
CONTINUOUS
 62
     7
 10
 69.5
 20
-106.09998805609465
 11
 69.5
 21
-118.09998805609465
  0
TEXT
  8
256
  6
CONTINUOUS
 62
     7
 10
 11.000015258789063
 20
-130.84998805609465
 11
 53.000015258789063
 21
-130.84998805609465
 40
 6
 41
 1
  1
Ｉ－４５７０６
 50
 0
 72
  5
  0
TEXT
  8
256
  6
CONTINUOUS
 62
     7
 10
 22.5
 20
-116.34998805609465
 11
 50.5
 21
-116.34998805609465
 40
 5
 41
 0.8
  1
感電危険ラベル
 50
 0
 72
  5
  0
TEXT
  8
256
  6
CONTINUOUS
 62
     7
 10
 4.8000030517578125
 20
-109.04995143500085
 11
 9.8000030517578125
 21
-109.04995143500085
 40
 2.5
 41
 0.8
  1
品名
 50
 0
 72
  5
  0
TEXT
  8
256
  6
CONTINUOUS
 62
     7
 10
 4.8000030517578125
 20
-121.05001857367276
 11
 9.8000030517578125
 21
-121.05001857367276
 40
 2.5
 41
 0.8
  1
品番
 50
 0
 72
  5
  0
LINE
  8
256
  6
CONTINUOUS
 62
     7
 10
 3.5
 20
-136.09998805609465
 11
 3.5
 21
-106.09998805609465
  0
LINE
  8
256
  6
CONTINUOUS
 62
     7
 10
 3.5
 20
-106.09998805609465
 11
 98.500015258789063
 21
-106.09998805609465
  0
LINE
  8
256
  6
CONTINUOUS
 62
     7
 10
 98.500015258789063
 20
-136.09998805609465
 11
-87.500005722045898
 21
-136.09998805609459
  0
TEXT
  8
256
  6
CONTINUOUS
 62
     7
 10
 74.350007629394526
 20
-110.84998805609465
 11
 93.650007629394537
 21
-110.84998805609465
 40
 3.5
 41
 0.8
  1
Ｗ：３０ｍｍ
 50
 0
 72
  5
  0
TEXT
  8
256
  6
CONTINUOUS
 62
     7
 10
 74.350007629394526
 20
-116.84998805609465
 11
 93.650007629394537
 21
-116.84998805609465
 40
 3.5
 41
 0.8
  1
Ｈ：３４ｍｍ
 50
 0
 72
  5
  0
LINE
  8
256
  6
CONTINUOUS
 62
     7
 10
-87.500005722045898
 20
 128.40000840015884
 11
 12.499994277954102
 21
 128.40000840015884
  0
LINE
  8
256
  6
CONTINUOUS
 62
     7
 10
 12.499994277954102
 20
 128.40000840015887
 11
 12.499994277954102
 21
 140.40000915527344
  0
TEXT
  8
256
  6
CONTINUOUS
 62
     7
 10
-82.500005722045898
 20
 131.40000799208147
 11
-34.500005722045898
 21
 131.40000799208147
 40
 6
 41
 1
  1
Ｉ－４５７０６Ａ
 50
 0
 72
  5
  0
LINE
  8
256
  6
CONTINUOUS
 62
     7
 10
-87.500005722045898
 20
 140.40000915527344
 11
 98.500015258789063
 21
 140.40000915527344
  0
LINE
  8
256
  6
CONTINUOUS
 62
     7
 10
-87.500005722045898
 20
 140.40000915527344
 11
-87.500005722045898
 21
-136.09998805609459
  0
LINE
  8
256
  6
CONTINUOUS
 62
     7
 10
 98.500015258789063
 20
 140.40000915527344
 11
 98.500015258789063
 21
-136.09998805609465
  0
ENDSEC
  0
EOF
