  0
SECTION
  2
HEADER
  9
$INSBASE
 10
0.0
20
0.0
  9
$REGENMODE
 70
     1
  9
$DRAGMODE
 70
     1
  9
$DIMTAD
 70
     1
  9
$EXTMIN
 10
-210.000000
 20
-148.500000
 30
 0.0
  9
$EXTMAX
 10
210.000000
 20
148.500000
 30
 0.0
  9
$LUPREC
 70
    3
  9
$AUPREC
 70
    3
  9
$LTSCALE
 40
26.250000
  0
ENDSEC
  0
SECTION
  2
TABLES
  0
TABLE
  2
LTYPE
 70
     6
  0
LTYPE
  2
CONTINUOUS
 70
    64
  3
SOLID
 72
    65
 73
     0
 40
0.0
  0
LTYPE
  2
DASHED2
 70
    64
  3
_ _ _ _ _ _ _ _ _ _ _ _ _ _ _ _ _ _ _ _ _ _ 
 72
    65
 73
     2
 40
0.5
 49
0.25
 49
-0.25
  0
LTYPE
  2
DASHED
 70
    64
  3
__ __ __ __ __ __ __ __ __ __ __ __ __ __ __
 72
    65
 73
     2
 40
0.75
 49
0.5
 49
-0.25
  0
LTYPE
  2
DASHEDX2
 70
    64
  3
____  ____  ____  ____  ____  ____  ____  __
 72
    65
 73
     2
 40
1.5
 49
1.0
 49
-0.5
  0
LTYPE
  2
DOT
 70
    64
  3
............................................
 72
    65
 73
     2
 40
0.25
 49
0
 49
-0.25
  0
LTYPE
  2
DASHDOT
 70
    64
  3
__ . __ . __ . __ . __ . __ . __ . __ . __ .
 72
    65
 73
     4
 40
1.0
 49
0.5
 49
-0.25
 49
0.0
 49
-0.25
  0
LTYPE
  2
CENTER
 70
    64
  3
____ _ ____ _ ____ _ ____ _ ____ _ ____ _ __
 72
    65
 73
     4
 40
2.0
 49
1.25
 49
-0.25
 49
0.25
 49
-0.25
  0
LTYPE
  2
DIVIDE
 70
    64
  3
__ . . __ . . __ . . __ . . __ . . __ . . __
 72
    65
 73
     6
 40
1.25
 49
0.5
 49
-0.25
 49
0.0
 49
-0.25
 49
0.0
 49
-0.25
  0
LTYPE
  2
PHANTOM2
 70
    64
  3
___ _ _ ___ _ _ ___ _ _ ___ _ _ ___ _ _ ___ 
 72
    65
 73
     6
 40
1.25
 49
0.625
 49
-0.125
 49
0.125
 49
-0.125
 49
0.125
 49
-0.125
  0
LTYPE
  2
DOTX2
 70
    64
  3
. . . . . . . . . . . . . . . . . . . . . . 
 72
    65
 73
     2
 40
0.5
 49
0
 49
-0.5
  0
ENDTAB
  0
TABLE
  2
LAYER
 70
   255
  0
LAYER
  2
0
 70
    64
 62
     7
  6
CONTINUOUS
  0
LAYER
  2
1
 70
    64
 62
     7
  6
CONTINUOUS
  0
LAYER
  2
2
 70
    64
 62
     7
  6
CONTINUOUS
  0
LAYER
  2
3
 70
    64
 62
     7
  6
CONTINUOUS
  0
LAYER
  2
4
 70
    64
 62
     7
  6
CONTINUOUS
  0
LAYER
  2
5
 70
    64
 62
     7
  6
CONTINUOUS
  0
LAYER
  2
6
 70
    64
 62
     7
  6
CONTINUOUS
  0
LAYER
  2
7
 70
    64
 62
     7
  6
CONTINUOUS
  0
LAYER
  2
8
 70
    64
 62
     7
  6
CONTINUOUS
  0
LAYER
  2
9
 70
    64
 62
     7
  6
CONTINUOUS
  0
LAYER
  2
10
 70
    64
 62
     7
  6
CONTINUOUS
  0
LAYER
  2
11
 70
    64
 62
     7
  6
CONTINUOUS
  0
LAYER
  2
12
 70
    64
 62
     7
  6
CONTINUOUS
  0
LAYER
  2
13
 70
    64
 62
     7
  6
CONTINUOUS
  0
LAYER
  2
14
 70
    64
 62
     7
  6
CONTINUOUS
  0
LAYER
  2
15
 70
    64
 62
     7
  6
CONTINUOUS
  0
LAYER
  2
16
 70
    64
 62
     7
  6
CONTINUOUS
  0
LAYER
  2
17
 70
    64
 62
     7
  6
CONTINUOUS
  0
LAYER
  2
18
 70
    64
 62
     7
  6
CONTINUOUS
  0
LAYER
  2
19
 70
    64
 62
     7
  6
CONTINUOUS
  0
LAYER
  2
20
 70
    64
 62
     7
  6
CONTINUOUS
  0
LAYER
  2
21
 70
    64
 62
     7
  6
CONTINUOUS
  0
LAYER
  2
22
 70
    64
 62
     7
  6
CONTINUOUS
  0
LAYER
  2
23
 70
    64
 62
     7
  6
CONTINUOUS
  0
LAYER
  2
24
 70
    64
 62
     7
  6
CONTINUOUS
  0
LAYER
  2
25
 70
    64
 62
     7
  6
CONTINUOUS
  0
LAYER
  2
26
 70
    64
 62
     7
  6
CONTINUOUS
  0
LAYER
  2
27
 70
    64
 62
     7
  6
CONTINUOUS
  0
LAYER
  2
28
 70
    64
 62
     7
  6
CONTINUOUS
  0
LAYER
  2
29
 70
    64
 62
     7
  6
CONTINUOUS
  0
LAYER
  2
30
 70
    64
 62
     7
  6
CONTINUOUS
  0
LAYER
  2
31
 70
    64
 62
     7
  6
CONTINUOUS
  0
LAYER
  2
32
 70
    64
 62
     7
  6
CONTINUOUS
  0
LAYER
  2
33
 70
    64
 62
     7
  6
CONTINUOUS
  0
LAYER
  2
34
 70
    64
 62
     7
  6
CONTINUOUS
  0
LAYER
  2
35
 70
    64
 62
     7
  6
CONTINUOUS
  0
LAYER
  2
36
 70
    64
 62
     7
  6
CONTINUOUS
  0
LAYER
  2
37
 70
    64
 62
     7
  6
CONTINUOUS
  0
LAYER
  2
38
 70
    64
 62
     7
  6
CONTINUOUS
  0
LAYER
  2
39
 70
    64
 62
     7
  6
CONTINUOUS
  0
LAYER
  2
40
 70
    64
 62
     7
  6
CONTINUOUS
  0
LAYER
  2
41
 70
    64
 62
     7
  6
CONTINUOUS
  0
LAYER
  2
42
 70
    64
 62
     7
  6
CONTINUOUS
  0
LAYER
  2
43
 70
    64
 62
     7
  6
CONTINUOUS
  0
LAYER
  2
44
 70
    64
 62
     7
  6
CONTINUOUS
  0
LAYER
  2
45
 70
    64
 62
     7
  6
CONTINUOUS
  0
LAYER
  2
46
 70
    64
 62
     7
  6
CONTINUOUS
  0
LAYER
  2
47
 70
    64
 62
     7
  6
CONTINUOUS
  0
LAYER
  2
48
 70
    64
 62
     7
  6
CONTINUOUS
  0
LAYER
  2
49
 70
    64
 62
     7
  6
CONTINUOUS
  0
LAYER
  2
50
 70
    64
 62
     7
  6
CONTINUOUS
  0
LAYER
  2
51
 70
    64
 62
     7
  6
CONTINUOUS
  0
LAYER
  2
52
 70
    64
 62
     7
  6
CONTINUOUS
  0
LAYER
  2
53
 70
    64
 62
     7
  6
CONTINUOUS
  0
LAYER
  2
54
 70
    64
 62
     7
  6
CONTINUOUS
  0
LAYER
  2
55
 70
    64
 62
     7
  6
CONTINUOUS
  0
LAYER
  2
56
 70
    64
 62
     7
  6
CONTINUOUS
  0
LAYER
  2
57
 70
    64
 62
     7
  6
CONTINUOUS
  0
LAYER
  2
58
 70
    64
 62
     7
  6
CONTINUOUS
  0
LAYER
  2
59
 70
    64
 62
     7
  6
CONTINUOUS
  0
LAYER
  2
60
 70
    64
 62
     7
  6
CONTINUOUS
  0
LAYER
  2
61
 70
    64
 62
     7
  6
CONTINUOUS
  0
LAYER
  2
62
 70
    64
 62
     7
  6
CONTINUOUS
  0
LAYER
  2
63
 70
    64
 62
     7
  6
CONTINUOUS
  0
LAYER
  2
64
 70
    64
 62
     7
  6
CONTINUOUS
  0
LAYER
  2
65
 70
    64
 62
     7
  6
CONTINUOUS
  0
LAYER
  2
66
 70
    64
 62
     7
  6
CONTINUOUS
  0
LAYER
  2
67
 70
    64
 62
     7
  6
CONTINUOUS
  0
LAYER
  2
68
 70
    64
 62
     7
  6
CONTINUOUS
  0
LAYER
  2
69
 70
    64
 62
     7
  6
CONTINUOUS
  0
LAYER
  2
70
 70
    64
 62
     7
  6
CONTINUOUS
  0
LAYER
  2
71
 70
    64
 62
     7
  6
CONTINUOUS
  0
LAYER
  2
72
 70
    64
 62
     7
  6
CONTINUOUS
  0
LAYER
  2
73
 70
    64
 62
     7
  6
CONTINUOUS
  0
LAYER
  2
74
 70
    64
 62
     7
  6
CONTINUOUS
  0
LAYER
  2
75
 70
    64
 62
     7
  6
CONTINUOUS
  0
LAYER
  2
76
 70
    64
 62
     7
  6
CONTINUOUS
  0
LAYER
  2
77
 70
    64
 62
     7
  6
CONTINUOUS
  0
LAYER
  2
78
 70
    64
 62
     7
  6
CONTINUOUS
  0
LAYER
  2
79
 70
    64
 62
     7
  6
CONTINUOUS
  0
LAYER
  2
80
 70
    64
 62
     7
  6
CONTINUOUS
  0
LAYER
  2
81
 70
    64
 62
     7
  6
CONTINUOUS
  0
LAYER
  2
82
 70
    64
 62
     7
  6
CONTINUOUS
  0
LAYER
  2
83
 70
    64
 62
     7
  6
CONTINUOUS
  0
LAYER
  2
84
 70
    64
 62
     7
  6
CONTINUOUS
  0
LAYER
  2
85
 70
    64
 62
     7
  6
CONTINUOUS
  0
LAYER
  2
86
 70
    64
 62
     7
  6
CONTINUOUS
  0
LAYER
  2
87
 70
    64
 62
     7
  6
CONTINUOUS
  0
LAYER
  2
88
 70
    64
 62
     7
  6
CONTINUOUS
  0
LAYER
  2
89
 70
    64
 62
     7
  6
CONTINUOUS
  0
LAYER
  2
90
 70
    64
 62
     7
  6
CONTINUOUS
  0
LAYER
  2
91
 70
    64
 62
     7
  6
CONTINUOUS
  0
LAYER
  2
92
 70
    64
 62
     7
  6
CONTINUOUS
  0
LAYER
  2
93
 70
    64
 62
     7
  6
CONTINUOUS
  0
LAYER
  2
94
 70
    64
 62
     7
  6
CONTINUOUS
  0
LAYER
  2
95
 70
    64
 62
     7
  6
CONTINUOUS
  0
LAYER
  2
96
 70
    64
 62
     7
  6
CONTINUOUS
  0
LAYER
  2
97
 70
    64
 62
     7
  6
CONTINUOUS
  0
LAYER
  2
98
 70
    64
 62
     7
  6
CONTINUOUS
  0
LAYER
  2
99
 70
    64
 62
     7
  6
CONTINUOUS
  0
LAYER
  2
100
 70
    64
 62
     7
  6
CONTINUOUS
  0
LAYER
  2
101
 70
    64
 62
     7
  6
CONTINUOUS
  0
LAYER
  2
102
 70
    64
 62
     7
  6
CONTINUOUS
  0
LAYER
  2
103
 70
    64
 62
     7
  6
CONTINUOUS
  0
LAYER
  2
104
 70
    64
 62
     7
  6
CONTINUOUS
  0
LAYER
  2
105
 70
    64
 62
     7
  6
CONTINUOUS
  0
LAYER
  2
106
 70
    64
 62
     7
  6
CONTINUOUS
  0
LAYER
  2
107
 70
    64
 62
     7
  6
CONTINUOUS
  0
LAYER
  2
108
 70
    64
 62
     7
  6
CONTINUOUS
  0
LAYER
  2
109
 70
    64
 62
     7
  6
CONTINUOUS
  0
LAYER
  2
110
 70
    64
 62
     7
  6
CONTINUOUS
  0
LAYER
  2
111
 70
    64
 62
     7
  6
CONTINUOUS
  0
LAYER
  2
112
 70
    64
 62
     7
  6
CONTINUOUS
  0
LAYER
  2
113
 70
    64
 62
     7
  6
CONTINUOUS
  0
LAYER
  2
114
 70
    64
 62
     7
  6
CONTINUOUS
  0
LAYER
  2
115
 70
    64
 62
     7
  6
CONTINUOUS
  0
LAYER
  2
116
 70
    64
 62
     7
  6
CONTINUOUS
  0
LAYER
  2
117
 70
    64
 62
     7
  6
CONTINUOUS
  0
LAYER
  2
118
 70
    64
 62
     7
  6
CONTINUOUS
  0
LAYER
  2
119
 70
    64
 62
     7
  6
CONTINUOUS
  0
LAYER
  2
120
 70
    64
 62
     7
  6
CONTINUOUS
  0
LAYER
  2
121
 70
    64
 62
     7
  6
CONTINUOUS
  0
LAYER
  2
122
 70
    64
 62
     7
  6
CONTINUOUS
  0
LAYER
  2
123
 70
    64
 62
     7
  6
CONTINUOUS
  0
LAYER
  2
124
 70
    64
 62
     7
  6
CONTINUOUS
  0
LAYER
  2
125
 70
    64
 62
     7
  6
CONTINUOUS
  0
LAYER
  2
126
 70
    64
 62
     7
  6
CONTINUOUS
  0
LAYER
  2
127
 70
    64
 62
     7
  6
CONTINUOUS
  0
LAYER
  2
128
 70
    64
 62
     7
  6
CONTINUOUS
  0
LAYER
  2
129
 70
    64
 62
     7
  6
CONTINUOUS
  0
LAYER
  2
130
 70
    64
 62
     7
  6
CONTINUOUS
  0
LAYER
  2
131
 70
    64
 62
     7
  6
CONTINUOUS
  0
LAYER
  2
132
 70
    64
 62
     7
  6
CONTINUOUS
  0
LAYER
  2
133
 70
    64
 62
     7
  6
CONTINUOUS
  0
LAYER
  2
134
 70
    64
 62
     7
  6
CONTINUOUS
  0
LAYER
  2
135
 70
    64
 62
     7
  6
CONTINUOUS
  0
LAYER
  2
136
 70
    64
 62
     7
  6
CONTINUOUS
  0
LAYER
  2
137
 70
    64
 62
     7
  6
CONTINUOUS
  0
LAYER
  2
138
 70
    64
 62
     7
  6
CONTINUOUS
  0
LAYER
  2
139
 70
    64
 62
     7
  6
CONTINUOUS
  0
LAYER
  2
140
 70
    64
 62
     7
  6
CONTINUOUS
  0
LAYER
  2
141
 70
    64
 62
     7
  6
CONTINUOUS
  0
LAYER
  2
142
 70
    64
 62
     7
  6
CONTINUOUS
  0
LAYER
  2
143
 70
    64
 62
     7
  6
CONTINUOUS
  0
LAYER
  2
144
 70
    64
 62
     7
  6
CONTINUOUS
  0
LAYER
  2
145
 70
    64
 62
     7
  6
CONTINUOUS
  0
LAYER
  2
146
 70
    64
 62
     7
  6
CONTINUOUS
  0
LAYER
  2
147
 70
    64
 62
     7
  6
CONTINUOUS
  0
LAYER
  2
148
 70
    64
 62
     7
  6
CONTINUOUS
  0
LAYER
  2
149
 70
    64
 62
     7
  6
CONTINUOUS
  0
LAYER
  2
150
 70
    64
 62
     7
  6
CONTINUOUS
  0
LAYER
  2
151
 70
    64
 62
     7
  6
CONTINUOUS
  0
LAYER
  2
152
 70
    64
 62
     7
  6
CONTINUOUS
  0
LAYER
  2
153
 70
    64
 62
     7
  6
CONTINUOUS
  0
LAYER
  2
154
 70
    64
 62
     7
  6
CONTINUOUS
  0
LAYER
  2
155
 70
    64
 62
     7
  6
CONTINUOUS
  0
LAYER
  2
156
 70
    64
 62
     7
  6
CONTINUOUS
  0
LAYER
  2
157
 70
    64
 62
     7
  6
CONTINUOUS
  0
LAYER
  2
158
 70
    64
 62
     7
  6
CONTINUOUS
  0
LAYER
  2
159
 70
    64
 62
     7
  6
CONTINUOUS
  0
LAYER
  2
160
 70
    64
 62
     7
  6
CONTINUOUS
  0
LAYER
  2
161
 70
    64
 62
     7
  6
CONTINUOUS
  0
LAYER
  2
162
 70
    64
 62
     7
  6
CONTINUOUS
  0
LAYER
  2
163
 70
    64
 62
     7
  6
CONTINUOUS
  0
LAYER
  2
164
 70
    64
 62
     7
  6
CONTINUOUS
  0
LAYER
  2
165
 70
    64
 62
     7
  6
CONTINUOUS
  0
LAYER
  2
166
 70
    64
 62
     7
  6
CONTINUOUS
  0
LAYER
  2
167
 70
    64
 62
     7
  6
CONTINUOUS
  0
LAYER
  2
168
 70
    64
 62
     7
  6
CONTINUOUS
  0
LAYER
  2
169
 70
    64
 62
     7
  6
CONTINUOUS
  0
LAYER
  2
170
 70
    64
 62
     7
  6
CONTINUOUS
  0
LAYER
  2
171
 70
    64
 62
     7
  6
CONTINUOUS
  0
LAYER
  2
172
 70
    64
 62
     7
  6
CONTINUOUS
  0
LAYER
  2
173
 70
    64
 62
     7
  6
CONTINUOUS
  0
LAYER
  2
174
 70
    64
 62
     7
  6
CONTINUOUS
  0
LAYER
  2
175
 70
    64
 62
     7
  6
CONTINUOUS
  0
LAYER
  2
176
 70
    64
 62
     7
  6
CONTINUOUS
  0
LAYER
  2
177
 70
    64
 62
     7
  6
CONTINUOUS
  0
LAYER
  2
178
 70
    64
 62
     7
  6
CONTINUOUS
  0
LAYER
  2
179
 70
    64
 62
     7
  6
CONTINUOUS
  0
LAYER
  2
180
 70
    64
 62
     7
  6
CONTINUOUS
  0
LAYER
  2
181
 70
    64
 62
     7
  6
CONTINUOUS
  0
LAYER
  2
182
 70
    64
 62
     7
  6
CONTINUOUS
  0
LAYER
  2
183
 70
    64
 62
     7
  6
CONTINUOUS
  0
LAYER
  2
184
 70
    64
 62
     7
  6
CONTINUOUS
  0
LAYER
  2
185
 70
    64
 62
     7
  6
CONTINUOUS
  0
LAYER
  2
186
 70
    64
 62
     7
  6
CONTINUOUS
  0
LAYER
  2
187
 70
    64
 62
     7
  6
CONTINUOUS
  0
LAYER
  2
188
 70
    64
 62
     7
  6
CONTINUOUS
  0
LAYER
  2
189
 70
    64
 62
     7
  6
CONTINUOUS
  0
LAYER
  2
190
 70
    64
 62
     7
  6
CONTINUOUS
  0
LAYER
  2
191
 70
    64
 62
     7
  6
CONTINUOUS
  0
LAYER
  2
192
 70
    64
 62
     7
  6
CONTINUOUS
  0
LAYER
  2
193
 70
    64
 62
     7
  6
CONTINUOUS
  0
LAYER
  2
194
 70
    64
 62
     7
  6
CONTINUOUS
  0
LAYER
  2
195
 70
    64
 62
     7
  6
CONTINUOUS
  0
LAYER
  2
196
 70
    64
 62
     7
  6
CONTINUOUS
  0
LAYER
  2
197
 70
    64
 62
     7
  6
CONTINUOUS
  0
LAYER
  2
198
 70
    64
 62
     7
  6
CONTINUOUS
  0
LAYER
  2
199
 70
    64
 62
     7
  6
CONTINUOUS
  0
LAYER
  2
200
 70
    64
 62
     7
  6
CONTINUOUS
  0
LAYER
  2
201
 70
    64
 62
     7
  6
CONTINUOUS
  0
LAYER
  2
202
 70
    64
 62
     7
  6
CONTINUOUS
  0
LAYER
  2
203
 70
    64
 62
     7
  6
CONTINUOUS
  0
LAYER
  2
204
 70
    64
 62
     7
  6
CONTINUOUS
  0
LAYER
  2
205
 70
    64
 62
     7
  6
CONTINUOUS
  0
LAYER
  2
206
 70
    64
 62
     7
  6
CONTINUOUS
  0
LAYER
  2
207
 70
    64
 62
     7
  6
CONTINUOUS
  0
LAYER
  2
208
 70
    64
 62
     7
  6
CONTINUOUS
  0
LAYER
  2
209
 70
    64
 62
     7
  6
CONTINUOUS
  0
LAYER
  2
210
 70
    64
 62
     7
  6
CONTINUOUS
  0
LAYER
  2
211
 70
    64
 62
     7
  6
CONTINUOUS
  0
LAYER
  2
212
 70
    64
 62
     7
  6
CONTINUOUS
  0
LAYER
  2
213
 70
    64
 62
     7
  6
CONTINUOUS
  0
LAYER
  2
214
 70
    64
 62
     7
  6
CONTINUOUS
  0
LAYER
  2
215
 70
    64
 62
     7
  6
CONTINUOUS
  0
LAYER
  2
216
 70
    64
 62
     7
  6
CONTINUOUS
  0
LAYER
  2
217
 70
    64
 62
     7
  6
CONTINUOUS
  0
LAYER
  2
218
 70
    64
 62
     7
  6
CONTINUOUS
  0
LAYER
  2
219
 70
    64
 62
     7
  6
CONTINUOUS
  0
LAYER
  2
220
 70
    64
 62
     7
  6
CONTINUOUS
  0
LAYER
  2
221
 70
    64
 62
     7
  6
CONTINUOUS
  0
LAYER
  2
222
 70
    64
 62
     7
  6
CONTINUOUS
  0
LAYER
  2
223
 70
    64
 62
     7
  6
CONTINUOUS
  0
LAYER
  2
224
 70
    64
 62
     7
  6
CONTINUOUS
  0
LAYER
  2
225
 70
    64
 62
     7
  6
CONTINUOUS
  0
LAYER
  2
226
 70
    64
 62
     7
  6
CONTINUOUS
  0
LAYER
  2
227
 70
    64
 62
     7
  6
CONTINUOUS
  0
LAYER
  2
228
 70
    64
 62
     7
  6
CONTINUOUS
  0
LAYER
  2
229
 70
    64
 62
     7
  6
CONTINUOUS
  0
LAYER
  2
230
 70
    64
 62
     7
  6
CONTINUOUS
  0
LAYER
  2
231
 70
    64
 62
     7
  6
CONTINUOUS
  0
LAYER
  2
232
 70
    64
 62
     7
  6
CONTINUOUS
  0
LAYER
  2
233
 70
    64
 62
     7
  6
CONTINUOUS
  0
LAYER
  2
234
 70
    64
 62
     7
  6
CONTINUOUS
  0
LAYER
  2
235
 70
    64
 62
     7
  6
CONTINUOUS
  0
LAYER
  2
236
 70
    64
 62
     7
  6
CONTINUOUS
  0
LAYER
  2
237
 70
    64
 62
     7
  6
CONTINUOUS
  0
LAYER
  2
238
 70
    64
 62
     7
  6
CONTINUOUS
  0
LAYER
  2
239
 70
    64
 62
     7
  6
CONTINUOUS
  0
LAYER
  2
240
 70
    64
 62
     7
  6
CONTINUOUS
  0
LAYER
  2
241
 70
    64
 62
     7
  6
CONTINUOUS
  0
LAYER
  2
242
 70
    64
 62
     7
  6
CONTINUOUS
  0
LAYER
  2
243
 70
    64
 62
     7
  6
CONTINUOUS
  0
LAYER
  2
244
 70
    64
 62
     7
  6
CONTINUOUS
  0
LAYER
  2
245
 70
    64
 62
     7
  6
CONTINUOUS
  0
LAYER
  2
246
 70
    64
 62
     7
  6
CONTINUOUS
  0
LAYER
  2
247
 70
    64
 62
     7
  6
CONTINUOUS
  0
LAYER
  2
248
 70
    64
 62
     7
  6
CONTINUOUS
  0
LAYER
  2
249
 70
    64
 62
     7
  6
CONTINUOUS
  0
LAYER
  2
250
 70
    64
 62
     7
  6
CONTINUOUS
  0
LAYER
  2
251
 70
    64
 62
     7
  6
CONTINUOUS
  0
LAYER
  2
252
 70
    64
 62
     7
  6
CONTINUOUS
  0
LAYER
  2
253
 70
    64
 62
     7
  6
CONTINUOUS
  0
LAYER
  2
254
 70
    64
 62
     7
  6
CONTINUOUS
  0
LAYER
  2
255
 70
    64
 62
     7
  6
CONTINUOUS
  0
ENDTAB
  0
TABLE
  2
STYLE
 70
     2
  0
STYLE
  2
STANDARD
 70
    64
 40
0.0
 41
1.0
 50
0.0
 71
     0
 42
3.000000
  3
TXT
  4
BIGFONT
  0
ENDTAB
  0
ENDSEC
  0
SECTION
  2
ENTITIES
  0
LINE
  8
0
  6
CONTINUOUS
 62
     3
 10
-8
 20
 8
 11
 12.999999999999993
 21
 8
  0
ARC
  8
0
  6
CONTINUOUS
 62
     3
 10
-8
 20
 6
 40
 2
 50
 90.000001535234517
 51
 180.00000307046903
  0
ARC
  8
0
  6
CONTINUOUS
 62
     3
 10
 12.999999999999993
 20
 6
 40
 2
 50
 0
 51
 90.000001535234517
  0
LINE
  8
0
  6
CONTINUOUS
 62
     3
 10
 10
 20
 6
 11
 10
 21
-8.5
  0
ARC
  8
0
  6
CONTINUOUS
 62
     3
 10
 10.5
 20
 4.5
 40
 0.5
 50
 90.000001535234517
 51
 180.00000307046903
  0
ARC
  8
0
  6
CONTINUOUS
 62
     3
 10
 8
 20
 6
 40
 2
 50
 0
 51
 90.000001535234517
  0
ARC
  8
0
  6
CONTINUOUS
 62
     3
 10
 8
 20
-8.5
 40
 2
 50
-90.000001535234532
 51
 0
  0
LINE
  8
0
  6
CONTINUOUS
 62
     3
 10
 8
 20
-10.5
 11
-8
 21
-10.5
  0
ARC
  8
0
  6
CONTINUOUS
 62
     3
 10
-8
 20
-8.5
 40
 2
 50
 180.00000307046903
 51
-90.000001535234532
  0
LINE
  8
0
  6
CONTINUOUS
 62
     3
 10
-10
 20
-8.5
 11
-10
 21
 6
  0
LINE
  8
0
  6
CONTINUOUS
 62
     3
 10
-10
 20
 5
 11
 12
 21
 5
  0
ARC
  8
0
  6
CONTINUOUS
 62
     3
 10
 12
 20
 4.5
 40
 0.5
 50
 0
 51
 90.000001535234517
  0
LINE
  8
0
  6
CONTINUOUS
 62
     3
 10
-10
 20
-7.2999999999999972
 11
-4.0000000000000071
 21
-7.2999999999999972
  0
ARC
  8
0
  6
CONTINUOUS
 62
     3
 10
-4.0000000000000071
 20
-10.299999999999997
 40
 3
 50
 0
 51
 90.000001535234517
  0
LINE
  8
0
  6
CONTINUOUS
 62
     3
 10
-1
 20
-10.299999999999997
 11
-1
 21
-10.5
  0
LINE
  8
0
  6
CONTINUOUS
 62
     3
 10
 14.999999999999993
 20
 6
 11
 14.999999999999993
 21
 3.75
  0
ARC
  8
0
  6
CONTINUOUS
 62
     3
 10
 13.749999999999993
 20
 3.75
 40
 1.25
 50
-90.000001535234532
 51
 0
  0
LINE
  8
0
  6
DOT
 62
     3
 10
-9.3885050695191623
 20
 7.4394629803925696
 11
-4.0000000000000071
 21
 2.5
  0
LINE
  8
0
  6
DOT
 62
     3
 10
-4.0000000000000071
 20
 2.5
 11
-4.0000000000000071
 21
 0
  0
LINE
  8
0
  6
DOT
 62
     3
 10
-9
 20
 0
 11
 10
 21
 0
  0
LINE
  8
0
  6
DOT
 62
     3
 10
-9
 20
 0
 11
-9
 21
-4
  0
LINE
  8
0
  6
DOT
 62
     3
 10
-9
 20
-4
 11
 10
 21
-4
  0
LINE
  8
0
  6
DOT
 62
     3
 10
 9.3885050695190273
 20
 7.4394629803924417
 11
 3.9999999999999929
 21
 2.5
  0
LINE
  8
0
  6
DOT
 62
     3
 10
 3.9999999999999929
 20
 2.5
 11
 3.9999999999999929
 21
 0
  0
LINE
  8
0
  6
DOT
 62
     3
 10
-4.0000000000000071
 20
-4
 11
-4.0000000000000071
 21
-7.3999999999999986
  0
LINE
  8
0
  6
DOT
 62
     3
 10
 3.9999999999999929
 20
-4
 11
 3.9999999999999929
 21
-7.3999999999999986
  0
LINE
  8
0
  6
DASHDOT
 62
     3
 10
 0
 20
 16.000000000000007
 11
 0
 21
-12.5
  0
LINE
  8
0
  6
CONTINUOUS
 62
     7
 10
-20.034891350324756
 20
-7.2999999999999972
 11
-20.034891350324756
 21
-10.5
  0
TEXT
  8
0
  6
CONTINUOUS
 62
     7
 10
-20.99489135032475
 20
-17.900000000000002
 11
-20.99489135032475
 21
-12.100000000000001
 40
 2
 41
 0.8
  1
３．２
 50
 90.000001535234517
 72
  5
  0
LINE
  8
0
  6
CONTINUOUS
 62
     7
 10
-20.034891350324756
 20
-19.5
 11
-20.034891350324756
 21
-10.5
  0
LINE
  8
0
  6
CONTINUOUS
 62
     7
 10
-20.034891350324756
 20
-10.5
 11
-20.811348485632319
 21
-13.397777478867205
  0
LINE
  8
0
  6
CONTINUOUS
 62
     7
 10
-20.034891350324756
 20
-10.5
 11
-19.258434215017193
 21
-13.397777478867205
  0
LINE
  8
0
  6
CONTINUOUS
 62
     7
 10
-20
 20
-2.6799999999999997
 11
-20
 21
 5
  0
LINE
  8
0
  6
CONTINUOUS
 62
     7
 10
-20
 20
 5
 11
-20.776457135307563
 21
 2.102222521132795
  0
LINE
  8
0
  6
CONTINUOUS
 62
     7
 10
-20
 20
 5
 11
-19.223542864692437
 21
 2.102222521132795
  0
LINE
  8
0
  6
CONTINUOUS
 62
     7
 10
-20
 20
 5
 11
-20
 21
 8
  0
TEXT
  8
0
  6
CONTINUOUS
 62
     7
 10
-20.959999999999994
 20
 9.5999999999999979
 11
-20.959999999999994
 21
 11.199999999999999
 40
 2
 41
 0.8
  1
３
 50
 90.000001535234517
 72
  5
  0
LINE
  8
0
  6
CONTINUOUS
 62
     7
 10
-20
 20
 12.799999999999997
 11
-20
 21
 8
  0
LINE
  8
0
  6
CONTINUOUS
 62
     7
 10
-20
 20
 8
 11
-19.223542864692437
 21
 10.897777478867205
  0
LINE
  8
0
  6
CONTINUOUS
 62
     7
 10
-20
 20
 8
 11
-20.776457135307563
 21
 10.897777478867205
  0
LINE
  8
0
  6
CONTINUOUS
 62
     3
 10
-9
 20
 73
 11
 9
 21
 73
  0
ARC
  8
0
  6
CONTINUOUS
 62
     3
 10
 9
 20
 72
 40
 1
 50
 0
 51
 90.000001535234517
  0
ARC
  8
0
  6
CONTINUOUS
 62
     3
 10
-9
 20
 72
 40
 1
 50
 90.000001535234517
 51
 180.00000307046903
  0
LINE
  8
0
  6
CONTINUOUS
 62
     3
 10
 9
 20
 42.999999999999993
 11
-9
 21
 42.999999999999993
  0
ARC
  8
0
  6
CONTINUOUS
 62
     3
 10
 9
 20
 43.999999999999993
 40
 1
 50
-90.000001535234532
 51
 0
  0
ARC
  8
0
  6
CONTINUOUS
 62
     3
 10
-9
 20
 43.999999999999993
 40
 1
 50
 180.00000307046903
 51
-90.000001535234532
  0
LINE
  8
0
  6
CONTINUOUS
 62
     3
 10
-10
 20
 43.999999999999993
 11
-10
 21
 72
  0
CIRCLE
  8
0
  6
CONTINUOUS
 62
     3
 10
 0
 20
 57.999999999999993
 40
 10
  0
CIRCLE
  8
0
  6
CONTINUOUS
 62
     3
 10
 0
 20
 57.999999999999993
 40
 4
  0
LINE
  8
0
  6
CONTINUOUS
 62
     7
 10
 0
 20
 78
 11
 0
 21
 37.999999999999993
  0
LINE
  8
0
  6
CONTINUOUS
 62
     7
 10
-15
 20
 57.999999999999993
 11
 25.000000000000004
 21
 57.999999999999993
  0
LINE
  8
0
  6
CONTINUOUS
 62
     3
 10
 10
 20
 65.5
 11
 13.999999999999993
 21
 65.5
  0
ARC
  8
0
  6
CONTINUOUS
 62
     3
 10
 13.999999999999993
 20
 64.5
 40
 1
 50
 0
 51
 90.000001535234517
  0
LINE
  8
0
  6
CONTINUOUS
 62
     3
 10
 14.999999999999993
 20
 64.5
 11
 14.999999999999993
 21
 51.499999999999993
  0
ARC
  8
0
  6
CONTINUOUS
 62
     3
 10
 13.999999999999993
 20
 51.499999999999993
 40
 1
 50
-90.000001535234532
 51
 0
  0
LINE
  8
0
  6
CONTINUOUS
 62
     3
 10
 13.999999999999993
 20
 50.499999999999993
 11
 10
 21
 50.499999999999993
  0
LINE
  8
0
  6
DOT
 62
     3
 10
 12.5
 20
 65.5
 11
 12.5
 21
 50.499999999999993
  0
LINE
  8
0
  6
CONTINUOUS
 62
     3
 10
 12.5
 20
 3.75
 11
 12.5
 21
 4.5
  0
ARC
  8
0
  6
CONTINUOUS
 62
     3
 10
 13.75
 20
 3.75
 40
 1.25
 50
 180.00000307046903
 51
-90.000001535234532
  0
LINE
  8
0
  6
CONTINUOUS
 62
     3
 10
 13.75
 20
 2.5
 11
 13.751010000000001
 21
 2.5
  0
LINE
  8
0
  6
CONTINUOUS
 62
     3
 10
 10
 20
 65.5
 11
 10
 21
 72
  0
LINE
  8
0
  6
CONTINUOUS
 62
     3
 10
 10
 20
 43.999999999999993
 11
 10
 21
 50.499999999999993
  0
LINE
  8
0
  6
DOT
 62
     3
 10
 10
 20
 50.499999999999993
 11
 10
 21
 65.5
  0
LINE
  8
0
  6
CONTINUOUS
 62
     3
 10
-9
 20
-46.5
 11
 9
 21
-46.5
  0
ARC
  8
0
  6
CONTINUOUS
 62
     3
 10
 9
 20
-47.5
 40
 1
 50
 0
 51
 90.000001535234517
  0
ARC
  8
0
  6
CONTINUOUS
 62
     3
 10
-9
 20
-47.5
 40
 1
 50
 90.000001535234517
 51
 180.00000307046903
  0
LINE
  8
0
  6
CONTINUOUS
 62
     3
 10
 10
 20
-47.5
 11
 10
 21
-75.500000000000014
  0
ARC
  8
0
  6
CONTINUOUS
 62
     3
 10
 8
 20
-51.000000000000007
 40
 2
 50
 0
 51
 90.000001535234517
  0
ARC
  8
0
  6
CONTINUOUS
 62
     3
 10
 9
 20
-75.500000000000014
 40
 1
 50
-90.000001535234532
 51
 0
  0
LINE
  8
0
  6
CONTINUOUS
 62
     3
 10
 9
 20
-76.5
 11
-9
 21
-76.5
  0
ARC
  8
0
  6
CONTINUOUS
 62
     3
 10
-1.9999999999999929
 20
-75.500000000000014
 40
 1
 50
-90.000001535234532
 51
 0
  0
ARC
  8
0
  6
CONTINUOUS
 62
     3
 10
-9
 20
-75.500000000000014
 40
 1
 50
 180.00000307046903
 51
-90.000001535234532
  0
LINE
  8
0
  6
CONTINUOUS
 62
     3
 10
-10
 20
-75.500000000000014
 11
-10
 21
-47.5
  0
ARC
  8
0
  6
DOT
 62
     3
 10
-8
 20
-51.000000000000007
 40
 2
 50
 90.000001535234517
 51
 180.00000307046903
  0
ARC
  8
0
  6
DOT
 62
     3
 10
-8
 20
-72
 40
 2
 50
 180.00000307046903
 51
-90.000001535234532
  0
ARC
  8
0
  6
CONTINUOUS
 62
     3
 10
 8
 20
-72
 40
 2
 50
-90.000001535234532
 51
 0
  0
LINE
  8
0
  6
DASHDOT
 62
     3
 10
 0
 20
-41.500000000000007
 11
 0
 21
-81.5
  0
LINE
  8
0
  6
DASHDOT
 62
     3
 10
-15
 20
-61.500000000000007
 11
 20
 21
-61.500000000000007
  0
LINE
  8
0
  6
CONTINUOUS
 62
     3
 10
-7.2500000000000071
 20
-51.75
 11
 7.2499999999999929
 21
-51.75
  0
LINE
  8
0
  6
CONTINUOUS
 62
     3
 10
 7.2499999999999929
 20
-51.75
 11
 7.2499999999999929
 21
-71.250000000000014
  0
LINE
  8
0
  6
CONTINUOUS
 62
     3
 10
 7.2499999999999929
 20
-71.250000000000014
 11
-7.2500000000000071
 21
-71.250000000000014
  0
LINE
  8
0
  6
CONTINUOUS
 62
     3
 10
-7.2500000000000071
 20
-71.250000000000014
 11
-7.2500000000000071
 21
-51.75
  0
LINE
  8
0
  6
DOT
 62
     3
 10
-9
 20
-52.500000000000014
 11
 10
 21
-52.500000000000014
  0
LINE
  8
0
  6
DOT
 62
     3
 10
 10
 20
-70.500000000000014
 11
-9
 21
-70.500000000000014
  0
LINE
  8
0
  6
DOT
 62
     3
 10
-9
 20
-70.500000000000014
 11
-9
 21
-52.500000000000014
  0
LINE
  8
0
  6
CONTINUOUS
 62
     3
 10
-1
 20
-47.5
 11
-1
 21
-49.000000000000007
  0
ARC
  8
0
  6
CONTINUOUS
 62
     3
 10
-1.9999999999999929
 20
-47.5
 40
 1
 50
 0
 51
 90.000001535234517
  0
LINE
  8
0
  6
CONTINUOUS
 62
     3
 10
-1
 20
-75.500000000000014
 11
-1
 21
-74
  0
LINE
  8
0
  6
CONTINUOUS
 62
     3
 10
 10
 20
-54.000000000000007
 11
 13.999999999999993
 21
-54.000000000000007
  0
ARC
  8
0
  6
CONTINUOUS
 62
     3
 10
 13.999999999999993
 20
-55
 40
 1
 50
 0
 51
 90.000001535234517
  0
LINE
  8
0
  6
CONTINUOUS
 62
     3
 10
 14.999999999999993
 20
-55
 11
 14.999999999999993
 21
-68.000000000000014
  0
ARC
  8
0
  6
CONTINUOUS
 62
     3
 10
 13.999999999999993
 20
-68.000000000000014
 40
 1
 50
-90.000001535234532
 51
 0
  0
LINE
  8
0
  6
CONTINUOUS
 62
     3
 10
 13.999999999999993
 20
-69
 11
 10
 21
-69
  0
LINE
  8
0
  6
CONTINUOUS
 62
     3
 10
 12.5
 20
-54.000000000000007
 11
 12.5
 21
-69
  0
CIRCLE
  8
0
  6
CONTINUOUS
 62
     3
 10
 0
 20
-61.500000000000007
 40
 4
  0
LINE
  8
0
  6
DOT
 62
     3
 10
-8
 20
-74
 11
-1
 21
-74
  0
LINE
  8
0
  6
CONTINUOUS
 62
     3
 10
-1
 20
-74
 11
 8
 21
-74
  0
LINE
  8
0
  6
DOT
 62
     3
 10
-8
 20
-49.000000000000007
 11
-1
 21
-49.000000000000007
  0
LINE
  8
0
  6
CONTINUOUS
 62
     3
 10
-1
 20
-49.000000000000007
 11
 8
 21
-49.000000000000007
  0
LINE
  8
0
  6
CONTINUOUS
 62
     3
 10
 6.7272727272727266
 20
 5
 11
 6.7272727272727266
 21
 1.7000000000000028
  0
LINE
  8
0
  6
CONTINUOUS
 62
     3
 10
 6.7272727272727266
 20
 1.7000000000000028
 11
-6.7272727272727337
 21
 1.7000000000000028
  0
LINE
  8
0
  6
CONTINUOUS
 62
     3
 10
-6.7272727272727337
 20
 1.7000000000000028
 11
-6.7272727272727337
 21
 5
  0
LINE
  8
0
  6
DOT
 62
     3
 10
-7.2500000000000071
 20
-7.3999999999999986
 11
 7.2499999999999929
 21
-7.3999999999999986
  0
LINE
  8
0
  6
DOT
 62
     3
 10
 7.2499999999999929
 20
-7.3999999999999986
 11
 7.2499999999999929
 21
-10.5
  0
LINE
  8
0
  6
DOT
 62
     3
 10
-7.2500000000000071
 20
-10.5
 11
-7.2500000000000071
 21
-7.3999999999999986
  0
LINE
  8
0
  6
CONTINUOUS
 62
     3
 10
-47.500000000000014
 20
 5
 11
-47.500000000000014
 21
-7.2999999999999972
  0
LINE
  8
0
  6
CONTINUOUS
 62
     3
 10
-72.500000000000014
 20
-7.2999999999999972
 11
-72.500000000000014
 21
 5
  0
LINE
  8
0
  6
CONTINUOUS
 62
     3
 10
-73.000000000000014
 20
 8
 11
-47
 21
 8
  0
ARC
  8
0
  6
CONTINUOUS
 62
     3
 10
-47
 20
 6
 40
 2
 50
 0
 51
 90.000001535234517
  0
ARC
  8
0
  6
CONTINUOUS
 62
     3
 10
-73.000000000000014
 20
 6
 40
 2
 50
 90.000001535234517
 51
 180.00000307046903
  0
LINE
  8
0
  6
CONTINUOUS
 62
     3
 10
-47
 20
-10.5
 11
-73.000000000000014
 21
-10.5
  0
ARC
  8
0
  6
CONTINUOUS
 62
     3
 10
-47
 20
-8.5
 40
 2
 50
-90.000001535234532
 51
 0
  0
ARC
  8
0
  6
CONTINUOUS
 62
     3
 10
-73.000000000000014
 20
-8.5
 40
 2
 50
 180.00000307046903
 51
-90.000001535234532
  0
LINE
  8
0
  6
CONTINUOUS
 62
     3
 10
-45
 20
-8.5
 11
-45
 21
-7.2999999999999972
  0
LINE
  8
0
  6
CONTINUOUS
 62
     3
 10
-45
 20
 5
 11
-45
 21
 6
  0
LINE
  8
0
  6
CONTINUOUS
 62
     3
 10
-75.000000000000014
 20
-8.5
 11
-75.000000000000014
 21
-7.2999999999999972
  0
LINE
  8
0
  6
CONTINUOUS
 62
     3
 10
-75.000000000000014
 20
 5
 11
-75.000000000000014
 21
 6
  0
LINE
  8
0
  6
DASHDOT
 62
     3
 10
-60.000000000000014
 20
-15.499999999999996
 11
-60.000000000000014
 21
 11
  0
LINE
  8
0
  6
CONTINUOUS
 62
     3
 10
-75.000000000000014
 20
 5
 11
-72.500000000000014
 21
 5
  0
LINE
  8
0
  6
CONTINUOUS
 62
     3
 10
-47.500000000000014
 20
 5
 11
-45
 21
 5
  0
LINE
  8
0
  6
CONTINUOUS
 62
     3
 10
-75.000000000000014
 20
-7.2999999999999972
 11
-72.500000000000014
 21
-7.2999999999999972
  0
LINE
  8
0
  6
CONTINUOUS
 62
     3
 10
-47.500000000000014
 20
-7.2999999999999972
 11
-45
 21
-7.2999999999999972
  0
LINE
  8
0
  6
DOT
 62
     3
 10
-69.750000000000014
 20
-7.3999999999999986
 11
-50.25
 21
-7.3999999999999986
  0
LINE
  8
0
  6
DOT
 62
     3
 10
-50.25
 20
-7.3999999999999986
 11
-50.25
 21
-10.5
  0
LINE
  8
0
  6
DOT
 62
     3
 10
-69.750000000000014
 20
-10.5
 11
-69.750000000000014
 21
-7.3999999999999986
  0
LINE
  8
0
  6
DOT
 62
     3
 10
-69.000000000000014
 20
 0
 11
-51.000000000000014
 21
 0
  0
LINE
  8
0
  6
DOT
 62
     3
 10
-51.000000000000014
 20
 0
 11
-51.000000000000014
 21
-4
  0
LINE
  8
0
  6
DOT
 62
     3
 10
-51.000000000000014
 20
-4
 11
-69.000000000000014
 21
-4
  0
LINE
  8
0
  6
DOT
 62
     3
 10
-69.000000000000014
 20
-4
 11
-69.000000000000014
 21
 0
  0
LINE
  8
0
  6
DOT
 62
     3
 10
-64.000000000000014
 20
-4
 11
-64.000000000000014
 21
-7.3999999999999986
  0
LINE
  8
0
  6
DOT
 62
     3
 10
-56.000000000000014
 20
-7.3999999999999986
 11
-56.000000000000014
 21
-4
  0
LINE
  8
0
  6
DOT
 62
     3
 10
-64.000000000000014
 20
 0
 11
-64.000000000000014
 21
 2.5
  0
LINE
  8
0
  6
DOT
 62
     3
 10
-56.000000000000014
 20
 2.5
 11
-56.000000000000014
 21
 0
  0
LINE
  8
0
  6
DOT
 62
     3
 10
-70
 20
 8
 11
-64.000000000000014
 21
 2.5
  0
LINE
  8
0
  6
DOT
 62
     3
 10
-50.000000000000014
 20
 8
 11
-56.000000000000014
 21
 2.5
  0
LINE
  8
0
  6
DOT
 62
     3
 10
-64.000000000000014
 20
 2.5
 11
-56.000000000000014
 21
 2.5
  0
LINE
  8
0
  6
DOT
 62
     3
 10
-72.500000000000014
 20
 5
 11
-69.5
 21
 5
  0
LINE
  8
0
  6
DOT
 62
     3
 10
-72.500000000000014
 20
 1.7000000000000028
 11
-66.500000000000014
 21
 1.7000000000000028
  0
LINE
  8
0
  6
DOT
 62
     3
 10
-66.500000000000014
 20
 1.7000000000000028
 11
-69.5
 21
 5
  0
LINE
  8
0
  6
DOT
 62
     3
 10
-47.500000000000014
 20
 5
 11
-50.500000000000014
 21
 5
  0
LINE
  8
0
  6
DOT
 62
     3
 10
-47.500000000000014
 20
 1.7000000000000028
 11
-53.500000000000014
 21
 1.7000000000000028
  0
LINE
  8
0
  6
DOT
 62
     3
 10
-53.500000000000014
 20
 1.7000000000000028
 11
-50.500000000000014
 21
 5
  0
LINE
  8
0
  6
CONTINUOUS
 62
     7
 10
-75.000000000000014
 20
 13
 11
-72.500000000000014
 21
 13
  0
TEXT
  8
0
  6
CONTINUOUS
 62
     7
 10
-82.399999999999991
 20
 13.960000000000001
 11
-76.599999999999994
 21
 13.960000000000001
 40
 2
 41
 0.8
  1
２．５
 50
 0
 72
  5
  0
LINE
  8
0
  6
CONTINUOUS
 62
     7
 10
-84
 20
 13
 11
-75.000000000000014
 21
 13
  0
LINE
  8
0
  6
CONTINUOUS
 62
     7
 10
-75.000000000000014
 20
 13
 11
-77.897777478867226
 21
 13.776457135307563
  0
LINE
  8
0
  6
CONTINUOUS
 62
     7
 10
-75.000000000000014
 20
 13
 11
-77.897777478867226
 21
 12.223542864692437
  0
LINE
  8
0
  6
CONTINUOUS
 62
     7
 10
-45
 20
 13
 11
-47.5
 21
 13
  0
TEXT
  8
0
  6
CONTINUOUS
 62
     7
 10
-43.399999999999991
 20
 13.960000000000001
 11
-37.599999999999994
 21
 13.960000000000001
 40
 2
 41
 0.8
  1
２．５
 50
 0
 72
  5
  0
LINE
  8
0
  6
CONTINUOUS
 62
     7
 10
-36
 20
 13
 11
-45
 21
 13
  0
LINE
  8
0
  6
CONTINUOUS
 62
     7
 10
-45
 20
 13
 11
-42.102222521132795
 21
 12.223542864692437
  0
LINE
  8
0
  6
CONTINUOUS
 62
     7
 10
-45
 20
 13
 11
-42.102222521132795
 21
 13.776457135307563
  0
LINE
  8
0
  6
CONTINUOUS
 62
     3
 10
 73
 20
 5
 11
 73
 21
-8.5
  0
LINE
  8
0
  6
CONTINUOUS
 62
     3
 10
 48
 20
-8.5
 11
 48
 21
 5
  0
LINE
  8
0
  6
CONTINUOUS
 62
     3
 10
 47.499999999999993
 20
 8
 11
 73.5
 21
 8
  0
ARC
  8
0
  6
CONTINUOUS
 62
     3
 10
 73.5
 20
 6
 40
 2
 50
 0
 51
 90.000001535234517
  0
ARC
  8
0
  6
CONTINUOUS
 62
     3
 10
 47.499999999999993
 20
 6
 40
 2
 50
 90.000001535234517
 51
 180.00000307046903
  0
LINE
  8
0
  6
CONTINUOUS
 62
     3
 10
 73.5
 20
-10.5
 11
 47.499999999999993
 21
-10.5
  0
ARC
  8
0
  6
CONTINUOUS
 62
     3
 10
 50
 20
-8.5
 40
 2
 50
 180.00000307046903
 51
-90.000001535234532
  0
ARC
  8
0
  6
CONTINUOUS
 62
     3
 10
 71
 20
-8.5
 40
 2
 50
-90.000001535234532
 51
 0
  0
ARC
  8
0
  6
CONTINUOUS
 62
     3
 10
 73.5
 20
-8.5
 40
 2
 50
-90.000001535234532
 51
 0
  0
ARC
  8
0
  6
CONTINUOUS
 62
     3
 10
 47.499999999999993
 20
-8.5
 40
 2
 50
 180.00000307046903
 51
-90.000001535234532
  0
LINE
  8
0
  6
CONTINUOUS
 62
     3
 10
 75.500000000000014
 20
-8.5
 11
 75.500000000000014
 21
-7.2999999999999972
  0
LINE
  8
0
  6
CONTINUOUS
 62
     3
 10
 75.500000000000014
 20
 5
 11
 75.500000000000014
 21
 6
  0
LINE
  8
0
  6
CONTINUOUS
 62
     3
 10
 45.5
 20
-8.5
 11
 45.5
 21
-7.2999999999999972
  0
LINE
  8
0
  6
CONTINUOUS
 62
     3
 10
 45.5
 20
 5
 11
 45.5
 21
 6
  0
LINE
  8
0
  6
DASHDOT
 62
     3
 10
 60.5
 20
-20.5
 11
 60.5
 21
 18
  0
LINE
  8
0
  6
CONTINUOUS
 62
     3
 10
 45.5
 20
 5
 11
 48
 21
 5
  0
LINE
  8
0
  6
CONTINUOUS
 62
     3
 10
 73
 20
 5
 11
 75.500000000000014
 21
 5
  0
LINE
  8
0
  6
CONTINUOUS
 62
     3
 10
 45.5
 20
-7.2999999999999972
 11
 48
 21
-7.2999999999999972
  0
LINE
  8
0
  6
CONTINUOUS
 62
     3
 10
 73
 20
-7.2999999999999972
 11
 75.500000000000014
 21
-7.2999999999999972
  0
LINE
  8
0
  6
DOT
 62
     3
 10
 50.75
 20
-7.3999999999999986
 11
 70.250000000000014
 21
-7.3999999999999986
  0
LINE
  8
0
  6
DOT
 62
     3
 10
 70.250000000000014
 20
-7.3999999999999986
 11
 70.250000000000014
 21
-10.5
  0
LINE
  8
0
  6
DOT
 62
     3
 10
 50.75
 20
-10.5
 11
 50.75
 21
-7.3999999999999986
  0
LINE
  8
0
  6
CONTINUOUS
 62
     3
 10
 51.499999999999993
 20
 0
 11
 69.5
 21
 0
  0
LINE
  8
0
  6
CONTINUOUS
 62
     3
 10
 69.5
 20
 0
 11
 69.5
 21
-4
  0
LINE
  8
0
  6
CONTINUOUS
 62
     3
 10
 69.5
 20
-4
 11
 51.499999999999993
 21
-4
  0
LINE
  8
0
  6
CONTINUOUS
 62
     3
 10
 51.499999999999993
 20
-4
 11
 51.499999999999993
 21
 0
  0
LINE
  8
0
  6
DOT
 62
     3
 10
 56.5
 20
-4
 11
 56.5
 21
-7.3999999999999986
  0
LINE
  8
0
  6
DOT
 62
     3
 10
 64.5
 20
-7.3999999999999986
 11
 64.5
 21
-4
  0
LINE
  8
0
  6
DOT
 62
     3
 10
 56.5
 20
 0
 11
 56.5
 21
 2.5
  0
LINE
  8
0
  6
DOT
 62
     3
 10
 64.5
 20
 2.5
 11
 64.5
 21
 0
  0
LINE
  8
0
  6
DOT
 62
     3
 10
 50.500000000000007
 20
 8
 11
 56.5
 21
 2.5
  0
LINE
  8
0
  6
DOT
 62
     3
 10
 70.5
 20
 8
 11
 64.5
 21
 2.5
  0
LINE
  8
0
  6
DOT
 62
     3
 10
 48
 20
 5
 11
 51.000000000000014
 21
 5
  0
LINE
  8
0
  6
DOT
 62
     3
 10
 48
 20
 1.7000000000000028
 11
 54
 21
 1.7000000000000028
  0
LINE
  8
0
  6
DOT
 62
     3
 10
 54
 20
 1.7000000000000028
 11
 51.000000000000014
 21
 5
  0
LINE
  8
0
  6
DOT
 62
     3
 10
 73
 20
 5
 11
 70
 21
 5
  0
LINE
  8
0
  6
DOT
 62
     3
 10
 73
 20
 1.7000000000000028
 11
 67
 21
 1.7000000000000028
  0
LINE
  8
0
  6
DOT
 62
     3
 10
 67
 20
 1.7000000000000028
 11
 70
 21
 5
  0
LINE
  8
0
  6
CONTINUOUS
 62
     3
 10
 68
 20
 8
 11
 68
 21
 3.5
  0
LINE
  8
0
  6
CONTINUOUS
 62
     3
 10
 67
 20
 2.5
 11
 54
 21
 2.5
  0
ARC
  8
0
  6
CONTINUOUS
 62
     3
 10
 54
 20
 3.5
 40
 1
 50
 180.00000307046903
 51
-90.000001535234532
  0
ARC
  8
0
  6
CONTINUOUS
 62
     3
 10
 67
 20
 3.5
 40
 1
 50
-90.000001535234532
 51
 0
  0
LINE
  8
0
  6
CONTINUOUS
 62
     3
 10
 53
 20
 3.5
 11
 53
 21
 8
  0
LINE
  8
0
  6
DOT
 62
     3
 10
 53
 20
 5
 11
 68
 21
 5
  0
TEXT
  8
0
  6
CONTINUOUS
 62
     7
 10
 62.505655391120797
 20
-14.106236786469243
 11
 64.605655391120791
 21
-14.106236786469243
 40
 1
 41
 0.8
  1
－０
 50
 0
 72
  5
  0
LINE
  8
256
  6
CONTINUOUS
 62
     7
 10
-193.30000000000001
 20
 124.99999645625348
 11
-93.300000000000011
 21
 124.99999645625348
  0
LINE
  8
256
  6
CONTINUOUS
 62
     7
 10
-93.300000000000011
 20
 124.9999964562535
 11
-93.300000000000011
 21
 136.99999721136808
  0
TEXT
  8
256
  6
CONTINUOUS
 62
     7
 10
-188.30000000000001
 20
 127.99999604817611
 11
-134.30000000000001
 21
 127.99999604817611
 40
 6
 41
 1
  1
ＬＢ－Ｄ９３２０Ａ
 50
 0
 72
  5
  0
LINE
  8
256
  6
CONTINUOUS
 62
     7
 10
 104.99998474121094
 20
-121.5
 11
 200
 21
-121.5
  0
LINE
  8
256
  6
CONTINUOUS
 62
     7
 10
 170.99998474121094
 20
-109.5
 11
 170.99998474121094
 21
-121.5
  0
TEXT
  8
256
  6
CONTINUOUS
 62
     7
 10
 112.5
 20
-134.25
 11
 142.5
 21
-134.25
 40
 6
 41
 1
  1
ＳＱ－ＣＰ
 50
 0
 72
  5
  0
TEXT
  8
256
  6
CONTINUOUS
 62
     7
 10
 125.99998474121094
 20
-119.75
 11
 149.99998474121094
 21
-119.75
 40
 5
 41
 0.8
  1
保護キャップ
 50
 0
 72
  5
  0
TEXT
  8
256
  6
CONTINUOUS
 62
     7
 10
 106.29998779296875
 20
-112.4499633789062
 11
 111.29998779296875
 21
-112.4499633789062
 40
 2.5
 41
 0.8
  1
品名
 50
 0
 72
  5
  0
TEXT
  8
256
  6
CONTINUOUS
 62
     7
 10
 106.29998779296875
 20
-124.45003051757811
 11
 111.29998779296875
 21
-124.45003051757811
 40
 2.5
 41
 0.8
  1
品番
 50
 0
 72
  5
  0
LINE
  8
256
  6
CONTINUOUS
 62
     7
 10
 104.99998474121094
 20
-139.5
 11
 104.99998474121094
 21
-109.5
  0
LINE
  8
256
  6
CONTINUOUS
 62
     7
 10
 104.99998474121094
 20
-109.5
 11
 200
 21
-109.5
  0
LINE
  8
256
  6
CONTINUOUS
 62
     7
 10
-193.30000000000001
 20
 136.99999721136808
 11
-193.30000000000001
 21
-139.49999999999994
  0
LINE
  8
256
  6
CONTINUOUS
 62
     7
 10
-193.30000000000001
 20
 136.99999721136808
 11
 200
 21
 136.99999721136808
  0
LINE
  8
256
  6
CONTINUOUS
 62
     7
 10
 200
 20
-139.5
 11
-193.30000000000001
 21
-139.49999999999994
  0
LINE
  8
256
  6
CONTINUOUS
 62
     7
 10
 200
 20
 136.99999721136808
 11
 200
 21
-139.5
  0
LINE
  8
0
  6
CONTINUOUS
 62
     7
 10
 0
 20
 10.5
 11
 0
 21
 13.960000000000001
  0
LINE
  8
0
  6
CONTINUOUS
 62
     7
 10
-10
 20
 10.500000000000007
 11
-10
 21
 13.960000000000001
  0
LINE
  8
0
  6
CONTINUOUS
 62
     7
 10
 0
 20
 13
 11
-10
 21
 13
  0
LINE
  8
0
  6
CONTINUOUS
 62
     7
 10
 0
 20
 13
 11
-2.897777478867205
 21
 13.776457135307563
  0
LINE
  8
0
  6
CONTINUOUS
 62
     7
 10
 0
 20
 13
 11
-2.897777478867205
 21
 12.223542864692437
  0
LINE
  8
0
  6
CONTINUOUS
 62
     7
 10
-10
 20
 13
 11
-7.102222521132795
 21
 12.223542864692437
  0
LINE
  8
0
  6
CONTINUOUS
 62
     7
 10
-10
 20
 13
 11
-7.102222521132795
 21
 13.776457135307563
  0
TEXT
  8
0
  6
CONTINUOUS
 62
     7
 10
-6.8499999999999899
 20
 13.960000000000001
 11
-3.1499999999999897
 21
 13.960000000000001
 40
 2
 41
 0.8
  1
10
 50
 0
 72
  5
  0
LINE
  8
0
  6
CONTINUOUS
 62
     7
 10
 10
 20
 10.5
 11
 10
 21
 13.960000000000001
  0
LINE
  8
0
  6
CONTINUOUS
 62
     7
 10
 10
 20
 13
 11
 0
 21
 13
  0
LINE
  8
0
  6
CONTINUOUS
 62
     7
 10
 10
 20
 13
 11
 7.102222521132795
 21
 13.776457135307563
  0
LINE
  8
0
  6
CONTINUOUS
 62
     7
 10
 10
 20
 13
 11
 7.102222521132795
 21
 12.223542864692437
  0
LINE
  8
0
  6
CONTINUOUS
 62
     7
 10
 0
 20
 13
 11
 2.897777478867205
 21
 12.223542864692437
  0
LINE
  8
0
  6
CONTINUOUS
 62
     7
 10
 0
 20
 13
 11
 2.897777478867205
 21
 13.776457135307563
  0
TEXT
  8
0
  6
CONTINUOUS
 62
     7
 10
 3.150000000000003
 20
 13.960000000000001
 11
 6.8500000000000032
 21
 13.960000000000001
 40
 2
 41
 0.8
  1
10
 50
 0
 72
  5
  0
LINE
  8
0
  6
CONTINUOUS
 62
     7
 10
 14.999999999999993
 20
 9.5
 11
 14.999999999999993
 21
 13.960000000000001
  0
LINE
  8
0
  6
CONTINUOUS
 62
     7
 10
 14.999999999999993
 20
 13
 11
 10
 21
 13
  0
LINE
  8
0
  6
CONTINUOUS
 62
     7
 10
 14.999999999999993
 20
 13
 11
 12.102222521132788
 21
 13.776457135307563
  0
LINE
  8
0
  6
CONTINUOUS
 62
     7
 10
 14.999999999999993
 20
 13
 11
 12.102222521132788
 21
 12.223542864692437
  0
LINE
  8
0
  6
CONTINUOUS
 62
     7
 10
 10
 20
 13
 11
 12.897777478867205
 21
 12.223542864692437
  0
LINE
  8
0
  6
CONTINUOUS
 62
     7
 10
 10
 20
 13
 11
 12.897777478867205
 21
 13.776457135307563
  0
TEXT
  8
0
  6
CONTINUOUS
 62
     7
 10
 11.699999999999999
 20
 13.960000000000001
 11
 13.299999999999999
 21
 13.960000000000001
 40
 2
 41
 0.8
  1
5
 50
 0
 72
  5
  0
LINE
  8
0
  6
CONTINUOUS
 62
     7
 10
 16.499999999999986
 20
 8
 11
 19.959999999999987
 21
 8
  0
LINE
  8
0
  6
CONTINUOUS
 62
     7
 10
 16.499999999999986
 20
 2.5
 11
 19.959999999999987
 21
 2.5
  0
LINE
  8
0
  6
CONTINUOUS
 62
     7
 10
 18.999999999999986
 20
 8
 11
 18.999999999999986
 21
 2.5
  0
TEXT
  8
0
  6
CONTINUOUS
 62
     7
 10
 18.039999999999985
 20
-4.9000000000000021
 11
 18.039999999999985
 21
 0.8999999999999986
 40
 2
 41
 0.8
  1
5.5
 50
 90.000001535234517
 72
  5
  0
LINE
  8
0
  6
CONTINUOUS
 62
     7
 10
 18.999999999999986
 20
-6.5
 11
 18.999999999999986
 21
 2.5
  0
LINE
  8
0
  6
CONTINUOUS
 62
     7
 10
 18.999999999999986
 20
 2.5
 11
 18.223542864692423
 21
-0.3977774788672051
  0
LINE
  8
0
  6
CONTINUOUS
 62
     7
 10
 18.999999999999986
 20
 2.5
 11
 19.776457135307549
 21
-0.3977774788672051
  0
LINE
  8
0
  6
CONTINUOUS
 62
     7
 10
 18.999999999999986
 20
 15.68
 11
 18.999999999999986
 21
 8
  0
LINE
  8
0
  6
CONTINUOUS
 62
     7
 10
 18.999999999999986
 20
 8
 11
 19.776457135307549
 21
 10.897777478867205
  0
LINE
  8
0
  6
CONTINUOUS
 62
     7
 10
 18.999999999999986
 20
 8
 11
 18.223542864692423
 21
 10.897777478867205
  0
LINE
  8
0
  6
CONTINUOUS
 62
     7
 10
-12.5
 20
 8
 11
-25.959999999999994
 21
 8
  0
LINE
  8
0
  6
CONTINUOUS
 62
     7
 10
-12.5
 20
-10.5
 11
-25.959999999999994
 21
-10.5
  0
LINE
  8
0
  6
CONTINUOUS
 62
     7
 10
-25
 20
 8
 11
-25
 21
-10.5
  0
LINE
  8
0
  6
CONTINUOUS
 62
     7
 10
-25
 20
 8
 11
-25.776457135307563
 21
 5.102222521132795
  0
LINE
  8
0
  6
CONTINUOUS
 62
     7
 10
-25
 20
 8
 11
-24.223542864692437
 21
 5.102222521132795
  0
LINE
  8
0
  6
CONTINUOUS
 62
     7
 10
-25
 20
-10.5
 11
-24.223542864692437
 21
-7.602222521132795
  0
LINE
  8
0
  6
CONTINUOUS
 62
     7
 10
-25
 20
-10.5
 11
-25.776457135307563
 21
-7.602222521132795
  0
TEXT
  8
0
  6
CONTINUOUS
 62
     7
 10
-25.959999999999994
 20
-5.1999999999999993
 11
-25.959999999999994
 21
 2.6999999999999993
 40
 2
 41
 0.8
  1
18.5
 50
 90.000001535234517
 72
  5
  0
LINE
  8
0
  6
CONTINUOUS
 62
     7
 10
-12.5
 20
 5
 11
-20.959999999999994
 21
 5
  0
LINE
  8
0
  6
CONTINUOUS
 62
     7
 10
-12.5
 20
-7.2999999999999972
 11
-20.959999999999994
 21
-7.2999999999999972
  0
LINE
  8
0
  6
CONTINUOUS
 62
     7
 10
-20
 20
 5
 11
-20
 21
-7.2999999999999972
  0
LINE
  8
0
  6
CONTINUOUS
 62
     7
 10
-20
 20
 5
 11
-20.776457135307563
 21
 2.102222521132795
  0
LINE
  8
0
  6
CONTINUOUS
 62
     7
 10
-20
 20
 5
 11
-19.223542864692437
 21
 2.102222521132795
  0
LINE
  8
0
  6
CONTINUOUS
 62
     7
 10
-20
 20
-7.2999999999999972
 11
-19.223542864692437
 21
-4.4022225211327921
  0
LINE
  8
0
  6
CONTINUOUS
 62
     7
 10
-20
 20
-7.2999999999999972
 11
-20.776457135307563
 21
-4.4022225211327921
  0
TEXT
  8
0
  6
CONTINUOUS
 62
     7
 10
-20.959999999999994
 20
-5.0999999999999979
 11
-20.959999999999994
 21
 2.8000000000000025
 40
 2
 41
 0.8
  1
12.3
 50
 90.000001535234517
 72
  5
  0
LINE
  8
0
  6
CONTINUOUS
 62
     7
 10
-10
 20
-12.999999999999996
 11
-10
 21
-25.460000000000001
  0
LINE
  8
0
  6
CONTINUOUS
 62
     7
 10
 10
 20
-12.999999999999996
 11
 10
 21
-25.460000000000001
  0
LINE
  8
0
  6
CONTINUOUS
 62
     7
 10
-10
 20
-24.499999999999996
 11
 10
 21
-24.499999999999996
  0
LINE
  8
0
  6
CONTINUOUS
 62
     7
 10
-10
 20
-24.499999999999996
 11
-7.102222521132795
 21
-25.27645713530756
  0
LINE
  8
0
  6
CONTINUOUS
 62
     7
 10
-10
 20
-24.499999999999996
 11
-7.102222521132795
 21
-23.723542864692433
  0
LINE
  8
0
  6
CONTINUOUS
 62
     7
 10
 10
 20
-24.499999999999996
 11
 7.102222521132795
 21
-23.723542864692433
  0
LINE
  8
0
  6
CONTINUOUS
 62
     7
 10
 10
 20
-24.499999999999996
 11
 7.102222521132795
 21
-25.27645713530756
  0
TEXT
  8
0
  6
CONTINUOUS
 62
     7
 10
-1.8499999999999972
 20
-23.539999999999996
 11
 1.8500000000000032
 21
-23.539999999999996
 40
 2
 41
 0.8
  1
20
 50
 0
 72
  5
  0
LINE
  8
0
  6
CONTINUOUS
 62
     7
 10
-1
 20
-12.999999999999996
 11
-1
 21
-18.960000000000004
  0
LINE
  8
0
  6
CONTINUOUS
 62
     7
 10
-10
 20
-18
 11
-1
 21
-18
  0
LINE
  8
0
  6
CONTINUOUS
 62
     7
 10
-10
 20
-18
 11
-7.102222521132795
 21
-18.776457135307563
  0
LINE
  8
0
  6
CONTINUOUS
 62
     7
 10
-10
 20
-18
 11
-7.102222521132795
 21
-17.223542864692437
  0
LINE
  8
0
  6
CONTINUOUS
 62
     7
 10
-1
 20
-18
 11
-3.897777478867205
 21
-17.223542864692437
  0
LINE
  8
0
  6
CONTINUOUS
 62
     7
 10
-1
 20
-18
 11
-3.897777478867205
 21
-18.776457135307563
  0
TEXT
  8
0
  6
CONTINUOUS
 62
     7
 10
-6.2999999999999998
 20
-17.039999999999999
 11
-4.7000000000000002
 21
-17.039999999999999
 40
 2
 41
 0.8
  1
9
 50
 0
 72
  5
  0
LINE
  8
0
  6
CONTINUOUS
 62
     7
 10
-1
 20
-18
 11
 10
 21
-18
  0
LINE
  8
0
  6
CONTINUOUS
 62
     7
 10
-1
 20
-18
 11
 1.897777478867205
 21
-18.776457135307563
  0
LINE
  8
0
  6
CONTINUOUS
 62
     7
 10
-1
 20
-18
 11
 1.897777478867205
 21
-17.223542864692437
  0
LINE
  8
0
  6
CONTINUOUS
 62
     7
 10
 10
 20
-18
 11
 7.102222521132795
 21
-17.223542864692437
  0
LINE
  8
0
  6
CONTINUOUS
 62
     7
 10
 10
 20
-18
 11
 7.102222521132795
 21
-18.776457135307563
  0
TEXT
  8
0
  6
CONTINUOUS
 62
     7
 10
 2.650000000000003
 20
-17.039999999999999
 11
 6.3500000000000032
 21
-17.039999999999999
 40
 2
 41
 0.8
  1
11
 50
 0
 72
  5
  0
LINE
  8
0
  6
CONTINUOUS
 62
     7
 10
 14.999999999999993
 20
 10
 11
 14.999999999999993
 21
 18.960000000000001
  0
LINE
  8
0
  6
CONTINUOUS
 62
     7
 10
-10
 20
 11.000000000000007
 11
-10
 21
 18.960000000000001
  0
LINE
  8
0
  6
CONTINUOUS
 62
     7
 10
 14.999999999999993
 20
 18
 11
-10
 21
 18
  0
LINE
  8
0
  6
CONTINUOUS
 62
     7
 10
 14.999999999999993
 20
 18
 11
 12.102222521132788
 21
 18.776457135307563
  0
LINE
  8
0
  6
CONTINUOUS
 62
     7
 10
 14.999999999999993
 20
 18
 11
 12.102222521132788
 21
 17.223542864692437
  0
LINE
  8
0
  6
CONTINUOUS
 62
     7
 10
-10
 20
 18
 11
-7.102222521132795
 21
 17.223542864692437
  0
LINE
  8
0
  6
CONTINUOUS
 62
     7
 10
-10
 20
 18
 11
-7.102222521132795
 21
 18.776457135307563
  0
TEXT
  8
0
  6
CONTINUOUS
 62
     7
 10
 0.6500000000000028
 20
 18.960000000000001
 11
 4.3500000000000032
 21
 18.960000000000001
 40
 2
 41
 0.8
  1
25
 50
 0
 72
  5
  0
LINE
  8
0
  6
CONTINUOUS
 62
     7
 10
 12.5
 20
 73
 11
 20.960000000000001
 21
 73
  0
LINE
  8
0
  6
CONTINUOUS
 62
     7
 10
 17.499999999999986
 20
 65.5
 11
 20.960000000000001
 21
 65.5
  0
LINE
  8
0
  6
CONTINUOUS
 62
     7
 10
 20
 20
 73
 11
 20
 21
 65.5
  0
LINE
  8
0
  6
CONTINUOUS
 62
     7
 10
 20
 20
 73
 11
 19.223542864692437
 21
 70.102222521132802
  0
LINE
  8
0
  6
CONTINUOUS
 62
     7
 10
 20
 20
 73
 11
 20.776457135307563
 21
 70.102222521132802
  0
LINE
  8
0
  6
CONTINUOUS
 62
     7
 10
 20
 20
 65.5
 11
 20.776457135307563
 21
 68.397777478867198
  0
LINE
  8
0
  6
CONTINUOUS
 62
     7
 10
 20
 20
 65.5
 11
 19.223542864692437
 21
 68.397777478867198
  0
TEXT
  8
0
  6
CONTINUOUS
 62
     7
 10
 19.039999999999999
 20
 66.350000000000009
 11
 19.039999999999999
 21
 72.150000000000006
 40
 2
 41
 0.8
  1
7.5
 50
 90.000001535234517
 72
  5
  0
LINE
  8
0
  6
CONTINUOUS
 62
     7
 10
 12.5
 20
 42.999999999999993
 11
 20.960000000000001
 21
 42.999999999999993
  0
LINE
  8
0
  6
CONTINUOUS
 62
     7
 10
 17.499999999999986
 20
 50.499999999999993
 11
 20.960000000000001
 21
 50.499999999999993
  0
LINE
  8
0
  6
CONTINUOUS
 62
     7
 10
 20
 20
 42.999999999999993
 11
 20
 21
 50.499999999999993
  0
LINE
  8
0
  6
CONTINUOUS
 62
     7
 10
 20
 20
 42.999999999999993
 11
 20.776457135307563
 21
 45.897777478867198
  0
LINE
  8
0
  6
CONTINUOUS
 62
     7
 10
 20
 20
 42.999999999999993
 11
 19.223542864692437
 21
 45.897777478867198
  0
LINE
  8
0
  6
CONTINUOUS
 62
     7
 10
 20
 20
 50.499999999999993
 11
 19.223542864692437
 21
 47.602222521132788
  0
LINE
  8
0
  6
CONTINUOUS
 62
     7
 10
 20
 20
 50.499999999999993
 11
 20.776457135307563
 21
 47.602222521132788
  0
TEXT
  8
0
  6
CONTINUOUS
 62
     7
 10
 19.039999999999999
 20
 43.850000000000001
 11
 19.039999999999999
 21
 49.649999999999999
 40
 2
 41
 0.8
  1
7.5
 50
 90.000001535234517
 72
  5
  0
LINE
  8
0
  6
CONTINUOUS
 62
     7
 10
 20
 20
 50.499999999999993
 11
 20
 21
 65.5
  0
LINE
  8
0
  6
CONTINUOUS
 62
     7
 10
 20
 20
 50.499999999999993
 11
 20.776457135307563
 21
 53.397777478867198
  0
LINE
  8
0
  6
CONTINUOUS
 62
     7
 10
 20
 20
 50.499999999999993
 11
 19.223542864692437
 21
 53.397777478867198
  0
LINE
  8
0
  6
CONTINUOUS
 62
     7
 10
 20
 20
 65.5
 11
 19.223542864692437
 21
 62.602222521132795
  0
LINE
  8
0
  6
CONTINUOUS
 62
     7
 10
 20
 20
 65.5
 11
 20.776457135307563
 21
 62.602222521132795
  0
TEXT
  8
0
  6
CONTINUOUS
 62
     7
 10
 19.039999999999999
 20
 56.149999999999999
 11
 19.039999999999999
 21
 59.849999999999994
 40
 2
 41
 0.8
  1
15
 50
 90.000001535234517
 72
  5
  0
LINE
  8
0
  6
CONTINUOUS
 62
     7
 10
-9.7500000000000142
 20
-51.75
 11
-20.210000000000008
 21
-51.75
  0
LINE
  8
0
  6
CONTINUOUS
 62
     7
 10
-9.7500000000000142
 20
-71.250000000000014
 11
-20.210000000000008
 21
-71.250000000000014
  0
LINE
  8
0
  6
CONTINUOUS
 62
     7
 10
-19.250000000000014
 20
-51.75
 11
-19.250000000000014
 21
-71.250000000000014
  0
LINE
  8
0
  6
CONTINUOUS
 62
     7
 10
-19.250000000000014
 20
-51.75
 11
-20.026457135307577
 21
-54.647777478867205
  0
LINE
  8
0
  6
CONTINUOUS
 62
     7
 10
-19.250000000000014
 20
-51.75
 11
-18.473542864692451
 21
-54.647777478867205
  0
LINE
  8
0
  6
CONTINUOUS
 62
     7
 10
-19.250000000000014
 20
-71.250000000000014
 11
-18.473542864692451
 21
-68.352222521132802
  0
LINE
  8
0
  6
CONTINUOUS
 62
     7
 10
-19.250000000000014
 20
-71.250000000000014
 11
-20.026457135307577
 21
-68.352222521132802
  0
TEXT
  8
0
  6
CONTINUOUS
 62
     7
 10
-20.210000000000008
 20
-65.450000000000003
 11
-20.210000000000008
 21
-57.550000000000004
 40
 2
 41
 0.8
  1
19.5
 50
 90.000001535234517
 72
  5
  0
LINE
  8
0
  6
CONTINUOUS
 62
     7
 10
-7.2500000000000071
 20
-73.750000000000014
 11
-7.2500000000000071
 21
-87.460000000000008
  0
LINE
  8
0
  6
CONTINUOUS
 62
     7
 10
 7.2499999999999929
 20
-73.750000000000014
 11
 7.2499999999999929
 21
-87.460000000000008
  0
LINE
  8
0
  6
CONTINUOUS
 62
     7
 10
-7.2500000000000071
 20
-86.5
 11
 7.2499999999999929
 21
-86.5
  0
LINE
  8
0
  6
CONTINUOUS
 62
     7
 10
-7.2500000000000071
 20
-86.5
 11
-4.3522225211328021
 21
-87.276457135307567
  0
LINE
  8
0
  6
CONTINUOUS
 62
     7
 10
-7.2500000000000071
 20
-86.5
 11
-4.3522225211328021
 21
-85.723542864692433
  0
LINE
  8
0
  6
CONTINUOUS
 62
     7
 10
 7.2499999999999929
 20
-86.5
 11
 4.3522225211327878
 21
-85.723542864692433
  0
LINE
  8
0
  6
CONTINUOUS
 62
     7
 10
 7.2499999999999929
 20
-86.5
 11
 4.3522225211327878
 21
-87.276457135307567
  0
TEXT
  8
0
  6
CONTINUOUS
 62
     7
 10
-3.9500000000000055
 20
-85.540000000000006
 11
 3.9499999999999948
 21
-85.540000000000006
 40
 2
 41
 0.8
  1
14.5
 50
 0
 72
  5
  0
LINE
  8
0
  6
CONTINUOUS
 62
     7
 10
-75.000000000000014
 20
 10.5
 11
-75.000000000000014
 21
 18.960000000000001
  0
LINE
  8
0
  6
CONTINUOUS
 62
     7
 10
-45
 20
 10.5
 11
-45
 21
 18.960000000000001
  0
LINE
  8
0
  6
CONTINUOUS
 62
     7
 10
-75.000000000000014
 20
 18
 11
-45
 21
 18
  0
LINE
  8
0
  6
CONTINUOUS
 62
     7
 10
-75.000000000000014
 20
 18
 11
-72.102222521132802
 21
 17.223542864692437
  0
LINE
  8
0
  6
CONTINUOUS
 62
     7
 10
-75.000000000000014
 20
 18
 11
-72.102222521132802
 21
 18.776457135307563
  0
LINE
  8
0
  6
CONTINUOUS
 62
     7
 10
-45
 20
 18
 11
-47.897777478867205
 21
 18.776457135307563
  0
LINE
  8
0
  6
CONTINUOUS
 62
     7
 10
-45
 20
 18
 11
-47.897777478867205
 21
 17.223542864692437
  0
TEXT
  8
0
  6
CONTINUOUS
 62
     7
 10
-61.84999999999998
 20
 18.960000000000001
 11
-58.149999999999977
 21
 18.960000000000001
 40
 2
 41
 0.8
  1
30
 50
 0
 72
  5
  0
LINE
  8
0
  6
CONTINUOUS
 62
     7
 10
-72.500000000000014
 20
 10.5
 11
-72.500000000000014
 21
 13.960000000000001
  0
LINE
  8
0
  6
CONTINUOUS
 62
     7
 10
-47.5
 20
 10.5
 11
-47.5
 21
 13.960000000000001
  0
LINE
  8
0
  6
CONTINUOUS
 62
     7
 10
-72.500000000000014
 20
 13
 11
-47.5
 21
 13
  0
LINE
  8
0
  6
CONTINUOUS
 62
     7
 10
-72.500000000000014
 20
 13
 11
-69.602222521132802
 21
 12.223542864692437
  0
LINE
  8
0
  6
CONTINUOUS
 62
     7
 10
-72.500000000000014
 20
 13
 11
-69.602222521132802
 21
 13.776457135307563
  0
LINE
  8
0
  6
CONTINUOUS
 62
     7
 10
-47.5
 20
 13
 11
-50.397777478867205
 21
 13.776457135307563
  0
LINE
  8
0
  6
CONTINUOUS
 62
     7
 10
-47.5
 20
 13
 11
-50.397777478867205
 21
 12.223542864692437
  0
TEXT
  8
0
  6
CONTINUOUS
 62
     7
 10
-61.84999999999998
 20
 13.960000000000001
 11
-58.149999999999977
 21
 13.960000000000001
 40
 2
 41
 0.8
  1
25
 50
 0
 72
  5
  0
LINE
  8
0
  6
CONTINUOUS
 62
     7
 10
 75.5
 20
-4
 11
 81.959999999999994
 21
-4
  0
LINE
  8
0
  6
CONTINUOUS
 62
     7
 10
 78
 20
-10.5
 11
 81.959999999999994
 21
-10.5
  0
LINE
  8
0
  6
CONTINUOUS
 62
     7
 10
 81
 20
-4
 11
 81
 21
-10.5
  0
LINE
  8
0
  6
CONTINUOUS
 62
     7
 10
 81
 20
-4
 11
 80.223542864692433
 21
-6.897777478867205
  0
LINE
  8
0
  6
CONTINUOUS
 62
     7
 10
 81
 20
-4
 11
 81.776457135307567
 21
-6.897777478867205
  0
LINE
  8
0
  6
CONTINUOUS
 62
     7
 10
 81
 20
-10.5
 11
 81.776457135307567
 21
-7.602222521132795
  0
LINE
  8
0
  6
CONTINUOUS
 62
     7
 10
 81
 20
-10.5
 11
 80.223542864692433
 21
-7.602222521132795
  0
TEXT
  8
0
  6
CONTINUOUS
 62
     7
 10
 80.039999999999992
 20
-10.149999999999999
 11
 80.039999999999992
 21
-4.3500000000000014
 40
 2
 41
 0.8
  1
6.5
 50
 90.000001535234517
 72
  5
  0
LINE
  8
0
  6
CONTINUOUS
 62
     7
 10
 75.5
 20
 0
 11
 81.959999999999994
 21
 0
  0
LINE
  8
0
  6
CONTINUOUS
 62
     7
 10
 78
 20
 8
 11
 81.959999999999994
 21
 8
  0
LINE
  8
0
  6
CONTINUOUS
 62
     7
 10
 81
 20
 0
 11
 81
 21
 8
  0
LINE
  8
0
  6
CONTINUOUS
 62
     7
 10
 81
 20
 0
 11
 81.776457135307567
 21
 2.897777478867205
  0
LINE
  8
0
  6
CONTINUOUS
 62
     7
 10
 81
 20
 0
 11
 80.223542864692433
 21
 2.897777478867205
  0
LINE
  8
0
  6
CONTINUOUS
 62
     7
 10
 81
 20
 8
 11
 80.223542864692433
 21
 5.102222521132795
  0
LINE
  8
0
  6
CONTINUOUS
 62
     7
 10
 81
 20
 8
 11
 81.776457135307567
 21
 5.102222521132795
  0
TEXT
  8
0
  6
CONTINUOUS
 62
     7
 10
 80.039999999999992
 20
 3.2000000000000028
 11
 80.039999999999992
 21
 4.7999999999999972
 40
 2
 41
 0.8
  1
8
 50
 90.000001535234517
 72
  5
  0
LINE
  8
0
  6
CONTINUOUS
 62
     7
 10
 81
 20
 0
 11
 81
 21
-4
  0
LINE
  8
0
  6
CONTINUOUS
 62
     7
 10
 81
 20
 0
 11
 80.223542864692433
 21
-2.897777478867205
  0
LINE
  8
0
  6
CONTINUOUS
 62
     7
 10
 81
 20
 0
 11
 81.776457135307567
 21
-2.897777478867205
  0
LINE
  8
0
  6
CONTINUOUS
 62
     7
 10
 81
 20
-4
 11
 81.776457135307567
 21
-1.102222521132795
  0
LINE
  8
0
  6
CONTINUOUS
 62
     7
 10
 81
 20
-4
 11
 80.223542864692433
 21
-1.102222521132795
  0
TEXT
  8
0
  6
CONTINUOUS
 62
     7
 10
 80.039999999999992
 20
-2.7999999999999972
 11
 80.039999999999992
 21
-1.2000000000000028
 40
 2
 41
 0.8
  1
4
 50
 90.000001535234517
 72
  5
  0
LINE
  8
0
  6
CONTINUOUS
 62
     7
 10
 51.499999999999993
 20
-6.5
 11
 51.499999999999993
 21
-17.459999999999997
  0
LINE
  8
0
  6
CONTINUOUS
 62
     7
 10
 69.5
 20
-6.5
 11
 69.5
 21
-17.459999999999997
  0
LINE
  8
0
  6
CONTINUOUS
 62
     7
 10
 51.499999999999993
 20
-16.499999999999996
 11
 69.5
 21
-16.499999999999996
  0
LINE
  8
0
  6
CONTINUOUS
 62
     7
 10
 51.499999999999993
 20
-16.499999999999996
 11
 54.397777478867198
 21
-17.27645713530756
  0
LINE
  8
0
  6
CONTINUOUS
 62
     7
 10
 51.499999999999993
 20
-16.499999999999996
 11
 54.397777478867198
 21
-15.723542864692433
  0
LINE
  8
0
  6
CONTINUOUS
 62
     7
 10
 69.5
 20
-16.499999999999996
 11
 66.602222521132802
 21
-15.723542864692433
  0
LINE
  8
0
  6
CONTINUOUS
 62
     7
 10
 69.5
 20
-16.499999999999996
 11
 66.602222521132802
 21
-17.27645713530756
  0
TEXT
  8
0
  6
CONTINUOUS
 62
     7
 10
 58.649999999999999
 20
-15.539999999999996
 11
 62.350000000000001
 21
-15.539999999999996
 40
 2
 41
 0.8
  1
18
 50
 0
 72
  5
  0
ENDSEC
  0
EOF
