  0
SECTION
  2
HEADER
  9
$INSBASE
 10
0.0
20
0.0
  9
$REGENMODE
 70
     1
  9
$DRAGMODE
 70
     1
  9
$DIMTAD
 70
     1
  9
$EXTMIN
 10
-210.000000
 20
-148.500000
 30
 0.0
  9
$EXTMAX
 10
210.000000
 20
148.500000
 30
 0.0
  9
$LUPREC
 70
    3
  9
$AUPREC
 70
    3
  9
$LTSCALE
 40
26.250000
  0
ENDSEC
  0
SECTION
  2
TABLES
  0
TABLE
  2
LTYPE
 70
     6
  0
LTYPE
  2
CONTINUOUS
 70
    64
  3
SOLID
 72
    65
 73
     0
 40
0.0
  0
LTYPE
  2
DASHED2
 70
    64
  3
_ _ _ _ _ _ _ _ _ _ _ _ _ _ _ _ _ _ _ _ _ _ 
 72
    65
 73
     2
 40
0.5
 49
0.25
 49
-0.25
  0
LTYPE
  2
DASHED
 70
    64
  3
__ __ __ __ __ __ __ __ __ __ __ __ __ __ __
 72
    65
 73
     2
 40
0.75
 49
0.5
 49
-0.25
  0
LTYPE
  2
DASHEDX2
 70
    64
  3
____  ____  ____  ____  ____  ____  ____  __
 72
    65
 73
     2
 40
1.5
 49
1.0
 49
-0.5
  0
LTYPE
  2
DOT
 70
    64
  3
............................................
 72
    65
 73
     2
 40
0.25
 49
0
 49
-0.25
  0
LTYPE
  2
DASHDOT
 70
    64
  3
__ . __ . __ . __ . __ . __ . __ . __ . __ .
 72
    65
 73
     4
 40
1.0
 49
0.5
 49
-0.25
 49
0.0
 49
-0.25
  0
LTYPE
  2
CENTER
 70
    64
  3
____ _ ____ _ ____ _ ____ _ ____ _ ____ _ __
 72
    65
 73
     4
 40
2.0
 49
1.25
 49
-0.25
 49
0.25
 49
-0.25
  0
LTYPE
  2
DIVIDE
 70
    64
  3
__ . . __ . . __ . . __ . . __ . . __ . . __
 72
    65
 73
     6
 40
1.25
 49
0.5
 49
-0.25
 49
0.0
 49
-0.25
 49
0.0
 49
-0.25
  0
LTYPE
  2
PHANTOM2
 70
    64
  3
___ _ _ ___ _ _ ___ _ _ ___ _ _ ___ _ _ ___ 
 72
    65
 73
     6
 40
1.25
 49
0.625
 49
-0.125
 49
0.125
 49
-0.125
 49
0.125
 49
-0.125
  0
LTYPE
  2
DOTX2
 70
    64
  3
. . . . . . . . . . . . . . . . . . . . . . 
 72
    65
 73
     2
 40
0.5
 49
0
 49
-0.5
  0
ENDTAB
  0
TABLE
  2
LAYER
 70
   255
  0
LAYER
  2
0
 70
    64
 62
     7
  6
CONTINUOUS
  0
LAYER
  2
1
 70
    64
 62
     7
  6
CONTINUOUS
  0
LAYER
  2
2
 70
    64
 62
     7
  6
CONTINUOUS
  0
LAYER
  2
3
 70
    64
 62
     7
  6
CONTINUOUS
  0
LAYER
  2
4
 70
    64
 62
     7
  6
CONTINUOUS
  0
LAYER
  2
5
 70
    64
 62
     7
  6
CONTINUOUS
  0
LAYER
  2
6
 70
    64
 62
     7
  6
CONTINUOUS
  0
LAYER
  2
7
 70
    64
 62
     7
  6
CONTINUOUS
  0
LAYER
  2
8
 70
    64
 62
     7
  6
CONTINUOUS
  0
LAYER
  2
9
 70
    64
 62
     7
  6
CONTINUOUS
  0
LAYER
  2
10
 70
    64
 62
     7
  6
CONTINUOUS
  0
LAYER
  2
11
 70
    64
 62
     7
  6
CONTINUOUS
  0
LAYER
  2
12
 70
    64
 62
     7
  6
CONTINUOUS
  0
LAYER
  2
13
 70
    64
 62
     7
  6
CONTINUOUS
  0
LAYER
  2
14
 70
    64
 62
     7
  6
CONTINUOUS
  0
LAYER
  2
15
 70
    64
 62
     7
  6
CONTINUOUS
  0
LAYER
  2
16
 70
    64
 62
     7
  6
CONTINUOUS
  0
LAYER
  2
17
 70
    64
 62
     7
  6
CONTINUOUS
  0
LAYER
  2
18
 70
    64
 62
     7
  6
CONTINUOUS
  0
LAYER
  2
19
 70
    64
 62
     7
  6
CONTINUOUS
  0
LAYER
  2
20
 70
    64
 62
     7
  6
CONTINUOUS
  0
LAYER
  2
21
 70
    64
 62
     7
  6
CONTINUOUS
  0
LAYER
  2
22
 70
    64
 62
     7
  6
CONTINUOUS
  0
LAYER
  2
23
 70
    64
 62
     7
  6
CONTINUOUS
  0
LAYER
  2
24
 70
    64
 62
     7
  6
CONTINUOUS
  0
LAYER
  2
25
 70
    64
 62
     7
  6
CONTINUOUS
  0
LAYER
  2
26
 70
    64
 62
     7
  6
CONTINUOUS
  0
LAYER
  2
27
 70
    64
 62
     7
  6
CONTINUOUS
  0
LAYER
  2
28
 70
    64
 62
     7
  6
CONTINUOUS
  0
LAYER
  2
29
 70
    64
 62
     7
  6
CONTINUOUS
  0
LAYER
  2
30
 70
    64
 62
     7
  6
CONTINUOUS
  0
LAYER
  2
31
 70
    64
 62
     7
  6
CONTINUOUS
  0
LAYER
  2
32
 70
    64
 62
     7
  6
CONTINUOUS
  0
LAYER
  2
33
 70
    64
 62
     7
  6
CONTINUOUS
  0
LAYER
  2
34
 70
    64
 62
     7
  6
CONTINUOUS
  0
LAYER
  2
35
 70
    64
 62
     7
  6
CONTINUOUS
  0
LAYER
  2
36
 70
    64
 62
     7
  6
CONTINUOUS
  0
LAYER
  2
37
 70
    64
 62
     7
  6
CONTINUOUS
  0
LAYER
  2
38
 70
    64
 62
     7
  6
CONTINUOUS
  0
LAYER
  2
39
 70
    64
 62
     7
  6
CONTINUOUS
  0
LAYER
  2
40
 70
    64
 62
     7
  6
CONTINUOUS
  0
LAYER
  2
41
 70
    64
 62
     7
  6
CONTINUOUS
  0
LAYER
  2
42
 70
    64
 62
     7
  6
CONTINUOUS
  0
LAYER
  2
43
 70
    64
 62
     7
  6
CONTINUOUS
  0
LAYER
  2
44
 70
    64
 62
     7
  6
CONTINUOUS
  0
LAYER
  2
45
 70
    64
 62
     7
  6
CONTINUOUS
  0
LAYER
  2
46
 70
    64
 62
     7
  6
CONTINUOUS
  0
LAYER
  2
47
 70
    64
 62
     7
  6
CONTINUOUS
  0
LAYER
  2
48
 70
    64
 62
     7
  6
CONTINUOUS
  0
LAYER
  2
49
 70
    64
 62
     7
  6
CONTINUOUS
  0
LAYER
  2
50
 70
    64
 62
     7
  6
CONTINUOUS
  0
LAYER
  2
51
 70
    64
 62
     7
  6
CONTINUOUS
  0
LAYER
  2
52
 70
    64
 62
     7
  6
CONTINUOUS
  0
LAYER
  2
53
 70
    64
 62
     7
  6
CONTINUOUS
  0
LAYER
  2
54
 70
    64
 62
     7
  6
CONTINUOUS
  0
LAYER
  2
55
 70
    64
 62
     7
  6
CONTINUOUS
  0
LAYER
  2
56
 70
    64
 62
     7
  6
CONTINUOUS
  0
LAYER
  2
57
 70
    64
 62
     7
  6
CONTINUOUS
  0
LAYER
  2
58
 70
    64
 62
     7
  6
CONTINUOUS
  0
LAYER
  2
59
 70
    64
 62
     7
  6
CONTINUOUS
  0
LAYER
  2
60
 70
    64
 62
     7
  6
CONTINUOUS
  0
LAYER
  2
61
 70
    64
 62
     7
  6
CONTINUOUS
  0
LAYER
  2
62
 70
    64
 62
     7
  6
CONTINUOUS
  0
LAYER
  2
63
 70
    64
 62
     7
  6
CONTINUOUS
  0
LAYER
  2
64
 70
    64
 62
     7
  6
CONTINUOUS
  0
LAYER
  2
65
 70
    64
 62
     7
  6
CONTINUOUS
  0
LAYER
  2
66
 70
    64
 62
     7
  6
CONTINUOUS
  0
LAYER
  2
67
 70
    64
 62
     7
  6
CONTINUOUS
  0
LAYER
  2
68
 70
    64
 62
     7
  6
CONTINUOUS
  0
LAYER
  2
69
 70
    64
 62
     7
  6
CONTINUOUS
  0
LAYER
  2
70
 70
    64
 62
     7
  6
CONTINUOUS
  0
LAYER
  2
71
 70
    64
 62
     7
  6
CONTINUOUS
  0
LAYER
  2
72
 70
    64
 62
     7
  6
CONTINUOUS
  0
LAYER
  2
73
 70
    64
 62
     7
  6
CONTINUOUS
  0
LAYER
  2
74
 70
    64
 62
     7
  6
CONTINUOUS
  0
LAYER
  2
75
 70
    64
 62
     7
  6
CONTINUOUS
  0
LAYER
  2
76
 70
    64
 62
     7
  6
CONTINUOUS
  0
LAYER
  2
77
 70
    64
 62
     7
  6
CONTINUOUS
  0
LAYER
  2
78
 70
    64
 62
     7
  6
CONTINUOUS
  0
LAYER
  2
79
 70
    64
 62
     7
  6
CONTINUOUS
  0
LAYER
  2
80
 70
    64
 62
     7
  6
CONTINUOUS
  0
LAYER
  2
81
 70
    64
 62
     7
  6
CONTINUOUS
  0
LAYER
  2
82
 70
    64
 62
     7
  6
CONTINUOUS
  0
LAYER
  2
83
 70
    64
 62
     7
  6
CONTINUOUS
  0
LAYER
  2
84
 70
    64
 62
     7
  6
CONTINUOUS
  0
LAYER
  2
85
 70
    64
 62
     7
  6
CONTINUOUS
  0
LAYER
  2
86
 70
    64
 62
     7
  6
CONTINUOUS
  0
LAYER
  2
87
 70
    64
 62
     7
  6
CONTINUOUS
  0
LAYER
  2
88
 70
    64
 62
     7
  6
CONTINUOUS
  0
LAYER
  2
89
 70
    64
 62
     7
  6
CONTINUOUS
  0
LAYER
  2
90
 70
    64
 62
     7
  6
CONTINUOUS
  0
LAYER
  2
91
 70
    64
 62
     7
  6
CONTINUOUS
  0
LAYER
  2
92
 70
    64
 62
     7
  6
CONTINUOUS
  0
LAYER
  2
93
 70
    64
 62
     7
  6
CONTINUOUS
  0
LAYER
  2
94
 70
    64
 62
     7
  6
CONTINUOUS
  0
LAYER
  2
95
 70
    64
 62
     7
  6
CONTINUOUS
  0
LAYER
  2
96
 70
    64
 62
     7
  6
CONTINUOUS
  0
LAYER
  2
97
 70
    64
 62
     7
  6
CONTINUOUS
  0
LAYER
  2
98
 70
    64
 62
     7
  6
CONTINUOUS
  0
LAYER
  2
99
 70
    64
 62
     7
  6
CONTINUOUS
  0
LAYER
  2
100
 70
    64
 62
     7
  6
CONTINUOUS
  0
LAYER
  2
101
 70
    64
 62
     7
  6
CONTINUOUS
  0
LAYER
  2
102
 70
    64
 62
     7
  6
CONTINUOUS
  0
LAYER
  2
103
 70
    64
 62
     7
  6
CONTINUOUS
  0
LAYER
  2
104
 70
    64
 62
     7
  6
CONTINUOUS
  0
LAYER
  2
105
 70
    64
 62
     7
  6
CONTINUOUS
  0
LAYER
  2
106
 70
    64
 62
     7
  6
CONTINUOUS
  0
LAYER
  2
107
 70
    64
 62
     7
  6
CONTINUOUS
  0
LAYER
  2
108
 70
    64
 62
     7
  6
CONTINUOUS
  0
LAYER
  2
109
 70
    64
 62
     7
  6
CONTINUOUS
  0
LAYER
  2
110
 70
    64
 62
     7
  6
CONTINUOUS
  0
LAYER
  2
111
 70
    64
 62
     7
  6
CONTINUOUS
  0
LAYER
  2
112
 70
    64
 62
     7
  6
CONTINUOUS
  0
LAYER
  2
113
 70
    64
 62
     7
  6
CONTINUOUS
  0
LAYER
  2
114
 70
    64
 62
     7
  6
CONTINUOUS
  0
LAYER
  2
115
 70
    64
 62
     7
  6
CONTINUOUS
  0
LAYER
  2
116
 70
    64
 62
     7
  6
CONTINUOUS
  0
LAYER
  2
117
 70
    64
 62
     7
  6
CONTINUOUS
  0
LAYER
  2
118
 70
    64
 62
     7
  6
CONTINUOUS
  0
LAYER
  2
119
 70
    64
 62
     7
  6
CONTINUOUS
  0
LAYER
  2
120
 70
    64
 62
     7
  6
CONTINUOUS
  0
LAYER
  2
121
 70
    64
 62
     7
  6
CONTINUOUS
  0
LAYER
  2
122
 70
    64
 62
     7
  6
CONTINUOUS
  0
LAYER
  2
123
 70
    64
 62
     7
  6
CONTINUOUS
  0
LAYER
  2
124
 70
    64
 62
     7
  6
CONTINUOUS
  0
LAYER
  2
125
 70
    64
 62
     7
  6
CONTINUOUS
  0
LAYER
  2
126
 70
    64
 62
     7
  6
CONTINUOUS
  0
LAYER
  2
127
 70
    64
 62
     7
  6
CONTINUOUS
  0
LAYER
  2
128
 70
    64
 62
     7
  6
CONTINUOUS
  0
LAYER
  2
129
 70
    64
 62
     7
  6
CONTINUOUS
  0
LAYER
  2
130
 70
    64
 62
     7
  6
CONTINUOUS
  0
LAYER
  2
131
 70
    64
 62
     7
  6
CONTINUOUS
  0
LAYER
  2
132
 70
    64
 62
     7
  6
CONTINUOUS
  0
LAYER
  2
133
 70
    64
 62
     7
  6
CONTINUOUS
  0
LAYER
  2
134
 70
    64
 62
     7
  6
CONTINUOUS
  0
LAYER
  2
135
 70
    64
 62
     7
  6
CONTINUOUS
  0
LAYER
  2
136
 70
    64
 62
     7
  6
CONTINUOUS
  0
LAYER
  2
137
 70
    64
 62
     7
  6
CONTINUOUS
  0
LAYER
  2
138
 70
    64
 62
     7
  6
CONTINUOUS
  0
LAYER
  2
139
 70
    64
 62
     7
  6
CONTINUOUS
  0
LAYER
  2
140
 70
    64
 62
     7
  6
CONTINUOUS
  0
LAYER
  2
141
 70
    64
 62
     7
  6
CONTINUOUS
  0
LAYER
  2
142
 70
    64
 62
     7
  6
CONTINUOUS
  0
LAYER
  2
143
 70
    64
 62
     7
  6
CONTINUOUS
  0
LAYER
  2
144
 70
    64
 62
     7
  6
CONTINUOUS
  0
LAYER
  2
145
 70
    64
 62
     7
  6
CONTINUOUS
  0
LAYER
  2
146
 70
    64
 62
     7
  6
CONTINUOUS
  0
LAYER
  2
147
 70
    64
 62
     7
  6
CONTINUOUS
  0
LAYER
  2
148
 70
    64
 62
     7
  6
CONTINUOUS
  0
LAYER
  2
149
 70
    64
 62
     7
  6
CONTINUOUS
  0
LAYER
  2
150
 70
    64
 62
     7
  6
CONTINUOUS
  0
LAYER
  2
151
 70
    64
 62
     7
  6
CONTINUOUS
  0
LAYER
  2
152
 70
    64
 62
     7
  6
CONTINUOUS
  0
LAYER
  2
153
 70
    64
 62
     7
  6
CONTINUOUS
  0
LAYER
  2
154
 70
    64
 62
     7
  6
CONTINUOUS
  0
LAYER
  2
155
 70
    64
 62
     7
  6
CONTINUOUS
  0
LAYER
  2
156
 70
    64
 62
     7
  6
CONTINUOUS
  0
LAYER
  2
157
 70
    64
 62
     7
  6
CONTINUOUS
  0
LAYER
  2
158
 70
    64
 62
     7
  6
CONTINUOUS
  0
LAYER
  2
159
 70
    64
 62
     7
  6
CONTINUOUS
  0
LAYER
  2
160
 70
    64
 62
     7
  6
CONTINUOUS
  0
LAYER
  2
161
 70
    64
 62
     7
  6
CONTINUOUS
  0
LAYER
  2
162
 70
    64
 62
     7
  6
CONTINUOUS
  0
LAYER
  2
163
 70
    64
 62
     7
  6
CONTINUOUS
  0
LAYER
  2
164
 70
    64
 62
     7
  6
CONTINUOUS
  0
LAYER
  2
165
 70
    64
 62
     7
  6
CONTINUOUS
  0
LAYER
  2
166
 70
    64
 62
     7
  6
CONTINUOUS
  0
LAYER
  2
167
 70
    64
 62
     7
  6
CONTINUOUS
  0
LAYER
  2
168
 70
    64
 62
     7
  6
CONTINUOUS
  0
LAYER
  2
169
 70
    64
 62
     7
  6
CONTINUOUS
  0
LAYER
  2
170
 70
    64
 62
     7
  6
CONTINUOUS
  0
LAYER
  2
171
 70
    64
 62
     7
  6
CONTINUOUS
  0
LAYER
  2
172
 70
    64
 62
     7
  6
CONTINUOUS
  0
LAYER
  2
173
 70
    64
 62
     7
  6
CONTINUOUS
  0
LAYER
  2
174
 70
    64
 62
     7
  6
CONTINUOUS
  0
LAYER
  2
175
 70
    64
 62
     7
  6
CONTINUOUS
  0
LAYER
  2
176
 70
    64
 62
     7
  6
CONTINUOUS
  0
LAYER
  2
177
 70
    64
 62
     7
  6
CONTINUOUS
  0
LAYER
  2
178
 70
    64
 62
     7
  6
CONTINUOUS
  0
LAYER
  2
179
 70
    64
 62
     7
  6
CONTINUOUS
  0
LAYER
  2
180
 70
    64
 62
     7
  6
CONTINUOUS
  0
LAYER
  2
181
 70
    64
 62
     7
  6
CONTINUOUS
  0
LAYER
  2
182
 70
    64
 62
     7
  6
CONTINUOUS
  0
LAYER
  2
183
 70
    64
 62
     7
  6
CONTINUOUS
  0
LAYER
  2
184
 70
    64
 62
     7
  6
CONTINUOUS
  0
LAYER
  2
185
 70
    64
 62
     7
  6
CONTINUOUS
  0
LAYER
  2
186
 70
    64
 62
     7
  6
CONTINUOUS
  0
LAYER
  2
187
 70
    64
 62
     7
  6
CONTINUOUS
  0
LAYER
  2
188
 70
    64
 62
     7
  6
CONTINUOUS
  0
LAYER
  2
189
 70
    64
 62
     7
  6
CONTINUOUS
  0
LAYER
  2
190
 70
    64
 62
     7
  6
CONTINUOUS
  0
LAYER
  2
191
 70
    64
 62
     7
  6
CONTINUOUS
  0
LAYER
  2
192
 70
    64
 62
     7
  6
CONTINUOUS
  0
LAYER
  2
193
 70
    64
 62
     7
  6
CONTINUOUS
  0
LAYER
  2
194
 70
    64
 62
     7
  6
CONTINUOUS
  0
LAYER
  2
195
 70
    64
 62
     7
  6
CONTINUOUS
  0
LAYER
  2
196
 70
    64
 62
     7
  6
CONTINUOUS
  0
LAYER
  2
197
 70
    64
 62
     7
  6
CONTINUOUS
  0
LAYER
  2
198
 70
    64
 62
     7
  6
CONTINUOUS
  0
LAYER
  2
199
 70
    64
 62
     7
  6
CONTINUOUS
  0
LAYER
  2
200
 70
    64
 62
     7
  6
CONTINUOUS
  0
LAYER
  2
201
 70
    64
 62
     7
  6
CONTINUOUS
  0
LAYER
  2
202
 70
    64
 62
     7
  6
CONTINUOUS
  0
LAYER
  2
203
 70
    64
 62
     7
  6
CONTINUOUS
  0
LAYER
  2
204
 70
    64
 62
     7
  6
CONTINUOUS
  0
LAYER
  2
205
 70
    64
 62
     7
  6
CONTINUOUS
  0
LAYER
  2
206
 70
    64
 62
     7
  6
CONTINUOUS
  0
LAYER
  2
207
 70
    64
 62
     7
  6
CONTINUOUS
  0
LAYER
  2
208
 70
    64
 62
     7
  6
CONTINUOUS
  0
LAYER
  2
209
 70
    64
 62
     7
  6
CONTINUOUS
  0
LAYER
  2
210
 70
    64
 62
     7
  6
CONTINUOUS
  0
LAYER
  2
211
 70
    64
 62
     7
  6
CONTINUOUS
  0
LAYER
  2
212
 70
    64
 62
     7
  6
CONTINUOUS
  0
LAYER
  2
213
 70
    64
 62
     7
  6
CONTINUOUS
  0
LAYER
  2
214
 70
    64
 62
     7
  6
CONTINUOUS
  0
LAYER
  2
215
 70
    64
 62
     7
  6
CONTINUOUS
  0
LAYER
  2
216
 70
    64
 62
     7
  6
CONTINUOUS
  0
LAYER
  2
217
 70
    64
 62
     7
  6
CONTINUOUS
  0
LAYER
  2
218
 70
    64
 62
     7
  6
CONTINUOUS
  0
LAYER
  2
219
 70
    64
 62
     7
  6
CONTINUOUS
  0
LAYER
  2
220
 70
    64
 62
     7
  6
CONTINUOUS
  0
LAYER
  2
221
 70
    64
 62
     7
  6
CONTINUOUS
  0
LAYER
  2
222
 70
    64
 62
     7
  6
CONTINUOUS
  0
LAYER
  2
223
 70
    64
 62
     7
  6
CONTINUOUS
  0
LAYER
  2
224
 70
    64
 62
     7
  6
CONTINUOUS
  0
LAYER
  2
225
 70
    64
 62
     7
  6
CONTINUOUS
  0
LAYER
  2
226
 70
    64
 62
     7
  6
CONTINUOUS
  0
LAYER
  2
227
 70
    64
 62
     7
  6
CONTINUOUS
  0
LAYER
  2
228
 70
    64
 62
     7
  6
CONTINUOUS
  0
LAYER
  2
229
 70
    64
 62
     7
  6
CONTINUOUS
  0
LAYER
  2
230
 70
    64
 62
     7
  6
CONTINUOUS
  0
LAYER
  2
231
 70
    64
 62
     7
  6
CONTINUOUS
  0
LAYER
  2
232
 70
    64
 62
     7
  6
CONTINUOUS
  0
LAYER
  2
233
 70
    64
 62
     7
  6
CONTINUOUS
  0
LAYER
  2
234
 70
    64
 62
     7
  6
CONTINUOUS
  0
LAYER
  2
235
 70
    64
 62
     7
  6
CONTINUOUS
  0
LAYER
  2
236
 70
    64
 62
     7
  6
CONTINUOUS
  0
LAYER
  2
237
 70
    64
 62
     7
  6
CONTINUOUS
  0
LAYER
  2
238
 70
    64
 62
     7
  6
CONTINUOUS
  0
LAYER
  2
239
 70
    64
 62
     7
  6
CONTINUOUS
  0
LAYER
  2
240
 70
    64
 62
     7
  6
CONTINUOUS
  0
LAYER
  2
241
 70
    64
 62
     7
  6
CONTINUOUS
  0
LAYER
  2
242
 70
    64
 62
     7
  6
CONTINUOUS
  0
LAYER
  2
243
 70
    64
 62
     7
  6
CONTINUOUS
  0
LAYER
  2
244
 70
    64
 62
     7
  6
CONTINUOUS
  0
LAYER
  2
245
 70
    64
 62
     7
  6
CONTINUOUS
  0
LAYER
  2
246
 70
    64
 62
     7
  6
CONTINUOUS
  0
LAYER
  2
247
 70
    64
 62
     7
  6
CONTINUOUS
  0
LAYER
  2
248
 70
    64
 62
     7
  6
CONTINUOUS
  0
LAYER
  2
249
 70
    64
 62
     7
  6
CONTINUOUS
  0
LAYER
  2
250
 70
    64
 62
     7
  6
CONTINUOUS
  0
LAYER
  2
251
 70
    64
 62
     7
  6
CONTINUOUS
  0
LAYER
  2
252
 70
    64
 62
     7
  6
CONTINUOUS
  0
LAYER
  2
253
 70
    64
 62
     7
  6
CONTINUOUS
  0
LAYER
  2
254
 70
    64
 62
     7
  6
CONTINUOUS
  0
LAYER
  2
255
 70
    64
 62
     7
  6
CONTINUOUS
  0
ENDTAB
  0
TABLE
  2
STYLE
 70
     2
  0
STYLE
  2
STANDARD
 70
    64
 40
0.0
 41
1.0
 50
0.0
 71
     0
 42
3.000000
  3
TXT
  4
BIGFONT
  0
ENDTAB
  0
ENDSEC
  0
SECTION
  2
ENTITIES
  0
TEXT
  8
256
  6
CONTINUOUS
 62
     7
 10
 106.86997319034845
 20
-127.7365951742627
 11
 166.86997319034845
 21
-127.7365951742627
 40
 6
 41
 1
  1
Ｍ２４＊５０／ＳＥＴ
 50
 0
 72
  5
  0
TEXT
  8
256
  6
CONTINUOUS
 62
     7
 10
 100.6699609833172
 20
-105.93655855316891
 11
 105.6699609833172
 21
-105.93655855316891
 40
 2.5
 41
 0.8
  1
品名
 50
 0
 72
  5
  0
TEXT
  8
256
  6
CONTINUOUS
 62
     7
 10
 100.6699609833172
 20
-117.93662569184082
 11
 105.6699609833172
 21
-117.93662569184082
 40
 2.5
 41
 0.8
  1
品番
 50
 0
 72
  5
  0
LINE
  8
256
  6
CONTINUOUS
 62
     7
 10
 99.369957931559384
 20
-132.9865951742627
 11
 99.369957931559384
 21
-102.9865951742627
  0
LINE
  8
256
  6
CONTINUOUS
 62
     7
 10
 165.36995793155938
 20
-102.9865951742627
 11
 165.36995793155938
 21
-114.9865951742627
  0
LINE
  8
256
  6
CONTINUOUS
 62
     7
 10
-198.93002680965157
 20
 131.51340128199078
 11
-98.930026809651565
 21
 131.51340128199078
  0
LINE
  8
256
  6
CONTINUOUS
 62
     7
 10
-98.930026809651565
 20
 131.51340128199081
 11
-98.930026809651565
 21
 143.51340203710538
  0
TEXT
  8
256
  6
CONTINUOUS
 62
     7
 10
-193.93002680965157
 20
 134.51340087391341
 11
-133.93002680965157
 21
 134.51340087391341
 40
 6
 41
 1
  1
Ｍ２４＊５０／ＳＥＴ
 50
 0
 72
  5
  0
LINE
  8
256
  6
CONTINUOUS
 62
     7
 10
 99.369957931559384
 20
-114.9865951742627
 11
 194.36997319034845
 21
-114.9865951742627
  0
TEXT
  8
256
  6
CONTINUOUS
 62
     7
 10
 112.36995793155938
 20
-113.2365951742627
 11
 152.36995793155938
 21
-113.2365951742627
 40
 5
 41
 0.8
  1
アイボルト（Ｍ２４）
 50
 0
 72
  5
  0
LINE
  8
256
  6
CONTINUOUS
 62
     7
 10
 99.369957931559384
 20
-102.9865951742627
 11
 194.36997319034845
 21
-102.9865951742627
  0
LINE
  8
256
  6
CONTINUOUS
 62
     7
 10
 194.36997319034845
 20
-132.9865951742627
 11
-198.93002680965157
 21
-132.98659517426265
  0
LINE
  8
256
  6
CONTINUOUS
 62
     7
 10
 194.36997319034845
 20
 143.51340203710538
 11
 194.36997319034845
 21
-132.9865951742627
  0
LINE
  8
256
  6
CONTINUOUS
 62
     7
 10
-198.93002680965157
 20
 143.51340203710538
 11
-198.93002680965157
 21
-132.98659517426265
  0
LINE
  8
256
  6
CONTINUOUS
 62
     7
 10
-198.93002680965157
 20
 143.51340203710538
 11
 194.36997319034845
 21
 143.51340203710538
  0
POINT
  8
0
  6
CONTINUOUS
 62
     5
 10
-2100
 20
-1485
  0
LINE
  8
0
  6
DASHDOT
 62
     2
 10
-24.999999999999993
 20
-5.0000000000000142
 11
-124.99999999999999
 21
-5
  0
LINE
  8
0
  6
DASHDOT
 62
     2
 10
-75
 20
-105.00000000000004
 11
-74.999999999999986
 21
 122.49999999999996
  0
CIRCLE
  8
0
  6
CONTINUOUS
 62
     2
 10
-74.999999999999986
 20
-5
 40
 25
  0
ARC
  8
0
  6
CONTINUOUS
 62
     2
 10
-74.999999999999986
 20
-5
 40
 45
 50
-52.752220004021801
 51
-127.24778306644724
  0
ARC
  8
0
  6
CONTINUOUS
 62
     2
 10
-40.5
 20
-50.373450386762528
 40
 12
 50
 127.24778306644723
 51
 178.21662083935942
  0
ARC
  8
0
  6
CONTINUOUS
 62
     2
 10
-109.5
 20
-50.373450386762514
 40
 12
 50
 1.7833822311095706
 51
 52.752220004021787
  0
LINE
  8
0
  6
CONTINUOUS
 62
     2
 10
-56.241000664834615
 20
-32.000000000000014
 11
-93.75899933516591
 21
-32
  0
LINE
  8
0
  6
CONTINUOUS
 62
     2
 10
-91.878826156265831
 20
-31.515763334826772
 11
-75.000000000000014
 21
-30.000000000000021
  0
LINE
  8
0
  6
CONTINUOUS
 62
     2
 10
-75.000000000000014
 20
-30.000000000000021
 11
-58.121173843734162
 21
-31.515763334826786
  0
LINE
  8
0
  6
CONTINUOUS
 62
     2
 10
-52.658340370218518
 20
-37.413470127344922
 11
-52.49418754266528
 21
-50.000000000000014
  0
LINE
  8
0
  6
CONTINUOUS
 62
     2
 10
-97.341659629781461
 20
-37.413470127344681
 11
-97.505812457334713
 21
-50
  0
ARC
  8
0
  6
CONTINUOUS
 62
     2
 10
-58.657830158334114
 20
-37.491715141861519
 40
 6
 50
 0.7472060424559688
 51
 84.86845349838849
  0
ARC
  8
0
  6
CONTINUOUS
 62
     2
 10
-91.342169841665878
 20
-37.491715141861278
 40
 6
 50
 95.131549572080559
 51
 179.25279702801305
  0
LINE
  8
0
  6
CONTINUOUS
 62
     2
 10
-65.200000000000003
 20
-52.500000000000014
 11
-65.199999999999989
 21
-98.041665191740378
  0
LINE
  8
0
  6
CONTINUOUS
 62
     2
 10
-84.800000000000011
 20
-52.5
 11
-84.799999999999997
 21
-98.041665191740364
  0
LINE
  8
0
  6
CONTINUOUS
 62
     2
 10
-63
 20
-58.000000000000014
 11
-87
 21
-58
  0
LINE
  8
0
  6
CONTINUOUS
 62
     2
 10
-63
 20
-58.000000000000014
 11
-63
 21
-97.000000000000028
  0
LINE
  8
0
  6
CONTINUOUS
 62
     2
 10
-87
 20
-58
 11
-87
 21
-97.000000000000014
  0
LINE
  8
0
  6
CONTINUOUS
 62
     2
 10
-63
 20
-97.000000000000028
 11
-87
 21
-97.000000000000014
  0
ARC
  8
0
  6
CONTINUOUS
 62
     2
 10
-75
 20
-74.500000000000028
 40
 25.5
 50
-118.07248894995249
 51
-61.927514120516541
  0
LINE
  8
0
  6
CONTINUOUS
 62
     2
 10
-52.49418754266528
 20
-50.000000000000014
 11
-97.505812457334727
 21
-50
  0
ARC
  8
0
  6
CONTINUOUS
 62
     2
 10
-62.700000000000003
 20
-52.500000000000014
 40
 2.5
 50
 90.000001535234517
 51
 180.00000307046903
  0
ARC
  8
0
  6
CONTINUOUS
 62
     2
 10
-87.300000000000011
 20
-52.5
 40
 2.5
 50
 0
 51
 90.000001535234517
  0
LINE
  8
0
  6
DASHDOT
 62
     2
 10
 125.00000000000001
 20
-5.0000000000000284
 11
 25.000000000000007
 21
-5.0000000000000142
  0
LINE
  8
0
  6
DASHDOT
 62
     2
 10
 75.000000000000014
 20
 44.999999999999957
 11
 75.000000000000028
 21
-105
  0
LINE
  8
0
  6
CONTINUOUS
 62
     2
 10
 97.341659629781475
 20
-37.413470127344937
 11
 97.505812457334713
 21
-50.000000000000028
  0
LINE
  8
0
  6
CONTINUOUS
 62
     2
 10
 52.658340370218546
 20
-37.413470127344695
 11
 52.494187542665287
 21
-50.000000000000014
  0
ARC
  8
0
  6
CONTINUOUS
 62
     2
 10
 91.342169841665878
 20
-37.491715141861533
 40
 6
 50
 0.7472060424559688
 51
 84.86845349838849
  0
ARC
  8
0
  6
CONTINUOUS
 62
     2
 10
 58.657830158334129
 20
-37.491715141861292
 40
 6
 50
 95.131549572080559
 51
 179.25279702801305
  0
LINE
  8
0
  6
CONTINUOUS
 62
     2
 10
 84.799999999999997
 20
-52.500000000000028
 11
 84.800000000000011
 21
-98.041665191740393
  0
LINE
  8
0
  6
CONTINUOUS
 62
     2
 10
 65.199999999999989
 20
-52.500000000000014
 11
 65.200000000000003
 21
-98.041665191740378
  0
LINE
  8
0
  6
CONTINUOUS
 62
     2
 10
 87
 20
-58.000000000000028
 11
 63
 21
-58.000000000000014
  0
LINE
  8
0
  6
CONTINUOUS
 62
     2
 10
 87
 20
-58.000000000000028
 11
 87
 21
-97.000000000000014
  0
LINE
  8
0
  6
CONTINUOUS
 62
     2
 10
 63
 20
-58.000000000000014
 11
 63
 21
-97
  0
LINE
  8
0
  6
CONTINUOUS
 62
     2
 10
 87
 20
-97.000000000000014
 11
 63
 21
-97
  0
ARC
  8
0
  6
CONTINUOUS
 62
     2
 10
 75
 20
-74.5
 40
 25.5
 50
-118.07248894995249
 51
-61.927514120516541
  0
LINE
  8
0
  6
CONTINUOUS
 62
     2
 10
 97.505812457334713
 20
-50.000000000000028
 11
 52.494187542665273
 21
-50.000000000000014
  0
ARC
  8
0
  6
CONTINUOUS
 62
     2
 10
 87.299999999999997
 20
-52.500000000000028
 40
 2.5
 50
 90.000001535234517
 51
 180.00000307046903
  0
ARC
  8
0
  6
CONTINUOUS
 62
     2
 10
 62.699999999999989
 20
-52.500000000000014
 40
 2.5
 50
 0
 51
 90.000001535234517
  0
ARC
  8
0
  6
CONTINUOUS
 62
     2
 10
 87.5
 20
-40.000000000000028
 40
 2.5
 50
 180.00000307046903
 51
-90.000001535234532
  0
ARC
  8
0
  6
CONTINUOUS
 62
     2
 10
 62.500000000000007
 20
-40.000000000000014
 40
 2.5
 50
-90.000001535234532
 51
 0
  0
ARC
  8
0
  6
DOT
 62
     2
 10
 75.000000000000014
 20
 29.999999999999957
 40
 10
 50
 180.00000307046903
 51
 0
  0
ARC
  8
0
  6
CONTINUOUS
 62
     2
 10
 75.000000000000014
 20
 29.999999999999957
 40
 10
 50
 0
 51
 180.00000307046903
  0
LINE
  8
0
  6
CONTINUOUS
 62
     2
 10
 85.000000000000014
 20
 29.999999999999972
 11
 85.000000000000014
 21
-40.000000000000028
  0
LINE
  8
0
  6
CONTINUOUS
 62
     2
 10
 65.000000000000014
 20
 29.999999999999972
 11
 65
 21
-40.000000000000014
  0
LINE
  8
0
  6
DOT
 62
     2
 10
 74.999999999999986
 20
-30.000000000000007
 11
 84.999999999999986
 21
-30.898026510133896
  0
LINE
  8
0
  6
CONTINUOUS
 62
     2
 10
 84.999999999999986
 20
-30.898026510133896
 11
 91.878826156265816
 21
-31.515763334826801
  0
LINE
  8
0
  6
CONTINUOUS
 62
     2
 10
 58.121173843734191
 20
-31.515763334826786
 11
 64.999999999999986
 21
-30.89802651013391
  0
LINE
  8
0
  6
DOT
 62
     2
 10
 64.999999999999986
 20
-30.89802651013391
 11
 74.999999999999986
 21
-30.000000000000007
  0
LINE
  8
0
  6
DASHDOT
 62
     2
 10
-24.999999999999993
 20
 95
 11
-124.99999999999999
 21
 95
  0
ARC
  8
0
  6
CONTINUOUS
 62
     2
 10
-74.999999999999986
 20
 94.999999999999972
 40
 22.5
 50
-153.61220265909864
 51
-26.387800411370389
  0
ARC
  8
0
  6
CONTINUOUS
 62
     2
 10
-74.999999999999986
 20
 94.999999999999972
 40
 22.5
 50
 26.387800411370307
 51
 153.6122026590987
  0
ARC
  8
0
  6
CONTINUOUS
 62
     2
 10
-109.99999999999999
 20
 95
 40
 10
 50
 90.000001535234517
 51
-90.000001535234517
  0
LINE
  8
0
  6
CONTINUOUS
 62
     2
 10
-109.99999999999999
 20
 105
 11
-39.999999999999986
 21
 105
  0
LINE
  8
0
  6
CONTINUOUS
 62
     2
 10
-109.99999999999999
 20
 85
 11
-39.999999999999986
 21
 85
  0
ARC
  8
0
  6
CONTINUOUS
 62
     2
 10
-39.999999999999986
 20
 95
 40
 10
 50
-90.000001535234517
 51
 90.000001535234517
  0
ARC
  8
0
  6
DOT
 62
     2
 10
-74.999999999999986
 20
 94.999999999999972
 40
 22.499999999999993
 50
 153.6122026590987
 51
-153.61220265909864
  0
ARC
  8
0
  6
DOT
 62
     2
 10
-74.999999999999986
 20
 94.999999999999972
 40
 22.5
 50
-26.387800411370389
 51
 26.387800411370307
  0
ARC
  8
0
  6
DOT
 62
     2
 10
-39.999999999999986
 20
 95
 40
 10
 50
 90.000001535234517
 51
-90.000001535234517
  0
ARC
  8
0
  6
DOT
 62
     2
 10
-109.99999999999999
 20
 95
 40
 10
 50
-90.000001535234517
 51
 90.000001535234517
  0
LINE
  8
0
  6
CONTINUOUS
 62
     7
 10
-63.000000000000014
 20
-98.000000000000028
 11
-63.000000000000014
 21
-116.00000000000003
  0
LINE
  8
0
  6
CONTINUOUS
 62
     7
 10
-87
 20
-98.000000000000014
 11
-87
 21
-116.00000000000003
  0
LINE
  8
0
  6
CONTINUOUS
 62
     7
 10
-87
 20
-115.00000000000003
 11
-63.000000000000014
 21
-115.00000000000003
  0
LINE
  8
0
  6
CONTINUOUS
 62
     7
 10
-87
 20
-115.00000000000003
 11
-84.102222521132802
 21
-115.7764571353076
  0
LINE
  8
0
  6
CONTINUOUS
 62
     7
 10
-87
 20
-115.00000000000003
 11
-84.102222521132802
 21
-114.22354286469246
  0
LINE
  8
0
  6
CONTINUOUS
 62
     7
 10
-63.000000000000014
 20
-115.00000000000003
 11
-65.897777478867226
 21
-114.22354286469246
  0
LINE
  8
0
  6
CONTINUOUS
 62
     7
 10
-63.000000000000014
 20
-115.00000000000003
 11
-65.897777478867226
 21
-115.7764571353076
  0
TEXT
  8
0
  6
CONTINUOUS
 62
     7
 10
-77
 20
-114.20000000000003
 11
-73
 21
-114.20000000000003
 40
 2.5
 41
 0.8
  1
24
 50
 0
 72
  5
  0
LINE
  8
0
  6
CONTINUOUS
 62
     7
 10
-98.505812457334713
 20
-50.000000000000085
 11
-136
 21
-50.000000000000085
  0
LINE
  8
0
  6
CONTINUOUS
 62
     7
 10
-76
 20
-100.00000000000003
 11
-136
 21
-100.00000000000003
  0
LINE
  8
0
  6
CONTINUOUS
 62
     7
 10
-135
 20
-50.000000000000085
 11
-135
 21
-100.00000000000003
  0
LINE
  8
0
  6
CONTINUOUS
 62
     7
 10
-135
 20
-50.000000000000085
 11
-135.77645713530757
 21
-52.89777747886729
  0
LINE
  8
0
  6
CONTINUOUS
 62
     7
 10
-135
 20
-50.000000000000085
 11
-134.22354286469243
 21
-52.89777747886729
  0
LINE
  8
0
  6
CONTINUOUS
 62
     7
 10
-135
 20
-100.00000000000003
 11
-134.22354286469243
 21
-97.10222252113283
  0
LINE
  8
0
  6
CONTINUOUS
 62
     7
 10
-135
 20
-100.00000000000003
 11
-135.77645713530757
 21
-97.10222252113283
  0
TEXT
  8
0
  6
CONTINUOUS
 62
     7
 10
-135.80000000000001
 20
-77.000000000000057
 11
-135.80000000000001
 21
-73.000000000000057
 40
 2.5
 41
 0.8
  1
50
 50
 90.000001535234517
 72
  5
  0
LINE
  8
0
  6
CONTINUOUS
 62
     7
 10
-98.505812457334713
 20
-50
 11
-136
 21
-50
  0
LINE
  8
0
  6
CONTINUOUS
 62
     7
 10
-75.999999999999986
 20
 40
 11
-136
 21
 40
  0
LINE
  8
0
  6
CONTINUOUS
 62
     7
 10
-135
 20
-50
 11
-135
 21
 40
  0
LINE
  8
0
  6
CONTINUOUS
 62
     7
 10
-135
 20
-50
 11
-134.22354286469243
 21
-47.102222521132795
  0
LINE
  8
0
  6
CONTINUOUS
 62
     7
 10
-135
 20
-50
 11
-135.77645713530757
 21
-47.102222521132795
  0
LINE
  8
0
  6
CONTINUOUS
 62
     7
 10
-135
 20
 40
 11
-135.77645713530757
 21
 37.102222521132795
  0
LINE
  8
0
  6
CONTINUOUS
 62
     7
 10
-135
 20
 40
 11
-134.22354286469243
 21
 37.102222521132795
  0
TEXT
  8
0
  6
CONTINUOUS
 62
     7
 10
-135.80000000000001
 20
-7
 11
-135.80000000000001
 21
-3
 40
 2.5
 41
 0.8
  1
90
 50
 90.000001535234517
 72
  5
  0
LINE
  8
0
  6
CONTINUOUS
 62
     7
 10
-75.999999999999986
 20
 117.49999999999997
 11
-136
 21
 117.49999999999997
  0
LINE
  8
0
  6
CONTINUOUS
 62
     7
 10
-75.999999999999986
 20
 72.499999999999972
 11
-136
 21
 72.499999999999972
  0
LINE
  8
0
  6
CONTINUOUS
 62
     7
 10
-135
 20
 117.49999999999997
 11
-135
 21
 72.499999999999972
  0
LINE
  8
0
  6
CONTINUOUS
 62
     7
 10
-135
 20
 117.49999999999997
 11
-135.77645713530757
 21
 114.60222252113277
  0
LINE
  8
0
  6
CONTINUOUS
 62
     7
 10
-135
 20
 117.49999999999997
 11
-134.22354286469243
 21
 114.60222252113277
  0
LINE
  8
0
  6
CONTINUOUS
 62
     7
 10
-135
 20
 72.499999999999972
 11
-134.22354286469243
 21
 75.39777747886717
  0
LINE
  8
0
  6
CONTINUOUS
 62
     7
 10
-135
 20
 72.499999999999972
 11
-135.77645713530757
 21
 75.39777747886717
  0
TEXT
  8
0
  6
CONTINUOUS
 62
     7
 10
-135.80000000000001
 20
 92.999999999999972
 11
-135.80000000000001
 21
 96.999999999999972
 40
 2.5
 41
 0.8
  1
45
 50
 90.000001535234517
 72
  5
  0
LINE
  8
0
  6
CONTINUOUS
 62
     7
 10
 65.000000000000014
 20
 30.999999999999972
 11
 65.000000000000014
 21
 55.999999999999957
  0
LINE
  8
0
  6
CONTINUOUS
 62
     7
 10
 85.000000000000014
 20
 30.999999999999972
 11
 85.000000000000014
 21
 55.999999999999957
  0
LINE
  8
0
  6
CONTINUOUS
 62
     7
 10
 65.000000000000014
 20
 54.999999999999957
 11
 85.000000000000014
 21
 54.999999999999957
  0
LINE
  8
0
  6
CONTINUOUS
 62
     7
 10
 65.000000000000014
 20
 54.999999999999957
 11
 67.897777478867226
 21
 54.223542864692398
  0
LINE
  8
0
  6
CONTINUOUS
 62
     7
 10
 65.000000000000014
 20
 54.999999999999957
 11
 67.897777478867226
 21
 55.776457135307517
  0
LINE
  8
0
  6
CONTINUOUS
 62
     7
 10
 85.000000000000014
 20
 54.999999999999957
 11
 82.102222521132802
 21
 55.776457135307517
  0
LINE
  8
0
  6
CONTINUOUS
 62
     7
 10
 85.000000000000014
 20
 54.999999999999957
 11
 82.102222521132802
 21
 54.223542864692398
  0
TEXT
  8
0
  6
CONTINUOUS
 62
     7
 10
 73.000000000000014
 20
 55.799999999999955
 11
 77.000000000000014
 21
 55.799999999999955
 40
 2.5
 41
 0.8
  1
20
 50
 0
 72
  5
  0
ENDSEC
  0
EOF
