  0
SECTION
  2
HEADER
  9
$INSBASE
 10
0.0
20
0.0
  9
$REGENMODE
 70
     1
  9
$DRAGMODE
 70
     1
  9
$DIMTAD
 70
     1
  9
$EXTMIN
 10
-210.000000
 20
-148.500000
 30
 0.0
  9
$EXTMAX
 10
210.000000
 20
148.500000
 30
 0.0
  9
$LUPREC
 70
    3
  9
$AUPREC
 70
    3
  9
$LTSCALE
 40
26.250000
  0
ENDSEC
  0
SECTION
  2
TABLES
  0
TABLE
  2
LTYPE
 70
     6
  0
LTYPE
  2
CONTINUOUS
 70
    64
  3
SOLID
 72
    65
 73
     0
 40
0.0
  0
LTYPE
  2
DASHED2
 70
    64
  3
_ _ _ _ _ _ _ _ _ _ _ _ _ _ _ _ _ _ _ _ _ _ 
 72
    65
 73
     2
 40
0.5
 49
0.25
 49
-0.25
  0
LTYPE
  2
DASHED
 70
    64
  3
__ __ __ __ __ __ __ __ __ __ __ __ __ __ __
 72
    65
 73
     2
 40
0.75
 49
0.5
 49
-0.25
  0
LTYPE
  2
DASHEDX2
 70
    64
  3
____  ____  ____  ____  ____  ____  ____  __
 72
    65
 73
     2
 40
1.5
 49
1.0
 49
-0.5
  0
LTYPE
  2
DOT
 70
    64
  3
............................................
 72
    65
 73
     2
 40
0.25
 49
0
 49
-0.25
  0
LTYPE
  2
DASHDOT
 70
    64
  3
__ . __ . __ . __ . __ . __ . __ . __ . __ .
 72
    65
 73
     4
 40
1.0
 49
0.5
 49
-0.25
 49
0.0
 49
-0.25
  0
LTYPE
  2
CENTER
 70
    64
  3
____ _ ____ _ ____ _ ____ _ ____ _ ____ _ __
 72
    65
 73
     4
 40
2.0
 49
1.25
 49
-0.25
 49
0.25
 49
-0.25
  0
LTYPE
  2
DIVIDE
 70
    64
  3
__ . . __ . . __ . . __ . . __ . . __ . . __
 72
    65
 73
     6
 40
1.25
 49
0.5
 49
-0.25
 49
0.0
 49
-0.25
 49
0.0
 49
-0.25
  0
LTYPE
  2
PHANTOM2
 70
    64
  3
___ _ _ ___ _ _ ___ _ _ ___ _ _ ___ _ _ ___ 
 72
    65
 73
     6
 40
1.25
 49
0.625
 49
-0.125
 49
0.125
 49
-0.125
 49
0.125
 49
-0.125
  0
LTYPE
  2
DOTX2
 70
    64
  3
. . . . . . . . . . . . . . . . . . . . . . 
 72
    65
 73
     2
 40
0.5
 49
0
 49
-0.5
  0
ENDTAB
  0
TABLE
  2
LAYER
 70
   255
  0
LAYER
  2
0
 70
    64
 62
     7
  6
CONTINUOUS
  0
LAYER
  2
1
 70
    64
 62
     7
  6
CONTINUOUS
  0
LAYER
  2
2
 70
    64
 62
     7
  6
CONTINUOUS
  0
LAYER
  2
3
 70
    64
 62
     7
  6
CONTINUOUS
  0
LAYER
  2
4
 70
    64
 62
     7
  6
CONTINUOUS
  0
LAYER
  2
5
 70
    64
 62
     7
  6
CONTINUOUS
  0
LAYER
  2
6
 70
    64
 62
     7
  6
CONTINUOUS
  0
LAYER
  2
7
 70
    64
 62
     7
  6
CONTINUOUS
  0
LAYER
  2
8
 70
    64
 62
     7
  6
CONTINUOUS
  0
LAYER
  2
9
 70
    64
 62
     7
  6
CONTINUOUS
  0
LAYER
  2
10
 70
    64
 62
     7
  6
CONTINUOUS
  0
LAYER
  2
11
 70
    64
 62
     7
  6
CONTINUOUS
  0
LAYER
  2
12
 70
    64
 62
     7
  6
CONTINUOUS
  0
LAYER
  2
13
 70
    64
 62
     7
  6
CONTINUOUS
  0
LAYER
  2
14
 70
    64
 62
     7
  6
CONTINUOUS
  0
LAYER
  2
15
 70
    64
 62
     7
  6
CONTINUOUS
  0
LAYER
  2
16
 70
    64
 62
     7
  6
CONTINUOUS
  0
LAYER
  2
17
 70
    64
 62
     7
  6
CONTINUOUS
  0
LAYER
  2
18
 70
    64
 62
     7
  6
CONTINUOUS
  0
LAYER
  2
19
 70
    64
 62
     7
  6
CONTINUOUS
  0
LAYER
  2
20
 70
    64
 62
     7
  6
CONTINUOUS
  0
LAYER
  2
21
 70
    64
 62
     7
  6
CONTINUOUS
  0
LAYER
  2
22
 70
    64
 62
     7
  6
CONTINUOUS
  0
LAYER
  2
23
 70
    64
 62
     7
  6
CONTINUOUS
  0
LAYER
  2
24
 70
    64
 62
     7
  6
CONTINUOUS
  0
LAYER
  2
25
 70
    64
 62
     7
  6
CONTINUOUS
  0
LAYER
  2
26
 70
    64
 62
     7
  6
CONTINUOUS
  0
LAYER
  2
27
 70
    64
 62
     7
  6
CONTINUOUS
  0
LAYER
  2
28
 70
    64
 62
     7
  6
CONTINUOUS
  0
LAYER
  2
29
 70
    64
 62
     7
  6
CONTINUOUS
  0
LAYER
  2
30
 70
    64
 62
     7
  6
CONTINUOUS
  0
LAYER
  2
31
 70
    64
 62
     7
  6
CONTINUOUS
  0
LAYER
  2
32
 70
    64
 62
     7
  6
CONTINUOUS
  0
LAYER
  2
33
 70
    64
 62
     7
  6
CONTINUOUS
  0
LAYER
  2
34
 70
    64
 62
     7
  6
CONTINUOUS
  0
LAYER
  2
35
 70
    64
 62
     7
  6
CONTINUOUS
  0
LAYER
  2
36
 70
    64
 62
     7
  6
CONTINUOUS
  0
LAYER
  2
37
 70
    64
 62
     7
  6
CONTINUOUS
  0
LAYER
  2
38
 70
    64
 62
     7
  6
CONTINUOUS
  0
LAYER
  2
39
 70
    64
 62
     7
  6
CONTINUOUS
  0
LAYER
  2
40
 70
    64
 62
     7
  6
CONTINUOUS
  0
LAYER
  2
41
 70
    64
 62
     7
  6
CONTINUOUS
  0
LAYER
  2
42
 70
    64
 62
     7
  6
CONTINUOUS
  0
LAYER
  2
43
 70
    64
 62
     7
  6
CONTINUOUS
  0
LAYER
  2
44
 70
    64
 62
     7
  6
CONTINUOUS
  0
LAYER
  2
45
 70
    64
 62
     7
  6
CONTINUOUS
  0
LAYER
  2
46
 70
    64
 62
     7
  6
CONTINUOUS
  0
LAYER
  2
47
 70
    64
 62
     7
  6
CONTINUOUS
  0
LAYER
  2
48
 70
    64
 62
     7
  6
CONTINUOUS
  0
LAYER
  2
49
 70
    64
 62
     7
  6
CONTINUOUS
  0
LAYER
  2
50
 70
    64
 62
     7
  6
CONTINUOUS
  0
LAYER
  2
51
 70
    64
 62
     7
  6
CONTINUOUS
  0
LAYER
  2
52
 70
    64
 62
     7
  6
CONTINUOUS
  0
LAYER
  2
53
 70
    64
 62
     7
  6
CONTINUOUS
  0
LAYER
  2
54
 70
    64
 62
     7
  6
CONTINUOUS
  0
LAYER
  2
55
 70
    64
 62
     7
  6
CONTINUOUS
  0
LAYER
  2
56
 70
    64
 62
     7
  6
CONTINUOUS
  0
LAYER
  2
57
 70
    64
 62
     7
  6
CONTINUOUS
  0
LAYER
  2
58
 70
    64
 62
     7
  6
CONTINUOUS
  0
LAYER
  2
59
 70
    64
 62
     7
  6
CONTINUOUS
  0
LAYER
  2
60
 70
    64
 62
     7
  6
CONTINUOUS
  0
LAYER
  2
61
 70
    64
 62
     7
  6
CONTINUOUS
  0
LAYER
  2
62
 70
    64
 62
     7
  6
CONTINUOUS
  0
LAYER
  2
63
 70
    64
 62
     7
  6
CONTINUOUS
  0
LAYER
  2
64
 70
    64
 62
     7
  6
CONTINUOUS
  0
LAYER
  2
65
 70
    64
 62
     7
  6
CONTINUOUS
  0
LAYER
  2
66
 70
    64
 62
     7
  6
CONTINUOUS
  0
LAYER
  2
67
 70
    64
 62
     7
  6
CONTINUOUS
  0
LAYER
  2
68
 70
    64
 62
     7
  6
CONTINUOUS
  0
LAYER
  2
69
 70
    64
 62
     7
  6
CONTINUOUS
  0
LAYER
  2
70
 70
    64
 62
     7
  6
CONTINUOUS
  0
LAYER
  2
71
 70
    64
 62
     7
  6
CONTINUOUS
  0
LAYER
  2
72
 70
    64
 62
     7
  6
CONTINUOUS
  0
LAYER
  2
73
 70
    64
 62
     7
  6
CONTINUOUS
  0
LAYER
  2
74
 70
    64
 62
     7
  6
CONTINUOUS
  0
LAYER
  2
75
 70
    64
 62
     7
  6
CONTINUOUS
  0
LAYER
  2
76
 70
    64
 62
     7
  6
CONTINUOUS
  0
LAYER
  2
77
 70
    64
 62
     7
  6
CONTINUOUS
  0
LAYER
  2
78
 70
    64
 62
     7
  6
CONTINUOUS
  0
LAYER
  2
79
 70
    64
 62
     7
  6
CONTINUOUS
  0
LAYER
  2
80
 70
    64
 62
     7
  6
CONTINUOUS
  0
LAYER
  2
81
 70
    64
 62
     7
  6
CONTINUOUS
  0
LAYER
  2
82
 70
    64
 62
     7
  6
CONTINUOUS
  0
LAYER
  2
83
 70
    64
 62
     7
  6
CONTINUOUS
  0
LAYER
  2
84
 70
    64
 62
     7
  6
CONTINUOUS
  0
LAYER
  2
85
 70
    64
 62
     7
  6
CONTINUOUS
  0
LAYER
  2
86
 70
    64
 62
     7
  6
CONTINUOUS
  0
LAYER
  2
87
 70
    64
 62
     7
  6
CONTINUOUS
  0
LAYER
  2
88
 70
    64
 62
     7
  6
CONTINUOUS
  0
LAYER
  2
89
 70
    64
 62
     7
  6
CONTINUOUS
  0
LAYER
  2
90
 70
    64
 62
     7
  6
CONTINUOUS
  0
LAYER
  2
91
 70
    64
 62
     7
  6
CONTINUOUS
  0
LAYER
  2
92
 70
    64
 62
     7
  6
CONTINUOUS
  0
LAYER
  2
93
 70
    64
 62
     7
  6
CONTINUOUS
  0
LAYER
  2
94
 70
    64
 62
     7
  6
CONTINUOUS
  0
LAYER
  2
95
 70
    64
 62
     7
  6
CONTINUOUS
  0
LAYER
  2
96
 70
    64
 62
     7
  6
CONTINUOUS
  0
LAYER
  2
97
 70
    64
 62
     7
  6
CONTINUOUS
  0
LAYER
  2
98
 70
    64
 62
     7
  6
CONTINUOUS
  0
LAYER
  2
99
 70
    64
 62
     7
  6
CONTINUOUS
  0
LAYER
  2
100
 70
    64
 62
     7
  6
CONTINUOUS
  0
LAYER
  2
101
 70
    64
 62
     7
  6
CONTINUOUS
  0
LAYER
  2
102
 70
    64
 62
     7
  6
CONTINUOUS
  0
LAYER
  2
103
 70
    64
 62
     7
  6
CONTINUOUS
  0
LAYER
  2
104
 70
    64
 62
     7
  6
CONTINUOUS
  0
LAYER
  2
105
 70
    64
 62
     7
  6
CONTINUOUS
  0
LAYER
  2
106
 70
    64
 62
     7
  6
CONTINUOUS
  0
LAYER
  2
107
 70
    64
 62
     7
  6
CONTINUOUS
  0
LAYER
  2
108
 70
    64
 62
     7
  6
CONTINUOUS
  0
LAYER
  2
109
 70
    64
 62
     7
  6
CONTINUOUS
  0
LAYER
  2
110
 70
    64
 62
     7
  6
CONTINUOUS
  0
LAYER
  2
111
 70
    64
 62
     7
  6
CONTINUOUS
  0
LAYER
  2
112
 70
    64
 62
     7
  6
CONTINUOUS
  0
LAYER
  2
113
 70
    64
 62
     7
  6
CONTINUOUS
  0
LAYER
  2
114
 70
    64
 62
     7
  6
CONTINUOUS
  0
LAYER
  2
115
 70
    64
 62
     7
  6
CONTINUOUS
  0
LAYER
  2
116
 70
    64
 62
     7
  6
CONTINUOUS
  0
LAYER
  2
117
 70
    64
 62
     7
  6
CONTINUOUS
  0
LAYER
  2
118
 70
    64
 62
     7
  6
CONTINUOUS
  0
LAYER
  2
119
 70
    64
 62
     7
  6
CONTINUOUS
  0
LAYER
  2
120
 70
    64
 62
     7
  6
CONTINUOUS
  0
LAYER
  2
121
 70
    64
 62
     7
  6
CONTINUOUS
  0
LAYER
  2
122
 70
    64
 62
     7
  6
CONTINUOUS
  0
LAYER
  2
123
 70
    64
 62
     7
  6
CONTINUOUS
  0
LAYER
  2
124
 70
    64
 62
     7
  6
CONTINUOUS
  0
LAYER
  2
125
 70
    64
 62
     7
  6
CONTINUOUS
  0
LAYER
  2
126
 70
    64
 62
     7
  6
CONTINUOUS
  0
LAYER
  2
127
 70
    64
 62
     7
  6
CONTINUOUS
  0
LAYER
  2
128
 70
    64
 62
     7
  6
CONTINUOUS
  0
LAYER
  2
129
 70
    64
 62
     7
  6
CONTINUOUS
  0
LAYER
  2
130
 70
    64
 62
     7
  6
CONTINUOUS
  0
LAYER
  2
131
 70
    64
 62
     7
  6
CONTINUOUS
  0
LAYER
  2
132
 70
    64
 62
     7
  6
CONTINUOUS
  0
LAYER
  2
133
 70
    64
 62
     7
  6
CONTINUOUS
  0
LAYER
  2
134
 70
    64
 62
     7
  6
CONTINUOUS
  0
LAYER
  2
135
 70
    64
 62
     7
  6
CONTINUOUS
  0
LAYER
  2
136
 70
    64
 62
     7
  6
CONTINUOUS
  0
LAYER
  2
137
 70
    64
 62
     7
  6
CONTINUOUS
  0
LAYER
  2
138
 70
    64
 62
     7
  6
CONTINUOUS
  0
LAYER
  2
139
 70
    64
 62
     7
  6
CONTINUOUS
  0
LAYER
  2
140
 70
    64
 62
     7
  6
CONTINUOUS
  0
LAYER
  2
141
 70
    64
 62
     7
  6
CONTINUOUS
  0
LAYER
  2
142
 70
    64
 62
     7
  6
CONTINUOUS
  0
LAYER
  2
143
 70
    64
 62
     7
  6
CONTINUOUS
  0
LAYER
  2
144
 70
    64
 62
     7
  6
CONTINUOUS
  0
LAYER
  2
145
 70
    64
 62
     7
  6
CONTINUOUS
  0
LAYER
  2
146
 70
    64
 62
     7
  6
CONTINUOUS
  0
LAYER
  2
147
 70
    64
 62
     7
  6
CONTINUOUS
  0
LAYER
  2
148
 70
    64
 62
     7
  6
CONTINUOUS
  0
LAYER
  2
149
 70
    64
 62
     7
  6
CONTINUOUS
  0
LAYER
  2
150
 70
    64
 62
     7
  6
CONTINUOUS
  0
LAYER
  2
151
 70
    64
 62
     7
  6
CONTINUOUS
  0
LAYER
  2
152
 70
    64
 62
     7
  6
CONTINUOUS
  0
LAYER
  2
153
 70
    64
 62
     7
  6
CONTINUOUS
  0
LAYER
  2
154
 70
    64
 62
     7
  6
CONTINUOUS
  0
LAYER
  2
155
 70
    64
 62
     7
  6
CONTINUOUS
  0
LAYER
  2
156
 70
    64
 62
     7
  6
CONTINUOUS
  0
LAYER
  2
157
 70
    64
 62
     7
  6
CONTINUOUS
  0
LAYER
  2
158
 70
    64
 62
     7
  6
CONTINUOUS
  0
LAYER
  2
159
 70
    64
 62
     7
  6
CONTINUOUS
  0
LAYER
  2
160
 70
    64
 62
     7
  6
CONTINUOUS
  0
LAYER
  2
161
 70
    64
 62
     7
  6
CONTINUOUS
  0
LAYER
  2
162
 70
    64
 62
     7
  6
CONTINUOUS
  0
LAYER
  2
163
 70
    64
 62
     7
  6
CONTINUOUS
  0
LAYER
  2
164
 70
    64
 62
     7
  6
CONTINUOUS
  0
LAYER
  2
165
 70
    64
 62
     7
  6
CONTINUOUS
  0
LAYER
  2
166
 70
    64
 62
     7
  6
CONTINUOUS
  0
LAYER
  2
167
 70
    64
 62
     7
  6
CONTINUOUS
  0
LAYER
  2
168
 70
    64
 62
     7
  6
CONTINUOUS
  0
LAYER
  2
169
 70
    64
 62
     7
  6
CONTINUOUS
  0
LAYER
  2
170
 70
    64
 62
     7
  6
CONTINUOUS
  0
LAYER
  2
171
 70
    64
 62
     7
  6
CONTINUOUS
  0
LAYER
  2
172
 70
    64
 62
     7
  6
CONTINUOUS
  0
LAYER
  2
173
 70
    64
 62
     7
  6
CONTINUOUS
  0
LAYER
  2
174
 70
    64
 62
     7
  6
CONTINUOUS
  0
LAYER
  2
175
 70
    64
 62
     7
  6
CONTINUOUS
  0
LAYER
  2
176
 70
    64
 62
     7
  6
CONTINUOUS
  0
LAYER
  2
177
 70
    64
 62
     7
  6
CONTINUOUS
  0
LAYER
  2
178
 70
    64
 62
     7
  6
CONTINUOUS
  0
LAYER
  2
179
 70
    64
 62
     7
  6
CONTINUOUS
  0
LAYER
  2
180
 70
    64
 62
     7
  6
CONTINUOUS
  0
LAYER
  2
181
 70
    64
 62
     7
  6
CONTINUOUS
  0
LAYER
  2
182
 70
    64
 62
     7
  6
CONTINUOUS
  0
LAYER
  2
183
 70
    64
 62
     7
  6
CONTINUOUS
  0
LAYER
  2
184
 70
    64
 62
     7
  6
CONTINUOUS
  0
LAYER
  2
185
 70
    64
 62
     7
  6
CONTINUOUS
  0
LAYER
  2
186
 70
    64
 62
     7
  6
CONTINUOUS
  0
LAYER
  2
187
 70
    64
 62
     7
  6
CONTINUOUS
  0
LAYER
  2
188
 70
    64
 62
     7
  6
CONTINUOUS
  0
LAYER
  2
189
 70
    64
 62
     7
  6
CONTINUOUS
  0
LAYER
  2
190
 70
    64
 62
     7
  6
CONTINUOUS
  0
LAYER
  2
191
 70
    64
 62
     7
  6
CONTINUOUS
  0
LAYER
  2
192
 70
    64
 62
     7
  6
CONTINUOUS
  0
LAYER
  2
193
 70
    64
 62
     7
  6
CONTINUOUS
  0
LAYER
  2
194
 70
    64
 62
     7
  6
CONTINUOUS
  0
LAYER
  2
195
 70
    64
 62
     7
  6
CONTINUOUS
  0
LAYER
  2
196
 70
    64
 62
     7
  6
CONTINUOUS
  0
LAYER
  2
197
 70
    64
 62
     7
  6
CONTINUOUS
  0
LAYER
  2
198
 70
    64
 62
     7
  6
CONTINUOUS
  0
LAYER
  2
199
 70
    64
 62
     7
  6
CONTINUOUS
  0
LAYER
  2
200
 70
    64
 62
     7
  6
CONTINUOUS
  0
LAYER
  2
201
 70
    64
 62
     7
  6
CONTINUOUS
  0
LAYER
  2
202
 70
    64
 62
     7
  6
CONTINUOUS
  0
LAYER
  2
203
 70
    64
 62
     7
  6
CONTINUOUS
  0
LAYER
  2
204
 70
    64
 62
     7
  6
CONTINUOUS
  0
LAYER
  2
205
 70
    64
 62
     7
  6
CONTINUOUS
  0
LAYER
  2
206
 70
    64
 62
     7
  6
CONTINUOUS
  0
LAYER
  2
207
 70
    64
 62
     7
  6
CONTINUOUS
  0
LAYER
  2
208
 70
    64
 62
     7
  6
CONTINUOUS
  0
LAYER
  2
209
 70
    64
 62
     7
  6
CONTINUOUS
  0
LAYER
  2
210
 70
    64
 62
     7
  6
CONTINUOUS
  0
LAYER
  2
211
 70
    64
 62
     7
  6
CONTINUOUS
  0
LAYER
  2
212
 70
    64
 62
     7
  6
CONTINUOUS
  0
LAYER
  2
213
 70
    64
 62
     7
  6
CONTINUOUS
  0
LAYER
  2
214
 70
    64
 62
     7
  6
CONTINUOUS
  0
LAYER
  2
215
 70
    64
 62
     7
  6
CONTINUOUS
  0
LAYER
  2
216
 70
    64
 62
     7
  6
CONTINUOUS
  0
LAYER
  2
217
 70
    64
 62
     7
  6
CONTINUOUS
  0
LAYER
  2
218
 70
    64
 62
     7
  6
CONTINUOUS
  0
LAYER
  2
219
 70
    64
 62
     7
  6
CONTINUOUS
  0
LAYER
  2
220
 70
    64
 62
     7
  6
CONTINUOUS
  0
LAYER
  2
221
 70
    64
 62
     7
  6
CONTINUOUS
  0
LAYER
  2
222
 70
    64
 62
     7
  6
CONTINUOUS
  0
LAYER
  2
223
 70
    64
 62
     7
  6
CONTINUOUS
  0
LAYER
  2
224
 70
    64
 62
     7
  6
CONTINUOUS
  0
LAYER
  2
225
 70
    64
 62
     7
  6
CONTINUOUS
  0
LAYER
  2
226
 70
    64
 62
     7
  6
CONTINUOUS
  0
LAYER
  2
227
 70
    64
 62
     7
  6
CONTINUOUS
  0
LAYER
  2
228
 70
    64
 62
     7
  6
CONTINUOUS
  0
LAYER
  2
229
 70
    64
 62
     7
  6
CONTINUOUS
  0
LAYER
  2
230
 70
    64
 62
     7
  6
CONTINUOUS
  0
LAYER
  2
231
 70
    64
 62
     7
  6
CONTINUOUS
  0
LAYER
  2
232
 70
    64
 62
     7
  6
CONTINUOUS
  0
LAYER
  2
233
 70
    64
 62
     7
  6
CONTINUOUS
  0
LAYER
  2
234
 70
    64
 62
     7
  6
CONTINUOUS
  0
LAYER
  2
235
 70
    64
 62
     7
  6
CONTINUOUS
  0
LAYER
  2
236
 70
    64
 62
     7
  6
CONTINUOUS
  0
LAYER
  2
237
 70
    64
 62
     7
  6
CONTINUOUS
  0
LAYER
  2
238
 70
    64
 62
     7
  6
CONTINUOUS
  0
LAYER
  2
239
 70
    64
 62
     7
  6
CONTINUOUS
  0
LAYER
  2
240
 70
    64
 62
     7
  6
CONTINUOUS
  0
LAYER
  2
241
 70
    64
 62
     7
  6
CONTINUOUS
  0
LAYER
  2
242
 70
    64
 62
     7
  6
CONTINUOUS
  0
LAYER
  2
243
 70
    64
 62
     7
  6
CONTINUOUS
  0
LAYER
  2
244
 70
    64
 62
     7
  6
CONTINUOUS
  0
LAYER
  2
245
 70
    64
 62
     7
  6
CONTINUOUS
  0
LAYER
  2
246
 70
    64
 62
     7
  6
CONTINUOUS
  0
LAYER
  2
247
 70
    64
 62
     7
  6
CONTINUOUS
  0
LAYER
  2
248
 70
    64
 62
     7
  6
CONTINUOUS
  0
LAYER
  2
249
 70
    64
 62
     7
  6
CONTINUOUS
  0
LAYER
  2
250
 70
    64
 62
     7
  6
CONTINUOUS
  0
LAYER
  2
251
 70
    64
 62
     7
  6
CONTINUOUS
  0
LAYER
  2
252
 70
    64
 62
     7
  6
CONTINUOUS
  0
LAYER
  2
253
 70
    64
 62
     7
  6
CONTINUOUS
  0
LAYER
  2
254
 70
    64
 62
     7
  6
CONTINUOUS
  0
LAYER
  2
255
 70
    64
 62
     7
  6
CONTINUOUS
  0
ENDTAB
  0
TABLE
  2
STYLE
 70
     2
  0
STYLE
  2
STANDARD
 70
    64
 40
0.0
 41
1.0
 50
0.0
 71
     0
 42
3.000000
  3
TXT
  4
BIGFONT
  0
ENDTAB
  0
ENDSEC
  0
SECTION
  2
ENTITIES
  0
TEXT
  8
256
  6
CONTINUOUS
 62
     7
 10
 106.86997319034845
 20
-127.7365951742627
 11
 166.86997319034845
 21
-127.7365951742627
 40
 6
 41
 1
  1
Ｍ２０＊５０／ＳＥＴ
 50
 0
 72
  5
  0
TEXT
  8
256
  6
CONTINUOUS
 62
     7
 10
 100.6699609833172
 20
-105.93655855316891
 11
 105.6699609833172
 21
-105.93655855316891
 40
 2.5
 41
 0.8
  1
品名
 50
 0
 72
  5
  0
TEXT
  8
256
  6
CONTINUOUS
 62
     7
 10
 100.6699609833172
 20
-117.93662569184082
 11
 105.6699609833172
 21
-117.93662569184082
 40
 2.5
 41
 0.8
  1
品番
 50
 0
 72
  5
  0
LINE
  8
256
  6
CONTINUOUS
 62
     7
 10
 99.369957931559384
 20
-132.9865951742627
 11
 99.369957931559384
 21
-102.9865951742627
  0
LINE
  8
256
  6
CONTINUOUS
 62
     7
 10
 165.36995793155938
 20
-102.9865951742627
 11
 165.36995793155938
 21
-114.9865951742627
  0
LINE
  8
256
  6
CONTINUOUS
 62
     7
 10
-198.93002680965157
 20
 131.51340128199078
 11
-98.930026809651565
 21
 131.51340128199078
  0
LINE
  8
256
  6
CONTINUOUS
 62
     7
 10
-98.930026809651565
 20
 131.51340128199081
 11
-98.930026809651565
 21
 143.51340203710538
  0
TEXT
  8
256
  6
CONTINUOUS
 62
     7
 10
-193.93002680965157
 20
 134.51340087391341
 11
-133.93002680965157
 21
 134.51340087391341
 40
 6
 41
 1
  1
Ｍ２０＊５０／ＳＥＴ
 50
 0
 72
  5
  0
LINE
  8
256
  6
CONTINUOUS
 62
     7
 10
 99.369957931559384
 20
-114.9865951742627
 11
 194.36997319034845
 21
-114.9865951742627
  0
TEXT
  8
256
  6
CONTINUOUS
 62
     7
 10
 112.36995793155938
 20
-113.2365951742627
 11
 152.36995793155938
 21
-113.2365951742627
 40
 5
 41
 0.8
  1
アイボルト（Ｍ２０）
 50
 0
 72
  5
  0
LINE
  8
256
  6
CONTINUOUS
 62
     7
 10
 99.369957931559384
 20
-102.9865951742627
 11
 194.36997319034845
 21
-102.9865951742627
  0
LINE
  8
256
  6
CONTINUOUS
 62
     7
 10
 194.36997319034845
 20
-132.9865951742627
 11
-198.93002680965157
 21
-132.98659517426265
  0
LINE
  8
256
  6
CONTINUOUS
 62
     7
 10
 194.36997319034845
 20
 143.51340203710538
 11
 194.36997319034845
 21
-132.9865951742627
  0
LINE
  8
256
  6
CONTINUOUS
 62
     7
 10
-198.93002680965157
 20
 143.51340203710538
 11
-198.93002680965157
 21
-132.98659517426265
  0
LINE
  8
256
  6
CONTINUOUS
 62
     7
 10
-198.93002680965157
 20
 143.51340203710538
 11
 194.36997319034845
 21
 143.51340203710538
  0
POINT
  8
0
  6
CONTINUOUS
 62
     5
 10
-2100
 20
-1485
  0
LINE
  8
0
  6
DASHDOT
 62
     2
 10
-33.999999999999993
 20
-5
 11
-115.99999999999999
 21
-4.9999999999999858
  0
LINE
  8
0
  6
DASHDOT
 62
     2
 10
-75.000000000000028
 20
-94.999999999999986
 11
-74.999999999999972
 21
 117.50000000000001
  0
CIRCLE
  8
0
  6
CONTINUOUS
 62
     2
 10
-74.999999999999986
 20
-4.9999999999999858
 40
 20
  0
LINE
  8
0
  6
CONTINUOUS
 62
     2
 10
-57.499999999999972
 20
-39.999999999999993
 11
-92.499999999999972
 21
-39.999999999999986
  0
LINE
  8
0
  6
CONTINUOUS
 62
     2
 10
-66.799999999999997
 20
-41.999999999999993
 11
-66.799999999999997
 21
-88.354144969878178
  0
ARC
  8
0
  6
CONTINUOUS
 62
     2
 10
-74.999999999999986
 20
-4.9999999999999858
 40
 36
 50
-55.977128561288978
 51
-124.02287450917999
  0
LINE
  8
0
  6
CONTINUOUS
 62
     2
 10
-65
 20
-45.999999999999993
 11
-84.999999999999972
 21
-45.999999999999986
  0
LINE
  8
0
  6
CONTINUOUS
 62
     2
 10
-65
 20
-87.5
 11
-84.999999999999972
 21
-87.499999999999986
  0
LINE
  8
0
  6
CONTINUOUS
 62
     2
 10
-65
 20
-45.999999999999993
 11
-65
 21
-87.5
  0
ARC
  8
0
  6
CONTINUOUS
 62
     2
 10
-64.799999999999997
 20
-41.999999999999993
 40
 2
 50
 90.000001535234517
 51
 180.00000307046903
  0
LINE
  8
0
  6
CONTINUOUS
 62
     2
 10
-83.199999999999974
 20
-41.999999999999993
 11
-83.19999999999996
 21
-88.354144969878178
  0
LINE
  8
0
  6
CONTINUOUS
 62
     2
 10
-84.999999999999972
 20
-45.999999999999993
 11
-84.999999999999957
 21
-87.5
  0
ARC
  8
0
  6
CONTINUOUS
 62
     2
 10
-74.999999999999986
 20
-68.750000000000043
 40
 21.24999999999995
 50
-118.07248894995253
 51
-61.927514120516527
  0
ARC
  8
0
  6
CONTINUOUS
 62
     2
 10
-85.199999999999974
 20
-41.999999999999993
 40
 2
 50
 0
 51
 90.000001535234532
  0
LINE
  8
0
  6
CONTINUOUS
 62
     2
 10
-60.363968345600419
 20
-26.999999999999993
 11
-89.636031654403126
 21
-26.999999999999986
  0
LINE
  8
0
  6
DASHDOT
 62
     2
 10
 116.00000000000001
 20
-5.0000000000000142
 11
 34.000000000000007
 21
-5
  0
LINE
  8
0
  6
DASHDOT
 62
     2
 10
 75.000000000000014
 20
 35.999999999999986
 11
 75.000000000000014
 21
-97.826654300092102
  0
LINE
  8
0
  6
CONTINUOUS
 62
     2
 10
 92.546073913181004
 20
-40.000000000000014
 11
 57.453926086819003
 21
-40.000000000000007
  0
LINE
  8
0
  6
CONTINUOUS
 62
     2
 10
 83.200000000000003
 20
-42.000000000000014
 11
 83.200000000000003
 21
-88.354144969878192
  0
LINE
  8
0
  6
CONTINUOUS
 62
     2
 10
 85
 20
-46.000000000000014
 11
 65.000000000000028
 21
-46.000000000000007
  0
LINE
  8
0
  6
CONTINUOUS
 62
     2
 10
 85
 20
-87.500000000000014
 11
 65.000000000000028
 21
-87.5
  0
LINE
  8
0
  6
CONTINUOUS
 62
     2
 10
 85
 20
-46.000000000000014
 11
 85
 21
-87.500000000000014
  0
ARC
  8
0
  6
CONTINUOUS
 62
     2
 10
 85.200000000000003
 20
-42.000000000000014
 40
 2
 50
 90.000001535234517
 51
 180.00000307046903
  0
LINE
  8
0
  6
CONTINUOUS
 62
     2
 10
 66.800000000000026
 20
-42.000000000000014
 11
 66.800000000000026
 21
-88.354144969878192
  0
LINE
  8
0
  6
CONTINUOUS
 62
     2
 10
 65.000000000000028
 20
-46.000000000000014
 11
 65.000000000000043
 21
-87.500000000000014
  0
ARC
  8
0
  6
CONTINUOUS
 62
     2
 10
 75.000000000000014
 20
-68.750000000000057
 40
 21.24999999999995
 50
-118.07248894995253
 51
-61.927514120516527
  0
ARC
  8
0
  6
CONTINUOUS
 62
     2
 10
 64.800000000000026
 20
-42.000000000000014
 40
 2
 50
 0
 51
 90.000001535234532
  0
LINE
  8
0
  6
CONTINUOUS
 62
     2
 10
 92.546073913181004
 20
-40.000000000000014
 11
 92.396471501820599
 21
-31.377988044168447
  0
LINE
  8
0
  6
CONTINUOUS
 62
     2
 10
 57.453926086819003
 20
-40.000000000000007
 11
 57.603528498179408
 21
-31.37798804416844
  0
ARC
  8
0
  6
CONTINUOUS
 62
     2
 10
 87.397223993851753
 20
-31.464731078858009
 40
 5
 50
 0.9940518431693149
 51
 83.413225869246787
  0
ARC
  8
0
  6
CONTINUOUS
 62
     2
 10
 62.602776006148254
 20
-31.464731078858001
 40
 5
 50
 96.586777201222233
 51
 179.0059512272997
  0
LINE
  8
0
  6
CONTINUOUS
 62
     2
 10
 83.000000000000014
 20
 22.999999999999986
 11
 83
 21
-33.000000000000007
  0
LINE
  8
0
  6
CONTINUOUS
 62
     2
 10
 67
 20
 22.999999999999986
 11
 67
 21
-33.000000000000007
  0
ARC
  8
0
  6
CONTINUOUS
 62
     2
 10
 65
 20
-33.000000000000007
 40
 2
 50
-90.000001535234532
 51
 0
  0
ARC
  8
0
  6
CONTINUOUS
 62
     2
 10
 85
 20
-33.000000000000007
 40
 2
 50
 180.00000307046903
 51
-90.000001535234532
  0
ARC
  8
0
  6
CONTINUOUS
 62
     2
 10
 75.000000000000014
 20
 22.999999999999986
 40
 8
 50
 0
 51
 180.00000307046903
  0
ARC
  8
0
  6
DOT
 62
     2
 10
 75.000000000000014
 20
 22.999999999999986
 40
 8
 50
 180.00000307046903
 51
 0
  0
LINE
  8
0
  6
DOT
 62
     2
 10
 75
 20
-25.000000000000007
 11
 83
 21
-25.92376043070341
  0
LINE
  8
0
  6
CONTINUOUS
 62
     2
 10
 83
 20
-25.92376043070341
 11
 87.97076332852815
 21
-26.497734739864143
  0
LINE
  8
0
  6
CONTINUOUS
 62
     2
 10
 62.029236671471857
 20
-26.497734739864136
 11
 66.999999999999986
 21
-25.923760430703403
  0
LINE
  8
0
  6
DOT
 62
     2
 10
 66.999999999999986
 20
-25.923760430703403
 11
 75
 21
-25.000000000000007
  0
LINE
  8
0
  6
DASHDOT
 62
     2
 10
-33.999999999999993
 20
 95
 11
-115.99999999999999
 21
 95
  0
LINE
  8
0
  6
CONTINUOUS
 62
     2
 10
-57.499999999999972
 20
-39.810199654698884
 11
-57.499999999999972
 21
-39.999999999999993
  0
ARC
  8
0
  6
CONTINUOUS
 62
     2
 10
-51.499999999999972
 20
-39.810199654698884
 40
 6
 50
 124.02287450918008
 51
 180.00000307046903
  0
LINE
  8
0
  6
CONTINUOUS
 62
     2
 10
-92.499999999999972
 20
-39.810199654698891
 11
-92.499999999999972
 21
-39.999999999999986
  0
ARC
  8
0
  6
CONTINUOUS
 62
     2
 10
-98.499999999999972
 20
-39.810199654698891
 40
 6
 50
 0
 51
 55.977128561288964
  0
LINE
  8
0
  6
CONTINUOUS
 62
     2
 10
-92.499999999999972
 20
-39.999999999999986
 11
-92.381175022710792
 21
-31.393904150912931
  0
LINE
  8
0
  6
CONTINUOUS
 62
     2
 10
-57.499999999999972
 20
-39.999999999999993
 11
-57.618824977289144
 21
-31.39390415091566
  0
LINE
  8
0
  6
CONTINUOUS
 62
     2
 10
-87.955190877288018
 20
-26.495936588081051
 11
-74.999999999999986
 21
-24.999999999999986
  0
LINE
  8
0
  6
CONTINUOUS
 62
     2
 10
-75
 20
-24.999999999999986
 11
-62.04480912271174
 21
-26.495936588081065
  0
ARC
  8
0
  6
CONTINUOUS
 62
     2
 10
-62.618348457388215
 20
-31.462932927075599
 40
 5
 50
 0.7910366510835345
 51
 83.413225869246773
  0
ARC
  8
0
  6
CONTINUOUS
 62
     2
 10
-87.381651542611735
 20
-31.46293292707378
 40
 5
 50
 96.586777201222432
 51
 179.20896641937506
  0
ARC
  8
0
  6
CONTINUOUS
 62
     2
 10
-102.99999999999999
 20
 95
 40
 8
 50
 90.000001535234517
 51
-90.000001535234517
  0
ARC
  8
0
  6
CONTINUOUS
 62
     2
 10
-46.999999999999986
 20
 95
 40
 8
 50
-90.000001535234517
 51
 90.000001535234517
  0
LINE
  8
0
  6
CONTINUOUS
 62
     2
 10
-102.99999999999999
 20
 87
 11
-46.999999999999986
 21
 87
  0
LINE
  8
0
  6
CONTINUOUS
 62
     2
 10
-102.99999999999999
 20
 103
 11
-46.999999999999986
 21
 103
  0
ARC
  8
0
  6
DOT
 62
     2
 10
-74.999999999999986
 20
 95
 40
 17.5
 50
 152.79710819422328
 51
-152.79710819422317
  0
ARC
  8
0
  6
CONTINUOUS
 62
     2
 10
-74.999999999999986
 20
 95
 40
 17.5
 50
 27.202894876245733
 51
 152.79710819422328
  0
ARC
  8
0
  6
CONTINUOUS
 62
     2
 10
-74.999999999999986
 20
 95
 40
 17.5
 50
-152.79710819422317
 51
-27.202894876245839
  0
ARC
  8
0
  6
DOT
 62
     2
 10
-74.999999999999986
 20
 95
 40
 17.5
 50
-27.202894876245839
 51
 27.202894876245733
  0
ARC
  8
0
  6
DOT
 62
     2
 10
-46.999999999999986
 20
 95
 40
 8
 50
 90.000001535234517
 51
-90.000001535234517
  0
ARC
  8
0
  6
DOT
 62
     2
 10
-102.99999999999999
 20
 95
 40
 8
 50
-90.000001535234517
 51
 90.000001535234517
  0
LINE
  8
0
  6
CONTINUOUS
 62
     7
 10
-84.999999999999972
 20
-88.5
 11
-84.999999999999972
 21
-106
  0
LINE
  8
0
  6
CONTINUOUS
 62
     7
 10
-65.000000000000028
 20
-88.5
 11
-65.000000000000028
 21
-106
  0
LINE
  8
0
  6
CONTINUOUS
 62
     7
 10
-84.999999999999972
 20
-105
 11
-65.000000000000028
 21
-105
  0
LINE
  8
0
  6
CONTINUOUS
 62
     7
 10
-84.999999999999972
 20
-105
 11
-82.102222521132774
 21
-105.77645713530757
  0
LINE
  8
0
  6
CONTINUOUS
 62
     7
 10
-84.999999999999972
 20
-105
 11
-82.102222521132774
 21
-104.22354286469243
  0
LINE
  8
0
  6
CONTINUOUS
 62
     7
 10
-65.000000000000028
 20
-105
 11
-67.897777478867226
 21
-104.22354286469243
  0
LINE
  8
0
  6
CONTINUOUS
 62
     7
 10
-65.000000000000028
 20
-105
 11
-67.897777478867226
 21
-105.77645713530757
  0
TEXT
  8
0
  6
CONTINUOUS
 62
     7
 10
-77
 20
-104.2
 11
-73
 21
-104.2
 40
 2.5
 41
 0.8
  1
20
 50
 0
 72
  5
  0
LINE
  8
0
  6
CONTINUOUS
 62
     7
 10
-93.499999999999972
 20
-39.999999999999986
 11
-126.99999999999999
 21
-39.999999999999986
  0
LINE
  8
0
  6
CONTINUOUS
 62
     7
 10
-75.999999999999986
 20
-90
 11
-126.99999999999999
 21
-90
  0
LINE
  8
0
  6
CONTINUOUS
 62
     7
 10
-125.99999999999999
 20
-90
 11
-125.99999999999999
 21
-39.999999999999986
  0
LINE
  8
0
  6
CONTINUOUS
 62
     7
 10
-125.99999999999999
 20
-90
 11
-125.22354286469242
 21
-87.102222521132788
  0
LINE
  8
0
  6
CONTINUOUS
 62
     7
 10
-125.99999999999999
 20
-90
 11
-126.77645713530755
 21
-87.102222521132788
  0
LINE
  8
0
  6
CONTINUOUS
 62
     7
 10
-125.99999999999999
 20
-39.999999999999986
 11
-126.77645713530755
 21
-42.897777478867191
  0
LINE
  8
0
  6
CONTINUOUS
 62
     7
 10
-125.99999999999999
 20
-39.999999999999986
 11
-125.22354286469242
 21
-42.897777478867191
  0
TEXT
  8
0
  6
CONTINUOUS
 62
     7
 10
-126.79999999999998
 20
-67
 11
-126.79999999999998
 21
-63
 40
 2.5
 41
 0.8
  1
50
 50
 90.000001535234517
 72
  5
  0
LINE
  8
0
  6
CONTINUOUS
 62
     7
 10
-93.499999999999972
 20
-39.999999999999986
 11
-126.99999999999999
 21
-39.999999999999986
  0
LINE
  8
0
  6
CONTINUOUS
 62
     7
 10
-75.999999999999972
 20
 31.000000000000014
 11
-126.99999999999999
 21
 31.000000000000014
  0
LINE
  8
0
  6
CONTINUOUS
 62
     7
 10
-125.99999999999999
 20
 31.000000000000014
 11
-125.99999999999999
 21
-39.999999999999986
  0
LINE
  8
0
  6
CONTINUOUS
 62
     7
 10
-125.99999999999999
 20
 31.000000000000014
 11
-126.77645713530755
 21
 28.102222521132809
  0
LINE
  8
0
  6
CONTINUOUS
 62
     7
 10
-125.99999999999999
 20
 31.000000000000014
 11
-125.22354286469242
 21
 28.102222521132809
  0
LINE
  8
0
  6
CONTINUOUS
 62
     7
 10
-125.99999999999999
 20
-39.999999999999986
 11
-125.22354286469242
 21
-37.102222521132781
  0
LINE
  8
0
  6
CONTINUOUS
 62
     7
 10
-125.99999999999999
 20
-39.999999999999986
 11
-126.77645713530755
 21
-37.102222521132781
  0
TEXT
  8
0
  6
CONTINUOUS
 62
     7
 10
-126.79999999999998
 20
-6.4999999999999858
 11
-126.79999999999998
 21
-2.4999999999999858
 40
 2.5
 41
 0.8
  1
71
 50
 90.000001535234517
 72
  5
  0
LINE
  8
0
  6
CONTINUOUS
 62
     7
 10
-75.999999999999986
 20
 112.5
 11
-126.99999999999999
 21
 112.5
  0
LINE
  8
0
  6
CONTINUOUS
 62
     7
 10
-75.999999999999986
 20
 77.5
 11
-126.99999999999999
 21
 77.5
  0
LINE
  8
0
  6
CONTINUOUS
 62
     7
 10
-125.99999999999999
 20
 112.5
 11
-125.99999999999999
 21
 77.5
  0
LINE
  8
0
  6
CONTINUOUS
 62
     7
 10
-125.99999999999999
 20
 112.5
 11
-126.77645713530755
 21
 109.6022225211328
  0
LINE
  8
0
  6
CONTINUOUS
 62
     7
 10
-125.99999999999999
 20
 112.5
 11
-125.22354286469242
 21
 109.6022225211328
  0
LINE
  8
0
  6
CONTINUOUS
 62
     7
 10
-125.99999999999999
 20
 77.5
 11
-125.22354286469242
 21
 80.397777478867198
  0
LINE
  8
0
  6
CONTINUOUS
 62
     7
 10
-125.99999999999999
 20
 77.5
 11
-126.77645713530755
 21
 80.397777478867198
  0
TEXT
  8
0
  6
CONTINUOUS
 62
     7
 10
-126.79999999999998
 20
 93
 11
-126.79999999999998
 21
 97
 40
 2.5
 41
 0.8
  1
35
 50
 90.000001535234517
 72
  5
  0
LINE
  8
0
  6
CONTINUOUS
 62
     7
 10
 67.000000000000014
 20
 23.999999999999986
 11
 67.000000000000014
 21
 46.999999999999986
  0
LINE
  8
0
  6
CONTINUOUS
 62
     7
 10
 83.000000000000014
 20
 23.999999999999986
 11
 83.000000000000014
 21
 46.999999999999986
  0
LINE
  8
0
  6
CONTINUOUS
 62
     7
 10
 67.000000000000014
 20
 45.999999999999986
 11
 83.000000000000014
 21
 45.999999999999986
  0
LINE
  8
0
  6
CONTINUOUS
 62
     7
 10
 67.000000000000014
 20
 45.999999999999986
 11
 69.897777478867226
 21
 45.223542864692426
  0
LINE
  8
0
  6
CONTINUOUS
 62
     7
 10
 67.000000000000014
 20
 45.999999999999986
 11
 69.897777478867226
 21
 46.776457135307545
  0
LINE
  8
0
  6
CONTINUOUS
 62
     7
 10
 83.000000000000014
 20
 45.999999999999986
 11
 80.102222521132802
 21
 46.776457135307545
  0
LINE
  8
0
  6
CONTINUOUS
 62
     7
 10
 83.000000000000014
 20
 45.999999999999986
 11
 80.102222521132802
 21
 45.223542864692426
  0
TEXT
  8
0
  6
CONTINUOUS
 62
     7
 10
 73.000000000000014
 20
 46.799999999999983
 11
 77.000000000000014
 21
 46.799999999999983
 40
 2.5
 41
 0.8
  1
16
 50
 0
 72
  5
  0
ENDSEC
  0
EOF
