  0
SECTION
  2
HEADER
  9
$INSBASE
 10
0.0
20
0.0
  9
$REGENMODE
 70
     1
  9
$DRAGMODE
 70
     1
  9
$DIMTAD
 70
     1
  9
$EXTMIN
 10
-210.000000
 20
-148.500000
 30
 0.0
  9
$EXTMAX
 10
210.000000
 20
148.500000
 30
 0.0
  9
$LUPREC
 70
    3
  9
$AUPREC
 70
    3
  9
$LTSCALE
 40
26.250000
  0
ENDSEC
  0
SECTION
  2
TABLES
  0
TABLE
  2
LTYPE
 70
     6
  0
LTYPE
  2
CONTINUOUS
 70
    64
  3
SOLID
 72
    65
 73
     0
 40
0.0
  0
LTYPE
  2
DASHED2
 70
    64
  3
_ _ _ _ _ _ _ _ _ _ _ _ _ _ _ _ _ _ _ _ _ _ 
 72
    65
 73
     2
 40
0.5
 49
0.25
 49
-0.25
  0
LTYPE
  2
DASHED
 70
    64
  3
__ __ __ __ __ __ __ __ __ __ __ __ __ __ __
 72
    65
 73
     2
 40
0.75
 49
0.5
 49
-0.25
  0
LTYPE
  2
DASHEDX2
 70
    64
  3
____  ____  ____  ____  ____  ____  ____  __
 72
    65
 73
     2
 40
1.5
 49
1.0
 49
-0.5
  0
LTYPE
  2
DOT
 70
    64
  3
............................................
 72
    65
 73
     2
 40
0.25
 49
0
 49
-0.25
  0
LTYPE
  2
DASHDOT
 70
    64
  3
__ . __ . __ . __ . __ . __ . __ . __ . __ .
 72
    65
 73
     4
 40
1.0
 49
0.5
 49
-0.25
 49
0.0
 49
-0.25
  0
LTYPE
  2
CENTER
 70
    64
  3
____ _ ____ _ ____ _ ____ _ ____ _ ____ _ __
 72
    65
 73
     4
 40
2.0
 49
1.25
 49
-0.25
 49
0.25
 49
-0.25
  0
LTYPE
  2
DIVIDE
 70
    64
  3
__ . . __ . . __ . . __ . . __ . . __ . . __
 72
    65
 73
     6
 40
1.25
 49
0.5
 49
-0.25
 49
0.0
 49
-0.25
 49
0.0
 49
-0.25
  0
LTYPE
  2
PHANTOM2
 70
    64
  3
___ _ _ ___ _ _ ___ _ _ ___ _ _ ___ _ _ ___ 
 72
    65
 73
     6
 40
1.25
 49
0.625
 49
-0.125
 49
0.125
 49
-0.125
 49
0.125
 49
-0.125
  0
LTYPE
  2
DOTX2
 70
    64
  3
. . . . . . . . . . . . . . . . . . . . . . 
 72
    65
 73
     2
 40
0.5
 49
0
 49
-0.5
  0
ENDTAB
  0
TABLE
  2
LAYER
 70
   255
  0
LAYER
  2
0
 70
    64
 62
     7
  6
CONTINUOUS
  0
LAYER
  2
1
 70
    64
 62
     7
  6
CONTINUOUS
  0
LAYER
  2
2
 70
    64
 62
     7
  6
CONTINUOUS
  0
LAYER
  2
3
 70
    64
 62
     7
  6
CONTINUOUS
  0
LAYER
  2
4
 70
    64
 62
     7
  6
CONTINUOUS
  0
LAYER
  2
5
 70
    64
 62
     7
  6
CONTINUOUS
  0
LAYER
  2
6
 70
    64
 62
     7
  6
CONTINUOUS
  0
LAYER
  2
7
 70
    64
 62
     7
  6
CONTINUOUS
  0
LAYER
  2
8
 70
    64
 62
     7
  6
CONTINUOUS
  0
LAYER
  2
9
 70
    64
 62
     7
  6
CONTINUOUS
  0
LAYER
  2
10
 70
    64
 62
     7
  6
CONTINUOUS
  0
LAYER
  2
11
 70
    64
 62
     7
  6
CONTINUOUS
  0
LAYER
  2
12
 70
    64
 62
     7
  6
CONTINUOUS
  0
LAYER
  2
13
 70
    64
 62
     7
  6
CONTINUOUS
  0
LAYER
  2
14
 70
    64
 62
     7
  6
CONTINUOUS
  0
LAYER
  2
15
 70
    64
 62
     7
  6
CONTINUOUS
  0
LAYER
  2
16
 70
    64
 62
     7
  6
CONTINUOUS
  0
LAYER
  2
17
 70
    64
 62
     7
  6
CONTINUOUS
  0
LAYER
  2
18
 70
    64
 62
     7
  6
CONTINUOUS
  0
LAYER
  2
19
 70
    64
 62
     7
  6
CONTINUOUS
  0
LAYER
  2
20
 70
    64
 62
     7
  6
CONTINUOUS
  0
LAYER
  2
21
 70
    64
 62
     7
  6
CONTINUOUS
  0
LAYER
  2
22
 70
    64
 62
     7
  6
CONTINUOUS
  0
LAYER
  2
23
 70
    64
 62
     7
  6
CONTINUOUS
  0
LAYER
  2
24
 70
    64
 62
     7
  6
CONTINUOUS
  0
LAYER
  2
25
 70
    64
 62
     7
  6
CONTINUOUS
  0
LAYER
  2
26
 70
    64
 62
     7
  6
CONTINUOUS
  0
LAYER
  2
27
 70
    64
 62
     7
  6
CONTINUOUS
  0
LAYER
  2
28
 70
    64
 62
     7
  6
CONTINUOUS
  0
LAYER
  2
29
 70
    64
 62
     7
  6
CONTINUOUS
  0
LAYER
  2
30
 70
    64
 62
     7
  6
CONTINUOUS
  0
LAYER
  2
31
 70
    64
 62
     7
  6
CONTINUOUS
  0
LAYER
  2
32
 70
    64
 62
     7
  6
CONTINUOUS
  0
LAYER
  2
33
 70
    64
 62
     7
  6
CONTINUOUS
  0
LAYER
  2
34
 70
    64
 62
     7
  6
CONTINUOUS
  0
LAYER
  2
35
 70
    64
 62
     7
  6
CONTINUOUS
  0
LAYER
  2
36
 70
    64
 62
     7
  6
CONTINUOUS
  0
LAYER
  2
37
 70
    64
 62
     7
  6
CONTINUOUS
  0
LAYER
  2
38
 70
    64
 62
     7
  6
CONTINUOUS
  0
LAYER
  2
39
 70
    64
 62
     7
  6
CONTINUOUS
  0
LAYER
  2
40
 70
    64
 62
     7
  6
CONTINUOUS
  0
LAYER
  2
41
 70
    64
 62
     7
  6
CONTINUOUS
  0
LAYER
  2
42
 70
    64
 62
     7
  6
CONTINUOUS
  0
LAYER
  2
43
 70
    64
 62
     7
  6
CONTINUOUS
  0
LAYER
  2
44
 70
    64
 62
     7
  6
CONTINUOUS
  0
LAYER
  2
45
 70
    64
 62
     7
  6
CONTINUOUS
  0
LAYER
  2
46
 70
    64
 62
     7
  6
CONTINUOUS
  0
LAYER
  2
47
 70
    64
 62
     7
  6
CONTINUOUS
  0
LAYER
  2
48
 70
    64
 62
     7
  6
CONTINUOUS
  0
LAYER
  2
49
 70
    64
 62
     7
  6
CONTINUOUS
  0
LAYER
  2
50
 70
    64
 62
     7
  6
CONTINUOUS
  0
LAYER
  2
51
 70
    64
 62
     7
  6
CONTINUOUS
  0
LAYER
  2
52
 70
    64
 62
     7
  6
CONTINUOUS
  0
LAYER
  2
53
 70
    64
 62
     7
  6
CONTINUOUS
  0
LAYER
  2
54
 70
    64
 62
     7
  6
CONTINUOUS
  0
LAYER
  2
55
 70
    64
 62
     7
  6
CONTINUOUS
  0
LAYER
  2
56
 70
    64
 62
     7
  6
CONTINUOUS
  0
LAYER
  2
57
 70
    64
 62
     7
  6
CONTINUOUS
  0
LAYER
  2
58
 70
    64
 62
     7
  6
CONTINUOUS
  0
LAYER
  2
59
 70
    64
 62
     7
  6
CONTINUOUS
  0
LAYER
  2
60
 70
    64
 62
     7
  6
CONTINUOUS
  0
LAYER
  2
61
 70
    64
 62
     7
  6
CONTINUOUS
  0
LAYER
  2
62
 70
    64
 62
     7
  6
CONTINUOUS
  0
LAYER
  2
63
 70
    64
 62
     7
  6
CONTINUOUS
  0
LAYER
  2
64
 70
    64
 62
     7
  6
CONTINUOUS
  0
LAYER
  2
65
 70
    64
 62
     7
  6
CONTINUOUS
  0
LAYER
  2
66
 70
    64
 62
     7
  6
CONTINUOUS
  0
LAYER
  2
67
 70
    64
 62
     7
  6
CONTINUOUS
  0
LAYER
  2
68
 70
    64
 62
     7
  6
CONTINUOUS
  0
LAYER
  2
69
 70
    64
 62
     7
  6
CONTINUOUS
  0
LAYER
  2
70
 70
    64
 62
     7
  6
CONTINUOUS
  0
LAYER
  2
71
 70
    64
 62
     7
  6
CONTINUOUS
  0
LAYER
  2
72
 70
    64
 62
     7
  6
CONTINUOUS
  0
LAYER
  2
73
 70
    64
 62
     7
  6
CONTINUOUS
  0
LAYER
  2
74
 70
    64
 62
     7
  6
CONTINUOUS
  0
LAYER
  2
75
 70
    64
 62
     7
  6
CONTINUOUS
  0
LAYER
  2
76
 70
    64
 62
     7
  6
CONTINUOUS
  0
LAYER
  2
77
 70
    64
 62
     7
  6
CONTINUOUS
  0
LAYER
  2
78
 70
    64
 62
     7
  6
CONTINUOUS
  0
LAYER
  2
79
 70
    64
 62
     7
  6
CONTINUOUS
  0
LAYER
  2
80
 70
    64
 62
     7
  6
CONTINUOUS
  0
LAYER
  2
81
 70
    64
 62
     7
  6
CONTINUOUS
  0
LAYER
  2
82
 70
    64
 62
     7
  6
CONTINUOUS
  0
LAYER
  2
83
 70
    64
 62
     7
  6
CONTINUOUS
  0
LAYER
  2
84
 70
    64
 62
     7
  6
CONTINUOUS
  0
LAYER
  2
85
 70
    64
 62
     7
  6
CONTINUOUS
  0
LAYER
  2
86
 70
    64
 62
     7
  6
CONTINUOUS
  0
LAYER
  2
87
 70
    64
 62
     7
  6
CONTINUOUS
  0
LAYER
  2
88
 70
    64
 62
     7
  6
CONTINUOUS
  0
LAYER
  2
89
 70
    64
 62
     7
  6
CONTINUOUS
  0
LAYER
  2
90
 70
    64
 62
     7
  6
CONTINUOUS
  0
LAYER
  2
91
 70
    64
 62
     7
  6
CONTINUOUS
  0
LAYER
  2
92
 70
    64
 62
     7
  6
CONTINUOUS
  0
LAYER
  2
93
 70
    64
 62
     7
  6
CONTINUOUS
  0
LAYER
  2
94
 70
    64
 62
     7
  6
CONTINUOUS
  0
LAYER
  2
95
 70
    64
 62
     7
  6
CONTINUOUS
  0
LAYER
  2
96
 70
    64
 62
     7
  6
CONTINUOUS
  0
LAYER
  2
97
 70
    64
 62
     7
  6
CONTINUOUS
  0
LAYER
  2
98
 70
    64
 62
     7
  6
CONTINUOUS
  0
LAYER
  2
99
 70
    64
 62
     7
  6
CONTINUOUS
  0
LAYER
  2
100
 70
    64
 62
     7
  6
CONTINUOUS
  0
LAYER
  2
101
 70
    64
 62
     7
  6
CONTINUOUS
  0
LAYER
  2
102
 70
    64
 62
     7
  6
CONTINUOUS
  0
LAYER
  2
103
 70
    64
 62
     7
  6
CONTINUOUS
  0
LAYER
  2
104
 70
    64
 62
     7
  6
CONTINUOUS
  0
LAYER
  2
105
 70
    64
 62
     7
  6
CONTINUOUS
  0
LAYER
  2
106
 70
    64
 62
     7
  6
CONTINUOUS
  0
LAYER
  2
107
 70
    64
 62
     7
  6
CONTINUOUS
  0
LAYER
  2
108
 70
    64
 62
     7
  6
CONTINUOUS
  0
LAYER
  2
109
 70
    64
 62
     7
  6
CONTINUOUS
  0
LAYER
  2
110
 70
    64
 62
     7
  6
CONTINUOUS
  0
LAYER
  2
111
 70
    64
 62
     7
  6
CONTINUOUS
  0
LAYER
  2
112
 70
    64
 62
     7
  6
CONTINUOUS
  0
LAYER
  2
113
 70
    64
 62
     7
  6
CONTINUOUS
  0
LAYER
  2
114
 70
    64
 62
     7
  6
CONTINUOUS
  0
LAYER
  2
115
 70
    64
 62
     7
  6
CONTINUOUS
  0
LAYER
  2
116
 70
    64
 62
     7
  6
CONTINUOUS
  0
LAYER
  2
117
 70
    64
 62
     7
  6
CONTINUOUS
  0
LAYER
  2
118
 70
    64
 62
     7
  6
CONTINUOUS
  0
LAYER
  2
119
 70
    64
 62
     7
  6
CONTINUOUS
  0
LAYER
  2
120
 70
    64
 62
     7
  6
CONTINUOUS
  0
LAYER
  2
121
 70
    64
 62
     7
  6
CONTINUOUS
  0
LAYER
  2
122
 70
    64
 62
     7
  6
CONTINUOUS
  0
LAYER
  2
123
 70
    64
 62
     7
  6
CONTINUOUS
  0
LAYER
  2
124
 70
    64
 62
     7
  6
CONTINUOUS
  0
LAYER
  2
125
 70
    64
 62
     7
  6
CONTINUOUS
  0
LAYER
  2
126
 70
    64
 62
     7
  6
CONTINUOUS
  0
LAYER
  2
127
 70
    64
 62
     7
  6
CONTINUOUS
  0
LAYER
  2
128
 70
    64
 62
     7
  6
CONTINUOUS
  0
LAYER
  2
129
 70
    64
 62
     7
  6
CONTINUOUS
  0
LAYER
  2
130
 70
    64
 62
     7
  6
CONTINUOUS
  0
LAYER
  2
131
 70
    64
 62
     7
  6
CONTINUOUS
  0
LAYER
  2
132
 70
    64
 62
     7
  6
CONTINUOUS
  0
LAYER
  2
133
 70
    64
 62
     7
  6
CONTINUOUS
  0
LAYER
  2
134
 70
    64
 62
     7
  6
CONTINUOUS
  0
LAYER
  2
135
 70
    64
 62
     7
  6
CONTINUOUS
  0
LAYER
  2
136
 70
    64
 62
     7
  6
CONTINUOUS
  0
LAYER
  2
137
 70
    64
 62
     7
  6
CONTINUOUS
  0
LAYER
  2
138
 70
    64
 62
     7
  6
CONTINUOUS
  0
LAYER
  2
139
 70
    64
 62
     7
  6
CONTINUOUS
  0
LAYER
  2
140
 70
    64
 62
     7
  6
CONTINUOUS
  0
LAYER
  2
141
 70
    64
 62
     7
  6
CONTINUOUS
  0
LAYER
  2
142
 70
    64
 62
     7
  6
CONTINUOUS
  0
LAYER
  2
143
 70
    64
 62
     7
  6
CONTINUOUS
  0
LAYER
  2
144
 70
    64
 62
     7
  6
CONTINUOUS
  0
LAYER
  2
145
 70
    64
 62
     7
  6
CONTINUOUS
  0
LAYER
  2
146
 70
    64
 62
     7
  6
CONTINUOUS
  0
LAYER
  2
147
 70
    64
 62
     7
  6
CONTINUOUS
  0
LAYER
  2
148
 70
    64
 62
     7
  6
CONTINUOUS
  0
LAYER
  2
149
 70
    64
 62
     7
  6
CONTINUOUS
  0
LAYER
  2
150
 70
    64
 62
     7
  6
CONTINUOUS
  0
LAYER
  2
151
 70
    64
 62
     7
  6
CONTINUOUS
  0
LAYER
  2
152
 70
    64
 62
     7
  6
CONTINUOUS
  0
LAYER
  2
153
 70
    64
 62
     7
  6
CONTINUOUS
  0
LAYER
  2
154
 70
    64
 62
     7
  6
CONTINUOUS
  0
LAYER
  2
155
 70
    64
 62
     7
  6
CONTINUOUS
  0
LAYER
  2
156
 70
    64
 62
     7
  6
CONTINUOUS
  0
LAYER
  2
157
 70
    64
 62
     7
  6
CONTINUOUS
  0
LAYER
  2
158
 70
    64
 62
     7
  6
CONTINUOUS
  0
LAYER
  2
159
 70
    64
 62
     7
  6
CONTINUOUS
  0
LAYER
  2
160
 70
    64
 62
     7
  6
CONTINUOUS
  0
LAYER
  2
161
 70
    64
 62
     7
  6
CONTINUOUS
  0
LAYER
  2
162
 70
    64
 62
     7
  6
CONTINUOUS
  0
LAYER
  2
163
 70
    64
 62
     7
  6
CONTINUOUS
  0
LAYER
  2
164
 70
    64
 62
     7
  6
CONTINUOUS
  0
LAYER
  2
165
 70
    64
 62
     7
  6
CONTINUOUS
  0
LAYER
  2
166
 70
    64
 62
     7
  6
CONTINUOUS
  0
LAYER
  2
167
 70
    64
 62
     7
  6
CONTINUOUS
  0
LAYER
  2
168
 70
    64
 62
     7
  6
CONTINUOUS
  0
LAYER
  2
169
 70
    64
 62
     7
  6
CONTINUOUS
  0
LAYER
  2
170
 70
    64
 62
     7
  6
CONTINUOUS
  0
LAYER
  2
171
 70
    64
 62
     7
  6
CONTINUOUS
  0
LAYER
  2
172
 70
    64
 62
     7
  6
CONTINUOUS
  0
LAYER
  2
173
 70
    64
 62
     7
  6
CONTINUOUS
  0
LAYER
  2
174
 70
    64
 62
     7
  6
CONTINUOUS
  0
LAYER
  2
175
 70
    64
 62
     7
  6
CONTINUOUS
  0
LAYER
  2
176
 70
    64
 62
     7
  6
CONTINUOUS
  0
LAYER
  2
177
 70
    64
 62
     7
  6
CONTINUOUS
  0
LAYER
  2
178
 70
    64
 62
     7
  6
CONTINUOUS
  0
LAYER
  2
179
 70
    64
 62
     7
  6
CONTINUOUS
  0
LAYER
  2
180
 70
    64
 62
     7
  6
CONTINUOUS
  0
LAYER
  2
181
 70
    64
 62
     7
  6
CONTINUOUS
  0
LAYER
  2
182
 70
    64
 62
     7
  6
CONTINUOUS
  0
LAYER
  2
183
 70
    64
 62
     7
  6
CONTINUOUS
  0
LAYER
  2
184
 70
    64
 62
     7
  6
CONTINUOUS
  0
LAYER
  2
185
 70
    64
 62
     7
  6
CONTINUOUS
  0
LAYER
  2
186
 70
    64
 62
     7
  6
CONTINUOUS
  0
LAYER
  2
187
 70
    64
 62
     7
  6
CONTINUOUS
  0
LAYER
  2
188
 70
    64
 62
     7
  6
CONTINUOUS
  0
LAYER
  2
189
 70
    64
 62
     7
  6
CONTINUOUS
  0
LAYER
  2
190
 70
    64
 62
     7
  6
CONTINUOUS
  0
LAYER
  2
191
 70
    64
 62
     7
  6
CONTINUOUS
  0
LAYER
  2
192
 70
    64
 62
     7
  6
CONTINUOUS
  0
LAYER
  2
193
 70
    64
 62
     7
  6
CONTINUOUS
  0
LAYER
  2
194
 70
    64
 62
     7
  6
CONTINUOUS
  0
LAYER
  2
195
 70
    64
 62
     7
  6
CONTINUOUS
  0
LAYER
  2
196
 70
    64
 62
     7
  6
CONTINUOUS
  0
LAYER
  2
197
 70
    64
 62
     7
  6
CONTINUOUS
  0
LAYER
  2
198
 70
    64
 62
     7
  6
CONTINUOUS
  0
LAYER
  2
199
 70
    64
 62
     7
  6
CONTINUOUS
  0
LAYER
  2
200
 70
    64
 62
     7
  6
CONTINUOUS
  0
LAYER
  2
201
 70
    64
 62
     7
  6
CONTINUOUS
  0
LAYER
  2
202
 70
    64
 62
     7
  6
CONTINUOUS
  0
LAYER
  2
203
 70
    64
 62
     7
  6
CONTINUOUS
  0
LAYER
  2
204
 70
    64
 62
     7
  6
CONTINUOUS
  0
LAYER
  2
205
 70
    64
 62
     7
  6
CONTINUOUS
  0
LAYER
  2
206
 70
    64
 62
     7
  6
CONTINUOUS
  0
LAYER
  2
207
 70
    64
 62
     7
  6
CONTINUOUS
  0
LAYER
  2
208
 70
    64
 62
     7
  6
CONTINUOUS
  0
LAYER
  2
209
 70
    64
 62
     7
  6
CONTINUOUS
  0
LAYER
  2
210
 70
    64
 62
     7
  6
CONTINUOUS
  0
LAYER
  2
211
 70
    64
 62
     7
  6
CONTINUOUS
  0
LAYER
  2
212
 70
    64
 62
     7
  6
CONTINUOUS
  0
LAYER
  2
213
 70
    64
 62
     7
  6
CONTINUOUS
  0
LAYER
  2
214
 70
    64
 62
     7
  6
CONTINUOUS
  0
LAYER
  2
215
 70
    64
 62
     7
  6
CONTINUOUS
  0
LAYER
  2
216
 70
    64
 62
     7
  6
CONTINUOUS
  0
LAYER
  2
217
 70
    64
 62
     7
  6
CONTINUOUS
  0
LAYER
  2
218
 70
    64
 62
     7
  6
CONTINUOUS
  0
LAYER
  2
219
 70
    64
 62
     7
  6
CONTINUOUS
  0
LAYER
  2
220
 70
    64
 62
     7
  6
CONTINUOUS
  0
LAYER
  2
221
 70
    64
 62
     7
  6
CONTINUOUS
  0
LAYER
  2
222
 70
    64
 62
     7
  6
CONTINUOUS
  0
LAYER
  2
223
 70
    64
 62
     7
  6
CONTINUOUS
  0
LAYER
  2
224
 70
    64
 62
     7
  6
CONTINUOUS
  0
LAYER
  2
225
 70
    64
 62
     7
  6
CONTINUOUS
  0
LAYER
  2
226
 70
    64
 62
     7
  6
CONTINUOUS
  0
LAYER
  2
227
 70
    64
 62
     7
  6
CONTINUOUS
  0
LAYER
  2
228
 70
    64
 62
     7
  6
CONTINUOUS
  0
LAYER
  2
229
 70
    64
 62
     7
  6
CONTINUOUS
  0
LAYER
  2
230
 70
    64
 62
     7
  6
CONTINUOUS
  0
LAYER
  2
231
 70
    64
 62
     7
  6
CONTINUOUS
  0
LAYER
  2
232
 70
    64
 62
     7
  6
CONTINUOUS
  0
LAYER
  2
233
 70
    64
 62
     7
  6
CONTINUOUS
  0
LAYER
  2
234
 70
    64
 62
     7
  6
CONTINUOUS
  0
LAYER
  2
235
 70
    64
 62
     7
  6
CONTINUOUS
  0
LAYER
  2
236
 70
    64
 62
     7
  6
CONTINUOUS
  0
LAYER
  2
237
 70
    64
 62
     7
  6
CONTINUOUS
  0
LAYER
  2
238
 70
    64
 62
     7
  6
CONTINUOUS
  0
LAYER
  2
239
 70
    64
 62
     7
  6
CONTINUOUS
  0
LAYER
  2
240
 70
    64
 62
     7
  6
CONTINUOUS
  0
LAYER
  2
241
 70
    64
 62
     7
  6
CONTINUOUS
  0
LAYER
  2
242
 70
    64
 62
     7
  6
CONTINUOUS
  0
LAYER
  2
243
 70
    64
 62
     7
  6
CONTINUOUS
  0
LAYER
  2
244
 70
    64
 62
     7
  6
CONTINUOUS
  0
LAYER
  2
245
 70
    64
 62
     7
  6
CONTINUOUS
  0
LAYER
  2
246
 70
    64
 62
     7
  6
CONTINUOUS
  0
LAYER
  2
247
 70
    64
 62
     7
  6
CONTINUOUS
  0
LAYER
  2
248
 70
    64
 62
     7
  6
CONTINUOUS
  0
LAYER
  2
249
 70
    64
 62
     7
  6
CONTINUOUS
  0
LAYER
  2
250
 70
    64
 62
     7
  6
CONTINUOUS
  0
LAYER
  2
251
 70
    64
 62
     7
  6
CONTINUOUS
  0
LAYER
  2
252
 70
    64
 62
     7
  6
CONTINUOUS
  0
LAYER
  2
253
 70
    64
 62
     7
  6
CONTINUOUS
  0
LAYER
  2
254
 70
    64
 62
     7
  6
CONTINUOUS
  0
LAYER
  2
255
 70
    64
 62
     7
  6
CONTINUOUS
  0
ENDTAB
  0
TABLE
  2
STYLE
 70
     2
  0
STYLE
  2
STANDARD
 70
    64
 40
0.0
 41
1.0
 50
0.0
 71
     0
 42
3.000000
  3
TXT
  4
BIGFONT
  0
ENDTAB
  0
ENDSEC
  0
SECTION
  2
ENTITIES
  0
TEXT
  8
256
  6
CONTINUOUS
 62
     7
 10
 106.86997319034845
 20
-127.7365951742627
 11
 166.86997319034845
 21
-127.7365951742627
 40
 6
 41
 1
  1
Ｍ１２＊３０／ＳＥＴ
 50
 0
 72
  5
  0
TEXT
  8
256
  6
CONTINUOUS
 62
     7
 10
 100.6699609833172
 20
-105.93655855316891
 11
 105.6699609833172
 21
-105.93655855316891
 40
 2.5
 41
 0.8
  1
品名
 50
 0
 72
  5
  0
TEXT
  8
256
  6
CONTINUOUS
 62
     7
 10
 100.6699609833172
 20
-117.93662569184082
 11
 105.6699609833172
 21
-117.93662569184082
 40
 2.5
 41
 0.8
  1
品番
 50
 0
 72
  5
  0
LINE
  8
256
  6
CONTINUOUS
 62
     7
 10
 99.369957931559384
 20
-132.9865951742627
 11
 99.369957931559384
 21
-102.9865951742627
  0
LINE
  8
256
  6
CONTINUOUS
 62
     7
 10
 165.36995793155938
 20
-102.9865951742627
 11
 165.36995793155938
 21
-114.9865951742627
  0
LINE
  8
256
  6
CONTINUOUS
 62
     7
 10
-198.93002680965157
 20
 131.51340128199078
 11
-98.930026809651565
 21
 131.51340128199078
  0
LINE
  8
256
  6
CONTINUOUS
 62
     7
 10
-98.930026809651565
 20
 131.51340128199081
 11
-98.930026809651565
 21
 143.51340203710538
  0
TEXT
  8
256
  6
CONTINUOUS
 62
     7
 10
-193.93002680965157
 20
 134.51340087391341
 11
-133.93002680965157
 21
 134.51340087391341
 40
 6
 41
 1
  1
Ｍ１２＊３０／ＳＥＴ
 50
 0
 72
  5
  0
LINE
  8
256
  6
CONTINUOUS
 62
     7
 10
 99.369957931559384
 20
-114.9865951742627
 11
 194.36997319034845
 21
-114.9865951742627
  0
TEXT
  8
256
  6
CONTINUOUS
 62
     7
 10
 112.36995793155938
 20
-113.2365951742627
 11
 152.36995793155938
 21
-113.2365951742627
 40
 5
 41
 0.8
  1
アイボルト（Ｍ１２）
 50
 0
 72
  5
  0
LINE
  8
256
  6
CONTINUOUS
 62
     7
 10
 99.369957931559384
 20
-102.9865951742627
 11
 194.36997319034845
 21
-102.9865951742627
  0
LINE
  8
256
  6
CONTINUOUS
 62
     7
 10
 194.36997319034845
 20
-132.9865951742627
 11
-198.93002680965157
 21
-132.98659517426265
  0
LINE
  8
256
  6
CONTINUOUS
 62
     7
 10
 194.36997319034845
 20
 143.51340203710538
 11
 194.36997319034845
 21
-132.9865951742627
  0
LINE
  8
256
  6
CONTINUOUS
 62
     7
 10
-198.93002680965157
 20
 143.51340203710538
 11
-198.93002680965157
 21
-132.98659517426265
  0
LINE
  8
256
  6
CONTINUOUS
 62
     7
 10
-198.93002680965157
 20
 143.51340203710538
 11
 194.36997319034845
 21
 143.51340203710538
  0
POINT
  8
0
  6
CONTINUOUS
 62
     5
 10
-2100
 20
-1485
  0
CIRCLE
  8
0
  6
CONTINUOUS
 62
     2
 10
-74.999999999999986
 20
-4.9999999999999858
 40
 15
  0
LINE
  8
0
  6
DASHDOT
 62
     2
 10
-44.999999999999993
 20
-5
 11
-104.99999999999999
 21
-4.9999999999999858
  0
LINE
  8
0
  6
DASHDOT
 62
     2
 10
-74.999999999999972
 20
 112.5
 11
-75
 21
-65.999999999999986
  0
LINE
  8
0
  6
CONTINUOUS
 62
     2
 10
-62.5
 20
-30.999999999999993
 11
-87.500000000000014
 21
-30.999999999999986
  0
LINE
  8
0
  6
CONTINUOUS
 62
     2
 10
-64.041412982998722
 20
-23.937743604450993
 11
-62.5
 21
-30.999999999999993
  0
LINE
  8
0
  6
CONTINUOUS
 62
     2
 10
-85.958587017001292
 20
-23.937743604450986
 11
-87.500000000000014
 21
-30.999999999999986
  0
LINE
  8
0
  6
CONTINUOUS
 62
     2
 10
-66.412909225565329
 20
-21.630101173761432
 11
-75
 21
-19.999999999999993
  0
LINE
  8
0
  6
CONTINUOUS
 62
     2
 10
-75.000000000000014
 20
-19.999999999999993
 11
-83.587090774434685
 21
-21.630101173761432
  0
LINE
  8
0
  6
CONTINUOUS
 62
     2
 10
-84.562733339423147
 20
-21.999999999999993
 11
-65.437266660576853
 21
-21.999999999999993
  0
ARC
  8
0
  6
CONTINUOUS
 62
     2
 10
-93.5
 20
-29.874685927665475
 40
 6
 50
 0
 51
 53.36078696594037
  0
ARC
  8
0
  6
CONTINUOUS
 62
     2
 10
-56.499999999999979
 20
-29.874685927665475
 40
 6
 50
 126.63921610452863
 51
 180.00000307046903
  0
LINE
  8
0
  6
CONTINUOUS
 62
     2
 10
-87.500000000000014
 20
-30.999999999999986
 11
-87.500000000000014
 21
-29.874685927665475
  0
LINE
  8
0
  6
CONTINUOUS
 62
     2
 10
-62.5
 20
-31
 11
-62.5
 21
-29.874685927665475
  0
ARC
  8
0
  6
CONTINUOUS
 62
     2
 10
-74.999999999999986
 20
-4.9999999999999858
 40
 25
 50
-53.36078696594037
 51
-126.63921610452867
  0
ARC
  8
0
  6
CONTINUOUS
 62
     2
 10
-83.027587889490491
 20
-24.57746550850851
 40
 3
 50
 100.74865604196322
 51
 167.68767321112921
  0
ARC
  8
0
  6
CONTINUOUS
 62
     2
 10
-66.972412110509509
 20
-24.57746550850851
 40
 3
 50
 12.312329859339686
 51
 79.251347028505819
  0
LINE
  8
0
  6
CONTINUOUS
 62
     2
 10
-70.300000000000011
 20
-32.399999999999991
 11
-70.300000000000011
 21
-59.826664149042934
  0
LINE
  8
0
  6
CONTINUOUS
 62
     2
 10
-69
 20
-35.999999999999993
 11
-69
 21
-58.999999999999993
  0
LINE
  8
0
  6
CONTINUOUS
 62
     2
 10
-69
 20
-35.999999999999993
 11
-81
 21
-35.999999999999993
  0
ARC
  8
0
  6
CONTINUOUS
 62
     2
 10
-68.900000000000006
 20
-32.399999999999991
 40
 1.3999999999999999
 50
 90.000001535234517
 51
 180.00000307046903
  0
LINE
  8
0
  6
CONTINUOUS
 62
     2
 10
-69
 20
-58.999999999999993
 11
-81
 21
-58.999999999999986
  0
ARC
  8
0
  6
CONTINUOUS
 62
     2
 10
-75
 20
-51
 40
 9.9999999999999876
 50
-126.86989981001122
 51
-53.130103260457823
  0
LINE
  8
0
  6
CONTINUOUS
 62
     2
 10
-79.699999999999989
 20
-32.399999999999991
 11
-79.699999999999989
 21
-59.826664149042934
  0
ARC
  8
0
  6
CONTINUOUS
 62
     2
 10
-81.099999999999994
 20
-32.399999999999991
 40
 1.3999999999999999
 50
 0
 51
 90.000001535234517
  0
LINE
  8
0
  6
CONTINUOUS
 62
     2
 10
-81
 20
-35.999999999999993
 11
-81
 21
-58.999999999999986
  0
LINE
  8
0
  6
DASHDOT
 62
     2
 10
 105.00000000000001
 20
-5.0000000000000142
 11
 45
 21
-5
  0
LINE
  8
0
  6
DASHDOT
 62
     2
 10
 75.000000000000014
 20
 24.999999999999986
 11
 75
 21
-66.000000000000014
  0
LINE
  8
0
  6
CONTINUOUS
 62
     2
 10
 87.5
 20
-31.000000000000014
 11
 62.499999999999986
 21
-31.000000000000007
  0
LINE
  8
0
  6
CONTINUOUS
 62
     2
 10
 85.958587017001292
 20
-23.937743604451008
 11
 87.5
 21
-31.000000000000014
  0
LINE
  8
0
  6
CONTINUOUS
 62
     2
 10
 64.041412982998708
 20
-23.937743604451001
 11
 62.499999999999986
 21
-31.000000000000007
  0
ARC
  8
0
  6
CONTINUOUS
 62
     2
 10
 66.972412110509509
 20
-24.577465508508524
 40
 3
 50
 100.74865604196322
 51
 167.68767321112921
  0
ARC
  8
0
  6
CONTINUOUS
 62
     2
 10
 83.027587889490491
 20
-24.577465508508524
 40
 3
 50
 12.312329859339686
 51
 79.251347028505819
  0
LINE
  8
0
  6
CONTINUOUS
 62
     2
 10
 79.699999999999989
 20
-32.400000000000006
 11
 79.699999999999989
 21
-59.826664149042948
  0
LINE
  8
0
  6
CONTINUOUS
 62
     2
 10
 81
 20
-36.000000000000007
 11
 81
 21
-59.000000000000014
  0
LINE
  8
0
  6
CONTINUOUS
 62
     2
 10
 81
 20
-36.000000000000007
 11
 69
 21
-36.000000000000007
  0
ARC
  8
0
  6
CONTINUOUS
 62
     2
 10
 81.099999999999994
 20
-32.400000000000006
 40
 1.3999999999999999
 50
 90.000001535234517
 51
 180.00000307046903
  0
LINE
  8
0
  6
CONTINUOUS
 62
     2
 10
 81
 20
-59.000000000000014
 11
 69
 21
-59.000000000000007
  0
ARC
  8
0
  6
CONTINUOUS
 62
     2
 10
 75
 20
-51.000000000000028
 40
 9.9999999999999876
 50
-126.86989981001122
 51
-53.130103260457823
  0
LINE
  8
0
  6
CONTINUOUS
 62
     2
 10
 70.300000000000011
 20
-32.400000000000006
 11
 70.300000000000011
 21
-59.826664149042948
  0
ARC
  8
0
  6
CONTINUOUS
 62
     2
 10
 68.900000000000006
 20
-32.400000000000006
 40
 1.3999999999999999
 50
 0
 51
 90.000001535234517
  0
LINE
  8
0
  6
CONTINUOUS
 62
     2
 10
 69
 20
-36.000000000000007
 11
 69
 21
-59.000000000000007
  0
LINE
  8
0
  6
CONTINUOUS
 62
     2
 10
 80.000000000000014
 20
 14.999999999999986
 11
 80
 21
-25.000000000000007
  0
ARC
  8
0
  6
CONTINUOUS
 62
     2
 10
 75.000000000000014
 20
 14.999999999999986
 40
 5
 50
 0
 51
 180.00000307046903
  0
LINE
  8
0
  6
CONTINUOUS
 62
     2
 10
 70.000000000000014
 20
 14.999999999999986
 11
 70
 21
-25.000000000000014
  0
LINE
  8
0
  6
CONTINUOUS
 62
     2
 10
 83.587090774434671
 20
-21.630101173761446
 11
 80
 21
-20.949157995752508
  0
LINE
  8
0
  6
DOT
 62
     2
 10
 80
 20
-20.949157995752508
 11
 75
 21
-20.000000000000007
  0
LINE
  8
0
  6
DOT
 62
     2
 10
 75
 20
-20.000000000000007
 11
 70
 21
-20.9491579957525
  0
LINE
  8
0
  6
CONTINUOUS
 62
     2
 10
 70
 20
-20.949157995752508
 11
 66.412909225565301
 21
-21.630101173761446
  0
ARC
  8
0
  6
CONTINUOUS
 62
     2
 10
 81.400000000000006
 20
-25.000000000000007
 40
 1.3999999999999999
 50
 180.00000307046903
 51
-90.000001535234532
  0
ARC
  8
0
  6
CONTINUOUS
 62
     2
 10
 68.599999999999994
 20
-25.000000000000014
 40
 1.3999999999999999
 50
-90.000001535234532
 51
 0
  0
ARC
  8
0
  6
DOT
 62
     2
 10
 75.000000000000014
 20
 14.999999999999986
 40
 5
 50
 180.00000307046903
 51
 0
  0
LINE
  8
0
  6
DASHDOT
 62
     2
 10
-44.999999999999993
 20
 95
 11
-104.99999999999999
 21
 95
  0
LINE
  8
0
  6
CONTINUOUS
 62
     2
 10
-94.999999999999986
 20
 90
 11
-54.999999999999986
 21
 90
  0
LINE
  8
0
  6
CONTINUOUS
 62
     2
 10
-94.999999999999986
 20
 100
 11
-54.999999999999986
 21
 100
  0
ARC
  8
0
  6
CONTINUOUS
 62
     2
 10
-94.999999999999986
 20
 95.000000000000014
 40
 5
 50
 90.000001535234517
 51
-90.000001535234517
  0
ARC
  8
0
  6
CONTINUOUS
 62
     2
 10
-54.999999999999986
 20
 95
 40
 5
 50
-90.000001535234517
 51
 90.000001535234517
  0
ARC
  8
0
  6
DOT
 62
     2
 10
-94.999999999999986
 20
 95
 40
 5
 50
-90.000001535234517
 51
 90.000001535234517
  0
ARC
  8
0
  6
DOT
 62
     2
 10
-54.999999999999986
 20
 95.000000000000014
 40
 5
 50
 90.000001535234517
 51
-90.000001535234517
  0
ARC
  8
0
  6
CONTINUOUS
 62
     2
 10
-75
 20
 95
 40
 12.5
 50
 23.578178880402199
 51
 156.42182419006681
  0
ARC
  8
0
  6
DOT
 62
     2
 10
-75
 20
 95
 40
 12.5
 50
 156.42182419006681
 51
-156.42182419006681
  0
ARC
  8
0
  6
CONTINUOUS
 62
     2
 10
-75
 20
 95
 40
 12.5
 50
-156.42182419006681
 51
-23.578178880402199
  0
ARC
  8
0
  6
DOT
 62
     2
 10
-75
 20
 95
 40
 12.5
 50
-23.578178880402199
 51
 23.578178880402199
  0
LINE
  8
0
  6
CONTINUOUS
 62
     7
 10
-80.999999999999986
 20
-59.999999999999993
 11
-80.999999999999986
 21
-76.999999999999986
  0
LINE
  8
0
  6
CONTINUOUS
 62
     7
 10
-69.000000000000014
 20
-59.999999999999993
 11
-69.000000000000014
 21
-76.999999999999986
  0
LINE
  8
0
  6
CONTINUOUS
 62
     7
 10
-80.999999999999986
 20
-75.999999999999986
 11
-69.000000000000014
 21
-75.999999999999986
  0
LINE
  8
0
  6
CONTINUOUS
 62
     7
 10
-80.999999999999986
 20
-75.999999999999986
 11
-78.102222521132774
 21
-76.776457135307552
  0
LINE
  8
0
  6
CONTINUOUS
 62
     7
 10
-80.999999999999986
 20
-75.999999999999986
 11
-78.102222521132774
 21
-75.223542864692419
  0
LINE
  8
0
  6
CONTINUOUS
 62
     7
 10
-69.000000000000014
 20
-75.999999999999986
 11
-71.897777478867226
 21
-75.223542864692419
  0
LINE
  8
0
  6
CONTINUOUS
 62
     7
 10
-69.000000000000014
 20
-75.999999999999986
 11
-71.897777478867226
 21
-76.776457135307552
  0
TEXT
  8
0
  6
CONTINUOUS
 62
     7
 10
-77
 20
-75.199999999999989
 11
-73
 21
-75.199999999999989
 40
 2.5
 41
 0.8
  1
12
 50
 0
 72
  5
  0
LINE
  8
0
  6
CONTINUOUS
 62
     7
 10
-88.500000000000014
 20
-30.999999999999986
 11
-115.99999999999999
 21
-30.999999999999986
  0
LINE
  8
0
  6
CONTINUOUS
 62
     7
 10
-76
 20
-60.999999999999986
 11
-115.99999999999999
 21
-60.999999999999986
  0
LINE
  8
0
  6
CONTINUOUS
 62
     7
 10
-114.99999999999999
 20
-30.999999999999986
 11
-114.99999999999999
 21
-60.999999999999986
  0
LINE
  8
0
  6
CONTINUOUS
 62
     7
 10
-114.99999999999999
 20
-30.999999999999986
 11
-115.77645713530755
 21
-33.897777478867191
  0
LINE
  8
0
  6
CONTINUOUS
 62
     7
 10
-114.99999999999999
 20
-30.999999999999986
 11
-114.22354286469242
 21
-33.897777478867191
  0
LINE
  8
0
  6
CONTINUOUS
 62
     7
 10
-114.99999999999999
 20
-60.999999999999986
 11
-114.22354286469242
 21
-58.102222521132781
  0
LINE
  8
0
  6
CONTINUOUS
 62
     7
 10
-114.99999999999999
 20
-60.999999999999986
 11
-115.77645713530755
 21
-58.102222521132781
  0
TEXT
  8
0
  6
CONTINUOUS
 62
     7
 10
-115.79999999999998
 20
-47.999999999999986
 11
-115.79999999999998
 21
-43.999999999999986
 40
 2.5
 41
 0.8
  1
30
 50
 90.000001535234517
 72
  5
  0
LINE
  8
0
  6
CONTINUOUS
 62
     7
 10
-88.500000000000014
 20
-30.999999999999986
 11
-115.99999999999999
 21
-30.999999999999986
  0
LINE
  8
0
  6
CONTINUOUS
 62
     7
 10
-75.999999999999986
 20
 20.000000000000014
 11
-115.99999999999999
 21
 20.000000000000014
  0
LINE
  8
0
  6
CONTINUOUS
 62
     7
 10
-114.99999999999999
 20
-30.999999999999986
 11
-114.99999999999999
 21
 20.000000000000014
  0
LINE
  8
0
  6
CONTINUOUS
 62
     7
 10
-114.99999999999999
 20
-30.999999999999986
 11
-114.22354286469242
 21
-28.102222521132781
  0
LINE
  8
0
  6
CONTINUOUS
 62
     7
 10
-114.99999999999999
 20
-30.999999999999986
 11
-115.77645713530755
 21
-28.102222521132781
  0
LINE
  8
0
  6
CONTINUOUS
 62
     7
 10
-114.99999999999999
 20
 20.000000000000014
 11
-115.77645713530755
 21
 17.102222521132809
  0
LINE
  8
0
  6
CONTINUOUS
 62
     7
 10
-114.99999999999999
 20
 20.000000000000014
 11
-114.22354286469242
 21
 17.102222521132809
  0
TEXT
  8
0
  6
CONTINUOUS
 62
     7
 10
-115.79999999999998
 20
-7.4999999999999858
 11
-115.79999999999998
 21
-3.4999999999999858
 40
 2.5
 41
 0.8
  1
51
 50
 90.000001535234517
 72
  5
  0
LINE
  8
0
  6
CONTINUOUS
 62
     7
 10
-76
 20
 107.5
 11
-115.99999999999999
 21
 107.5
  0
LINE
  8
0
  6
CONTINUOUS
 62
     7
 10
-76
 20
 82.5
 11
-115.99999999999999
 21
 82.5
  0
LINE
  8
0
  6
CONTINUOUS
 62
     7
 10
-114.99999999999999
 20
 107.5
 11
-114.99999999999999
 21
 82.5
  0
LINE
  8
0
  6
CONTINUOUS
 62
     7
 10
-114.99999999999999
 20
 107.5
 11
-115.77645713530755
 21
 104.6022225211328
  0
LINE
  8
0
  6
CONTINUOUS
 62
     7
 10
-114.99999999999999
 20
 107.5
 11
-114.22354286469242
 21
 104.6022225211328
  0
LINE
  8
0
  6
CONTINUOUS
 62
     7
 10
-114.99999999999999
 20
 82.5
 11
-114.22354286469242
 21
 85.397777478867198
  0
LINE
  8
0
  6
CONTINUOUS
 62
     7
 10
-114.99999999999999
 20
 82.5
 11
-115.77645713530755
 21
 85.397777478867198
  0
TEXT
  8
0
  6
CONTINUOUS
 62
     7
 10
-115.79999999999998
 20
 93
 11
-115.79999999999998
 21
 97
 40
 2.5
 41
 0.8
  1
25
 50
 90.000001535234517
 72
  5
  0
LINE
  8
0
  6
CONTINUOUS
 62
     7
 10
 70.000000000000014
 20
 15.999999999999986
 11
 70.000000000000014
 21
 35.999999999999986
  0
LINE
  8
0
  6
CONTINUOUS
 62
     7
 10
 80.000000000000014
 20
 15.999999999999986
 11
 80.000000000000014
 21
 35.999999999999986
  0
LINE
  8
0
  6
CONTINUOUS
 62
     7
 10
 70.000000000000014
 20
 34.999999999999986
 11
 80.000000000000014
 21
 34.999999999999986
  0
LINE
  8
0
  6
CONTINUOUS
 62
     7
 10
 70.000000000000014
 20
 34.999999999999986
 11
 72.897777478867226
 21
 34.223542864692426
  0
LINE
  8
0
  6
CONTINUOUS
 62
     7
 10
 70.000000000000014
 20
 34.999999999999986
 11
 72.897777478867226
 21
 35.776457135307545
  0
LINE
  8
0
  6
CONTINUOUS
 62
     7
 10
 80.000000000000014
 20
 34.999999999999986
 11
 77.102222521132802
 21
 35.776457135307545
  0
LINE
  8
0
  6
CONTINUOUS
 62
     7
 10
 80.000000000000014
 20
 34.999999999999986
 11
 77.102222521132802
 21
 34.223542864692426
  0
TEXT
  8
0
  6
CONTINUOUS
 62
     7
 10
 73.000000000000014
 20
 35.799999999999983
 11
 77.000000000000014
 21
 35.799999999999983
 40
 2.5
 41
 0.8
  1
10
 50
 0
 72
  5
  0
ENDSEC
  0
EOF
