  0
SECTION
  2
HEADER
  9
$INSBASE
 10
0.0
20
0.0
  9
$REGENMODE
 70
     1
  9
$DRAGMODE
 70
     1
  9
$DIMTAD
 70
     1
  9
$EXTMIN
 10
-210.000000
 20
-148.500000
 30
 0.0
  9
$EXTMAX
 10
210.000000
 20
148.500000
 30
 0.0
  9
$LUPREC
 70
    3
  9
$AUPREC
 70
    3
  9
$LTSCALE
 40
26.250000
  0
ENDSEC
  0
SECTION
  2
TABLES
  0
TABLE
  2
LTYPE
 70
     6
  0
LTYPE
  2
CONTINUOUS
 70
    64
  3
SOLID
 72
    65
 73
     0
 40
0.0
  0
LTYPE
  2
DASHED2
 70
    64
  3
_ _ _ _ _ _ _ _ _ _ _ _ _ _ _ _ _ _ _ _ _ _ 
 72
    65
 73
     2
 40
0.5
 49
0.25
 49
-0.25
  0
LTYPE
  2
DASHED
 70
    64
  3
__ __ __ __ __ __ __ __ __ __ __ __ __ __ __
 72
    65
 73
     2
 40
0.75
 49
0.5
 49
-0.25
  0
LTYPE
  2
DASHEDX2
 70
    64
  3
____  ____  ____  ____  ____  ____  ____  __
 72
    65
 73
     2
 40
1.5
 49
1.0
 49
-0.5
  0
LTYPE
  2
DOT
 70
    64
  3
............................................
 72
    65
 73
     2
 40
0.25
 49
0
 49
-0.25
  0
LTYPE
  2
DASHDOT
 70
    64
  3
__ . __ . __ . __ . __ . __ . __ . __ . __ .
 72
    65
 73
     4
 40
1.0
 49
0.5
 49
-0.25
 49
0.0
 49
-0.25
  0
LTYPE
  2
CENTER
 70
    64
  3
____ _ ____ _ ____ _ ____ _ ____ _ ____ _ __
 72
    65
 73
     4
 40
2.0
 49
1.25
 49
-0.25
 49
0.25
 49
-0.25
  0
LTYPE
  2
DIVIDE
 70
    64
  3
__ . . __ . . __ . . __ . . __ . . __ . . __
 72
    65
 73
     6
 40
1.25
 49
0.5
 49
-0.25
 49
0.0
 49
-0.25
 49
0.0
 49
-0.25
  0
LTYPE
  2
PHANTOM2
 70
    64
  3
___ _ _ ___ _ _ ___ _ _ ___ _ _ ___ _ _ ___ 
 72
    65
 73
     6
 40
1.25
 49
0.625
 49
-0.125
 49
0.125
 49
-0.125
 49
0.125
 49
-0.125
  0
LTYPE
  2
DOTX2
 70
    64
  3
. . . . . . . . . . . . . . . . . . . . . . 
 72
    65
 73
     2
 40
0.5
 49
0
 49
-0.5
  0
ENDTAB
  0
TABLE
  2
LAYER
 70
   255
  0
LAYER
  2
0
 70
    64
 62
     7
  6
CONTINUOUS
  0
LAYER
  2
1
 70
    64
 62
     7
  6
CONTINUOUS
  0
LAYER
  2
2
 70
    64
 62
     7
  6
CONTINUOUS
  0
LAYER
  2
3
 70
    64
 62
     7
  6
CONTINUOUS
  0
LAYER
  2
4
 70
    64
 62
     7
  6
CONTINUOUS
  0
LAYER
  2
5
 70
    64
 62
     7
  6
CONTINUOUS
  0
LAYER
  2
6
 70
    64
 62
     7
  6
CONTINUOUS
  0
LAYER
  2
7
 70
    64
 62
     7
  6
CONTINUOUS
  0
LAYER
  2
8
 70
    64
 62
     7
  6
CONTINUOUS
  0
LAYER
  2
9
 70
    64
 62
     7
  6
CONTINUOUS
  0
LAYER
  2
10
 70
    64
 62
     7
  6
CONTINUOUS
  0
LAYER
  2
11
 70
    64
 62
     7
  6
CONTINUOUS
  0
LAYER
  2
12
 70
    64
 62
     7
  6
CONTINUOUS
  0
LAYER
  2
13
 70
    64
 62
     7
  6
CONTINUOUS
  0
LAYER
  2
14
 70
    64
 62
     7
  6
CONTINUOUS
  0
LAYER
  2
15
 70
    64
 62
     7
  6
CONTINUOUS
  0
LAYER
  2
16
 70
    64
 62
     7
  6
CONTINUOUS
  0
LAYER
  2
17
 70
    64
 62
     7
  6
CONTINUOUS
  0
LAYER
  2
18
 70
    64
 62
     7
  6
CONTINUOUS
  0
LAYER
  2
19
 70
    64
 62
     7
  6
CONTINUOUS
  0
LAYER
  2
20
 70
    64
 62
     7
  6
CONTINUOUS
  0
LAYER
  2
21
 70
    64
 62
     7
  6
CONTINUOUS
  0
LAYER
  2
22
 70
    64
 62
     7
  6
CONTINUOUS
  0
LAYER
  2
23
 70
    64
 62
     7
  6
CONTINUOUS
  0
LAYER
  2
24
 70
    64
 62
     7
  6
CONTINUOUS
  0
LAYER
  2
25
 70
    64
 62
     7
  6
CONTINUOUS
  0
LAYER
  2
26
 70
    64
 62
     7
  6
CONTINUOUS
  0
LAYER
  2
27
 70
    64
 62
     7
  6
CONTINUOUS
  0
LAYER
  2
28
 70
    64
 62
     7
  6
CONTINUOUS
  0
LAYER
  2
29
 70
    64
 62
     7
  6
CONTINUOUS
  0
LAYER
  2
30
 70
    64
 62
     7
  6
CONTINUOUS
  0
LAYER
  2
31
 70
    64
 62
     7
  6
CONTINUOUS
  0
LAYER
  2
32
 70
    64
 62
     7
  6
CONTINUOUS
  0
LAYER
  2
33
 70
    64
 62
     7
  6
CONTINUOUS
  0
LAYER
  2
34
 70
    64
 62
     7
  6
CONTINUOUS
  0
LAYER
  2
35
 70
    64
 62
     7
  6
CONTINUOUS
  0
LAYER
  2
36
 70
    64
 62
     7
  6
CONTINUOUS
  0
LAYER
  2
37
 70
    64
 62
     7
  6
CONTINUOUS
  0
LAYER
  2
38
 70
    64
 62
     7
  6
CONTINUOUS
  0
LAYER
  2
39
 70
    64
 62
     7
  6
CONTINUOUS
  0
LAYER
  2
40
 70
    64
 62
     7
  6
CONTINUOUS
  0
LAYER
  2
41
 70
    64
 62
     7
  6
CONTINUOUS
  0
LAYER
  2
42
 70
    64
 62
     7
  6
CONTINUOUS
  0
LAYER
  2
43
 70
    64
 62
     7
  6
CONTINUOUS
  0
LAYER
  2
44
 70
    64
 62
     7
  6
CONTINUOUS
  0
LAYER
  2
45
 70
    64
 62
     7
  6
CONTINUOUS
  0
LAYER
  2
46
 70
    64
 62
     7
  6
CONTINUOUS
  0
LAYER
  2
47
 70
    64
 62
     7
  6
CONTINUOUS
  0
LAYER
  2
48
 70
    64
 62
     7
  6
CONTINUOUS
  0
LAYER
  2
49
 70
    64
 62
     7
  6
CONTINUOUS
  0
LAYER
  2
50
 70
    64
 62
     7
  6
CONTINUOUS
  0
LAYER
  2
51
 70
    64
 62
     7
  6
CONTINUOUS
  0
LAYER
  2
52
 70
    64
 62
     7
  6
CONTINUOUS
  0
LAYER
  2
53
 70
    64
 62
     7
  6
CONTINUOUS
  0
LAYER
  2
54
 70
    64
 62
     7
  6
CONTINUOUS
  0
LAYER
  2
55
 70
    64
 62
     7
  6
CONTINUOUS
  0
LAYER
  2
56
 70
    64
 62
     7
  6
CONTINUOUS
  0
LAYER
  2
57
 70
    64
 62
     7
  6
CONTINUOUS
  0
LAYER
  2
58
 70
    64
 62
     7
  6
CONTINUOUS
  0
LAYER
  2
59
 70
    64
 62
     7
  6
CONTINUOUS
  0
LAYER
  2
60
 70
    64
 62
     7
  6
CONTINUOUS
  0
LAYER
  2
61
 70
    64
 62
     7
  6
CONTINUOUS
  0
LAYER
  2
62
 70
    64
 62
     7
  6
CONTINUOUS
  0
LAYER
  2
63
 70
    64
 62
     7
  6
CONTINUOUS
  0
LAYER
  2
64
 70
    64
 62
     7
  6
CONTINUOUS
  0
LAYER
  2
65
 70
    64
 62
     7
  6
CONTINUOUS
  0
LAYER
  2
66
 70
    64
 62
     7
  6
CONTINUOUS
  0
LAYER
  2
67
 70
    64
 62
     7
  6
CONTINUOUS
  0
LAYER
  2
68
 70
    64
 62
     7
  6
CONTINUOUS
  0
LAYER
  2
69
 70
    64
 62
     7
  6
CONTINUOUS
  0
LAYER
  2
70
 70
    64
 62
     7
  6
CONTINUOUS
  0
LAYER
  2
71
 70
    64
 62
     7
  6
CONTINUOUS
  0
LAYER
  2
72
 70
    64
 62
     7
  6
CONTINUOUS
  0
LAYER
  2
73
 70
    64
 62
     7
  6
CONTINUOUS
  0
LAYER
  2
74
 70
    64
 62
     7
  6
CONTINUOUS
  0
LAYER
  2
75
 70
    64
 62
     7
  6
CONTINUOUS
  0
LAYER
  2
76
 70
    64
 62
     7
  6
CONTINUOUS
  0
LAYER
  2
77
 70
    64
 62
     7
  6
CONTINUOUS
  0
LAYER
  2
78
 70
    64
 62
     7
  6
CONTINUOUS
  0
LAYER
  2
79
 70
    64
 62
     7
  6
CONTINUOUS
  0
LAYER
  2
80
 70
    64
 62
     7
  6
CONTINUOUS
  0
LAYER
  2
81
 70
    64
 62
     7
  6
CONTINUOUS
  0
LAYER
  2
82
 70
    64
 62
     7
  6
CONTINUOUS
  0
LAYER
  2
83
 70
    64
 62
     7
  6
CONTINUOUS
  0
LAYER
  2
84
 70
    64
 62
     7
  6
CONTINUOUS
  0
LAYER
  2
85
 70
    64
 62
     7
  6
CONTINUOUS
  0
LAYER
  2
86
 70
    64
 62
     7
  6
CONTINUOUS
  0
LAYER
  2
87
 70
    64
 62
     7
  6
CONTINUOUS
  0
LAYER
  2
88
 70
    64
 62
     7
  6
CONTINUOUS
  0
LAYER
  2
89
 70
    64
 62
     7
  6
CONTINUOUS
  0
LAYER
  2
90
 70
    64
 62
     7
  6
CONTINUOUS
  0
LAYER
  2
91
 70
    64
 62
     7
  6
CONTINUOUS
  0
LAYER
  2
92
 70
    64
 62
     7
  6
CONTINUOUS
  0
LAYER
  2
93
 70
    64
 62
     7
  6
CONTINUOUS
  0
LAYER
  2
94
 70
    64
 62
     7
  6
CONTINUOUS
  0
LAYER
  2
95
 70
    64
 62
     7
  6
CONTINUOUS
  0
LAYER
  2
96
 70
    64
 62
     7
  6
CONTINUOUS
  0
LAYER
  2
97
 70
    64
 62
     7
  6
CONTINUOUS
  0
LAYER
  2
98
 70
    64
 62
     7
  6
CONTINUOUS
  0
LAYER
  2
99
 70
    64
 62
     7
  6
CONTINUOUS
  0
LAYER
  2
100
 70
    64
 62
     7
  6
CONTINUOUS
  0
LAYER
  2
101
 70
    64
 62
     7
  6
CONTINUOUS
  0
LAYER
  2
102
 70
    64
 62
     7
  6
CONTINUOUS
  0
LAYER
  2
103
 70
    64
 62
     7
  6
CONTINUOUS
  0
LAYER
  2
104
 70
    64
 62
     7
  6
CONTINUOUS
  0
LAYER
  2
105
 70
    64
 62
     7
  6
CONTINUOUS
  0
LAYER
  2
106
 70
    64
 62
     7
  6
CONTINUOUS
  0
LAYER
  2
107
 70
    64
 62
     7
  6
CONTINUOUS
  0
LAYER
  2
108
 70
    64
 62
     7
  6
CONTINUOUS
  0
LAYER
  2
109
 70
    64
 62
     7
  6
CONTINUOUS
  0
LAYER
  2
110
 70
    64
 62
     7
  6
CONTINUOUS
  0
LAYER
  2
111
 70
    64
 62
     7
  6
CONTINUOUS
  0
LAYER
  2
112
 70
    64
 62
     7
  6
CONTINUOUS
  0
LAYER
  2
113
 70
    64
 62
     7
  6
CONTINUOUS
  0
LAYER
  2
114
 70
    64
 62
     7
  6
CONTINUOUS
  0
LAYER
  2
115
 70
    64
 62
     7
  6
CONTINUOUS
  0
LAYER
  2
116
 70
    64
 62
     7
  6
CONTINUOUS
  0
LAYER
  2
117
 70
    64
 62
     7
  6
CONTINUOUS
  0
LAYER
  2
118
 70
    64
 62
     7
  6
CONTINUOUS
  0
LAYER
  2
119
 70
    64
 62
     7
  6
CONTINUOUS
  0
LAYER
  2
120
 70
    64
 62
     7
  6
CONTINUOUS
  0
LAYER
  2
121
 70
    64
 62
     7
  6
CONTINUOUS
  0
LAYER
  2
122
 70
    64
 62
     7
  6
CONTINUOUS
  0
LAYER
  2
123
 70
    64
 62
     7
  6
CONTINUOUS
  0
LAYER
  2
124
 70
    64
 62
     7
  6
CONTINUOUS
  0
LAYER
  2
125
 70
    64
 62
     7
  6
CONTINUOUS
  0
LAYER
  2
126
 70
    64
 62
     7
  6
CONTINUOUS
  0
LAYER
  2
127
 70
    64
 62
     7
  6
CONTINUOUS
  0
LAYER
  2
128
 70
    64
 62
     7
  6
CONTINUOUS
  0
LAYER
  2
129
 70
    64
 62
     7
  6
CONTINUOUS
  0
LAYER
  2
130
 70
    64
 62
     7
  6
CONTINUOUS
  0
LAYER
  2
131
 70
    64
 62
     7
  6
CONTINUOUS
  0
LAYER
  2
132
 70
    64
 62
     7
  6
CONTINUOUS
  0
LAYER
  2
133
 70
    64
 62
     7
  6
CONTINUOUS
  0
LAYER
  2
134
 70
    64
 62
     7
  6
CONTINUOUS
  0
LAYER
  2
135
 70
    64
 62
     7
  6
CONTINUOUS
  0
LAYER
  2
136
 70
    64
 62
     7
  6
CONTINUOUS
  0
LAYER
  2
137
 70
    64
 62
     7
  6
CONTINUOUS
  0
LAYER
  2
138
 70
    64
 62
     7
  6
CONTINUOUS
  0
LAYER
  2
139
 70
    64
 62
     7
  6
CONTINUOUS
  0
LAYER
  2
140
 70
    64
 62
     7
  6
CONTINUOUS
  0
LAYER
  2
141
 70
    64
 62
     7
  6
CONTINUOUS
  0
LAYER
  2
142
 70
    64
 62
     7
  6
CONTINUOUS
  0
LAYER
  2
143
 70
    64
 62
     7
  6
CONTINUOUS
  0
LAYER
  2
144
 70
    64
 62
     7
  6
CONTINUOUS
  0
LAYER
  2
145
 70
    64
 62
     7
  6
CONTINUOUS
  0
LAYER
  2
146
 70
    64
 62
     7
  6
CONTINUOUS
  0
LAYER
  2
147
 70
    64
 62
     7
  6
CONTINUOUS
  0
LAYER
  2
148
 70
    64
 62
     7
  6
CONTINUOUS
  0
LAYER
  2
149
 70
    64
 62
     7
  6
CONTINUOUS
  0
LAYER
  2
150
 70
    64
 62
     7
  6
CONTINUOUS
  0
LAYER
  2
151
 70
    64
 62
     7
  6
CONTINUOUS
  0
LAYER
  2
152
 70
    64
 62
     7
  6
CONTINUOUS
  0
LAYER
  2
153
 70
    64
 62
     7
  6
CONTINUOUS
  0
LAYER
  2
154
 70
    64
 62
     7
  6
CONTINUOUS
  0
LAYER
  2
155
 70
    64
 62
     7
  6
CONTINUOUS
  0
LAYER
  2
156
 70
    64
 62
     7
  6
CONTINUOUS
  0
LAYER
  2
157
 70
    64
 62
     7
  6
CONTINUOUS
  0
LAYER
  2
158
 70
    64
 62
     7
  6
CONTINUOUS
  0
LAYER
  2
159
 70
    64
 62
     7
  6
CONTINUOUS
  0
LAYER
  2
160
 70
    64
 62
     7
  6
CONTINUOUS
  0
LAYER
  2
161
 70
    64
 62
     7
  6
CONTINUOUS
  0
LAYER
  2
162
 70
    64
 62
     7
  6
CONTINUOUS
  0
LAYER
  2
163
 70
    64
 62
     7
  6
CONTINUOUS
  0
LAYER
  2
164
 70
    64
 62
     7
  6
CONTINUOUS
  0
LAYER
  2
165
 70
    64
 62
     7
  6
CONTINUOUS
  0
LAYER
  2
166
 70
    64
 62
     7
  6
CONTINUOUS
  0
LAYER
  2
167
 70
    64
 62
     7
  6
CONTINUOUS
  0
LAYER
  2
168
 70
    64
 62
     7
  6
CONTINUOUS
  0
LAYER
  2
169
 70
    64
 62
     7
  6
CONTINUOUS
  0
LAYER
  2
170
 70
    64
 62
     7
  6
CONTINUOUS
  0
LAYER
  2
171
 70
    64
 62
     7
  6
CONTINUOUS
  0
LAYER
  2
172
 70
    64
 62
     7
  6
CONTINUOUS
  0
LAYER
  2
173
 70
    64
 62
     7
  6
CONTINUOUS
  0
LAYER
  2
174
 70
    64
 62
     7
  6
CONTINUOUS
  0
LAYER
  2
175
 70
    64
 62
     7
  6
CONTINUOUS
  0
LAYER
  2
176
 70
    64
 62
     7
  6
CONTINUOUS
  0
LAYER
  2
177
 70
    64
 62
     7
  6
CONTINUOUS
  0
LAYER
  2
178
 70
    64
 62
     7
  6
CONTINUOUS
  0
LAYER
  2
179
 70
    64
 62
     7
  6
CONTINUOUS
  0
LAYER
  2
180
 70
    64
 62
     7
  6
CONTINUOUS
  0
LAYER
  2
181
 70
    64
 62
     7
  6
CONTINUOUS
  0
LAYER
  2
182
 70
    64
 62
     7
  6
CONTINUOUS
  0
LAYER
  2
183
 70
    64
 62
     7
  6
CONTINUOUS
  0
LAYER
  2
184
 70
    64
 62
     7
  6
CONTINUOUS
  0
LAYER
  2
185
 70
    64
 62
     7
  6
CONTINUOUS
  0
LAYER
  2
186
 70
    64
 62
     7
  6
CONTINUOUS
  0
LAYER
  2
187
 70
    64
 62
     7
  6
CONTINUOUS
  0
LAYER
  2
188
 70
    64
 62
     7
  6
CONTINUOUS
  0
LAYER
  2
189
 70
    64
 62
     7
  6
CONTINUOUS
  0
LAYER
  2
190
 70
    64
 62
     7
  6
CONTINUOUS
  0
LAYER
  2
191
 70
    64
 62
     7
  6
CONTINUOUS
  0
LAYER
  2
192
 70
    64
 62
     7
  6
CONTINUOUS
  0
LAYER
  2
193
 70
    64
 62
     7
  6
CONTINUOUS
  0
LAYER
  2
194
 70
    64
 62
     7
  6
CONTINUOUS
  0
LAYER
  2
195
 70
    64
 62
     7
  6
CONTINUOUS
  0
LAYER
  2
196
 70
    64
 62
     7
  6
CONTINUOUS
  0
LAYER
  2
197
 70
    64
 62
     7
  6
CONTINUOUS
  0
LAYER
  2
198
 70
    64
 62
     7
  6
CONTINUOUS
  0
LAYER
  2
199
 70
    64
 62
     7
  6
CONTINUOUS
  0
LAYER
  2
200
 70
    64
 62
     7
  6
CONTINUOUS
  0
LAYER
  2
201
 70
    64
 62
     7
  6
CONTINUOUS
  0
LAYER
  2
202
 70
    64
 62
     7
  6
CONTINUOUS
  0
LAYER
  2
203
 70
    64
 62
     7
  6
CONTINUOUS
  0
LAYER
  2
204
 70
    64
 62
     7
  6
CONTINUOUS
  0
LAYER
  2
205
 70
    64
 62
     7
  6
CONTINUOUS
  0
LAYER
  2
206
 70
    64
 62
     7
  6
CONTINUOUS
  0
LAYER
  2
207
 70
    64
 62
     7
  6
CONTINUOUS
  0
LAYER
  2
208
 70
    64
 62
     7
  6
CONTINUOUS
  0
LAYER
  2
209
 70
    64
 62
     7
  6
CONTINUOUS
  0
LAYER
  2
210
 70
    64
 62
     7
  6
CONTINUOUS
  0
LAYER
  2
211
 70
    64
 62
     7
  6
CONTINUOUS
  0
LAYER
  2
212
 70
    64
 62
     7
  6
CONTINUOUS
  0
LAYER
  2
213
 70
    64
 62
     7
  6
CONTINUOUS
  0
LAYER
  2
214
 70
    64
 62
     7
  6
CONTINUOUS
  0
LAYER
  2
215
 70
    64
 62
     7
  6
CONTINUOUS
  0
LAYER
  2
216
 70
    64
 62
     7
  6
CONTINUOUS
  0
LAYER
  2
217
 70
    64
 62
     7
  6
CONTINUOUS
  0
LAYER
  2
218
 70
    64
 62
     7
  6
CONTINUOUS
  0
LAYER
  2
219
 70
    64
 62
     7
  6
CONTINUOUS
  0
LAYER
  2
220
 70
    64
 62
     7
  6
CONTINUOUS
  0
LAYER
  2
221
 70
    64
 62
     7
  6
CONTINUOUS
  0
LAYER
  2
222
 70
    64
 62
     7
  6
CONTINUOUS
  0
LAYER
  2
223
 70
    64
 62
     7
  6
CONTINUOUS
  0
LAYER
  2
224
 70
    64
 62
     7
  6
CONTINUOUS
  0
LAYER
  2
225
 70
    64
 62
     7
  6
CONTINUOUS
  0
LAYER
  2
226
 70
    64
 62
     7
  6
CONTINUOUS
  0
LAYER
  2
227
 70
    64
 62
     7
  6
CONTINUOUS
  0
LAYER
  2
228
 70
    64
 62
     7
  6
CONTINUOUS
  0
LAYER
  2
229
 70
    64
 62
     7
  6
CONTINUOUS
  0
LAYER
  2
230
 70
    64
 62
     7
  6
CONTINUOUS
  0
LAYER
  2
231
 70
    64
 62
     7
  6
CONTINUOUS
  0
LAYER
  2
232
 70
    64
 62
     7
  6
CONTINUOUS
  0
LAYER
  2
233
 70
    64
 62
     7
  6
CONTINUOUS
  0
LAYER
  2
234
 70
    64
 62
     7
  6
CONTINUOUS
  0
LAYER
  2
235
 70
    64
 62
     7
  6
CONTINUOUS
  0
LAYER
  2
236
 70
    64
 62
     7
  6
CONTINUOUS
  0
LAYER
  2
237
 70
    64
 62
     7
  6
CONTINUOUS
  0
LAYER
  2
238
 70
    64
 62
     7
  6
CONTINUOUS
  0
LAYER
  2
239
 70
    64
 62
     7
  6
CONTINUOUS
  0
LAYER
  2
240
 70
    64
 62
     7
  6
CONTINUOUS
  0
LAYER
  2
241
 70
    64
 62
     7
  6
CONTINUOUS
  0
LAYER
  2
242
 70
    64
 62
     7
  6
CONTINUOUS
  0
LAYER
  2
243
 70
    64
 62
     7
  6
CONTINUOUS
  0
LAYER
  2
244
 70
    64
 62
     7
  6
CONTINUOUS
  0
LAYER
  2
245
 70
    64
 62
     7
  6
CONTINUOUS
  0
LAYER
  2
246
 70
    64
 62
     7
  6
CONTINUOUS
  0
LAYER
  2
247
 70
    64
 62
     7
  6
CONTINUOUS
  0
LAYER
  2
248
 70
    64
 62
     7
  6
CONTINUOUS
  0
LAYER
  2
249
 70
    64
 62
     7
  6
CONTINUOUS
  0
LAYER
  2
250
 70
    64
 62
     7
  6
CONTINUOUS
  0
LAYER
  2
251
 70
    64
 62
     7
  6
CONTINUOUS
  0
LAYER
  2
252
 70
    64
 62
     7
  6
CONTINUOUS
  0
LAYER
  2
253
 70
    64
 62
     7
  6
CONTINUOUS
  0
LAYER
  2
254
 70
    64
 62
     7
  6
CONTINUOUS
  0
LAYER
  2
255
 70
    64
 62
     7
  6
CONTINUOUS
  0
ENDTAB
  0
TABLE
  2
STYLE
 70
     2
  0
STYLE
  2
STANDARD
 70
    64
 40
0.0
 41
1.0
 50
0.0
 71
     0
 42
3.000000
  3
TXT
  4
BIGFONT
  0
ENDTAB
  0
ENDSEC
  0
SECTION
  2
BLOCKS
  0
BLOCK
  8
0
  2
CADWIN-G0
 70
    0
 10
0.0
 20
0.0
  0
LINE
  8
0
  6
CONTINUOUS
 62
     3
 10
-40.56227674999996
 20
-81.599999999999994
 11
-40.56227674999996
 21
-87.378312160000007
  0
LINE
  8
0
  6
CONTINUOUS
 62
     3
 10
-48.056723249999962
 20
-81.599999999999994
 11
-48.056723249999962
 21
-87.378312160000007
  0
ARC
  8
0
  6
CONTINUOUS
 62
     3
 10
-44.309499999999957
 20
-78.010793360000008
 40
 10.08920664
 50
-111.80254887714534
 51
-68.197454193322514
  0
LINE
  8
0
  6
CONTINUOUS
 62
     3
 10
-38.685888369999958
 20
-88.099999999999994
 11
-49.933111629999956
 21
-88.099999999999994
  0
LINE
  8
0
  6
CONTINUOUS
 62
     3
 10
-36.809499999999957
 20
-81.599999999999994
 11
-36.809499999999957
 21
-87.378312160000007
  0
LINE
  8
0
  6
CONTINUOUS
 62
     3
 10
-36.609499999999954
 20
-79.599999999999994
 11
-36.609499999999954
 21
-81.599999999999994
  0
LINE
  8
0
  6
CONTINUOUS
 62
     3
 10
-35.809499999999957
 20
-78
 11
-35.809499999999957
 21
-79.599999999999994
  0
LINE
  8
0
  6
CONTINUOUS
 62
     3
 10
-36.609499999999954
 20
-79.599999999999994
 11
-35.809499999999957
 21
-79.599999999999994
  0
LINE
  8
0
  6
CONTINUOUS
 62
     3
 10
-36.809499999999957
 20
-81.599999999999994
 11
-36.609499999999954
 21
-81.599999999999994
  0
ARC
  8
0
  6
CONTINUOUS
 62
     3
 10
-38.685888369999958
 20
-85.299851189999998
 40
 2.80014881
 50
-96.757503800504495
 51
-47.924978767511362
  0
ARC
  8
0
  6
CONTINUOUS
 62
     3
 10
-38.685888369999958
 20
-85.299851189999998
 40
 2.80014881
 50
-132.07502430295651
 51
-96.757503800504495
  0
ARC
  8
0
  6
CONTINUOUS
 62
     3
 10
-49.933111629999956
 20
-85.299851189999998
 40
 2.80014881
 50
-83.396188812585052
 51
-47.924978767511362
  0
ARC
  8
0
  6
CONTINUOUS
 62
     3
 10
-49.933111629999956
 20
-85.299851189999998
 40
 2.80014881
 50
-132.07502430295651
 51
-83.396188812585052
  0
LINE
  8
0
  6
CONTINUOUS
 62
     3
 10
-51.809499999999957
 20
-81.599999999999994
 11
-51.809499999999957
 21
-87.378312160000007
  0
LINE
  8
0
  6
CONTINUOUS
 62
     3
 10
-52.00949999999996
 20
-79.599999999999994
 11
-52.00949999999996
 21
-81.599999999999994
  0
LINE
  8
0
  6
CONTINUOUS
 62
     3
 10
-52.809499999999957
 20
-78
 11
-52.809499999999957
 21
-79.599999999999994
  0
LINE
  8
0
  6
CONTINUOUS
 62
     3
 10
-52.00949999999996
 20
-79.599999999999994
 11
-36.609499999999954
 21
-79.599999999999994
  0
LINE
  8
0
  6
CONTINUOUS
 62
     3
 10
-52.809499999999957
 20
-79.599999999999994
 11
-52.00949999999996
 21
-79.599999999999994
  0
LINE
  8
0
  6
CONTINUOUS
 62
     3
 10
-51.809499999999957
 20
-81.599999999999994
 11
-36.809499999999957
 21
-81.599999999999994
  0
LINE
  8
0
  6
CONTINUOUS
 62
     3
 10
-52.00949999999996
 20
-81.599999999999994
 11
-51.809499999999957
 21
-81.599999999999994
  0
LINE
  8
0
  6
CONTINUOUS
 62
     3
 10
-44.309499999999957
 20
-81.599999999999994
 11
-44.845398379999963
 21
-79.599999999999994
  0
LINE
  8
0
  6
CONTINUOUS
 62
     3
 10
-43.773601619999951
 20
-81.599999999999994
 11
-44.309499999999957
 21
-79.599999999999994
  0
ENDBLK
  8
0
  0
BLOCK
  8
0
  2
CADWIN-G1
 70
    0
 10
0.0
 20
0.0
  0
LINE
  8
0
  6
CONTINUOUS
 62
     3
 10
 60.690500000000043
 20
-81.599999999999994
 11
 60.690500000000043
 21
-87.378312160000007
  0
ARC
  8
0
  6
CONTINUOUS
 62
     3
 10
 63.940500000000043
 20
-80.463518759999999
 40
 7.6404756300000001
 50
-115.17384614465347
 51
-64.82615692581436
  0
ARC
  8
0
  6
CONTINUOUS
 62
     3
 10
 57.440500000000043
 20
-80.463518759999999
 40
 7.6404756300000001
 50
-115.17384614465347
 51
-64.82615692581436
  0
ARC
  8
0
  6
CONTINUOUS
 62
     3
 10
 57.440500000000043
 20
-80.463518759999999
 40
 7.6404756300000001
 50
-115.17384614465347
 51
-64.82615692581436
  0
ARC
  8
0
  6
CONTINUOUS
 62
     3
 10
 57.440500000000043
 20
-80.463518759999999
 40
 7.6404756300000001
 50
-115.17384614465347
 51
-64.82615692581436
  0
LINE
  8
0
  6
CONTINUOUS
 62
     3
 10
 60.690500000000043
 20
-81.599999999999994
 11
 60.154601620000044
 21
-79.599999999999994
  0
LINE
  8
0
  6
CONTINUOUS
 62
     3
 10
 61.226398380000042
 20
-81.599999999999994
 11
 60.690500000000043
 21
-79.599999999999994
  0
LINE
  8
0
  6
CONTINUOUS
 62
     3
 10
 54.190500000000043
 20
-81.599999999999994
 11
 67.190500000000043
 21
-81.599999999999994
  0
LINE
  8
0
  6
CONTINUOUS
 62
     3
 10
 52.99050000000004
 20
-79.599999999999994
 11
 68.390500000000046
 21
-79.599999999999994
  0
LINE
  8
0
  6
CONTINUOUS
 62
     3
 10
 54.190500000000043
 20
-88.099999999999994
 11
 67.190500000000043
 21
-88.099999999999994
  0
LINE
  8
0
  6
CONTINUOUS
 62
     3
 10
 67.190500000000043
 20
-81.599999999999994
 11
 67.190500000000043
 21
-88.099999999999994
  0
LINE
  8
0
  6
CONTINUOUS
 62
     3
 10
 54.190500000000043
 20
-81.599999999999994
 11
 54.190500000000043
 21
-88.099999999999994
  0
LINE
  8
0
  6
CONTINUOUS
 62
     3
 10
 68.390500000000046
 20
-79.599999999999994
 11
 68.390500000000046
 21
-81.599999999999994
  0
LINE
  8
0
  6
CONTINUOUS
 62
     3
 10
 68.390500000000046
 20
-81.599999999999994
 11
 67.190500000000043
 21
-81.599999999999994
  0
LINE
  8
0
  6
CONTINUOUS
 62
     3
 10
 52.99050000000004
 20
-79.599999999999994
 11
 52.99050000000004
 21
-81.599999999999994
  0
LINE
  8
0
  6
CONTINUOUS
 62
     3
 10
 54.190500000000043
 20
-81.599999999999994
 11
 52.99050000000004
 21
-81.599999999999994
  0
LINE
  8
0
  6
CONTINUOUS
 62
     3
 10
 69.190500000000043
 20
-78
 11
 69.190500000000043
 21
-79.599999999999994
  0
LINE
  8
0
  6
CONTINUOUS
 62
     3
 10
 52.190500000000043
 20
-78
 11
 52.190500000000043
 21
-79.599999999999994
  0
LINE
  8
0
  6
CONTINUOUS
 62
     3
 10
 68.390500000000046
 20
-79.599999999999994
 11
 69.190500000000043
 21
-79.599999999999994
  0
LINE
  8
0
  6
CONTINUOUS
 62
     3
 10
 52.190500000000043
 20
-79.599999999999994
 11
 52.99050000000004
 21
-79.599999999999994
  0
ENDBLK
  8
0
  0
ENDSEC
  0
SECTION
  2
ENTITIES
  0
LINE
  8
0
  6
DASHDOT
 62
     7
 10
-44.309499999999957
 20
 71
 11
-44.309499999999957
 21
 20
  0
LINE
  8
0
  6
DASHDOT
 62
     7
 10
-14.309499999999957
 20
 46
 11
-74.309499999999957
 21
 46
  0
LINE
  8
0
  6
DASHDOT
 62
     7
 10
-59.309499999999957
 20
-23
 11
-29.309499999999957
 21
-23
  0
LINE
  8
0
  6
DASHDOT
 62
     7
 10
 60.690500000000043
 20
-10
 11
 60.690500000000043
 21
-99
  0
LINE
  8
0
  6
DASHDOT
 62
     7
 10
 60.690500000000043
 20
 16
 11
 60.690500000000043
 21
 10.5
  0
LINE
  8
0
  6
DASHDOT
 62
     7
 10
-44.309499999999957
 20
 14
 11
-44.309499999999957
 21
-96.916431310000007
  0
LINE
  8
0
  6
DASHDOT
 62
     7
 10
 40.690500000000043
 20
-23
 11
 80.690500000000043
 21
-23
  0
LINE
  8
0
  6
CONTINUOUS
 62
     3
 10
-58.021568889999955
 20
 68.25
 11
-70.434599679999963
 21
 46.75
  0
LINE
  8
0
  6
CONTINUOUS
 62
     3
 10
-70.434599679999963
 20
 45.25
 11
-58.021568889999955
 21
 23.75
  0
LINE
  8
0
  6
CONTINUOUS
 62
     3
 10
-56.722530789999951
 20
 23
 11
-31.896469209999957
 21
 23
  0
LINE
  8
0
  6
CONTINUOUS
 62
     3
 10
-18.184400319999959
 20
 45.25
 11
-30.59743110999996
 21
 23.75
  0
LINE
  8
0
  6
CONTINUOUS
 62
     3
 10
-56.722530789999951
 20
 69
 11
-31.896469209999957
 21
 69
  0
LINE
  8
0
  6
CONTINUOUS
 62
     3
 10
-30.59743110999996
 20
 68.25
 11
-18.184400319999959
 21
 46.75
  0
LINE
  8
0
  6
CONTINUOUS
 62
     3
 10
-68.290262109999958
 20
 11
 11
-20.328737889999957
 21
 11
  0
LINE
  8
0
  6
CONTINUOUS
 62
     3
 10
-70.290262109999958
 20
 9
 11
-70.290262109999958
 21
-9
  0
LINE
  8
0
  6
CONTINUOUS
 62
     3
 10
-57.290262109999958
 20
 9
 11
-57.290262109999958
 21
-9
  0
LINE
  8
0
  6
CONTINUOUS
 62
     3
 10
-18.328737889999957
 20
-9
 11
-70.290262109999958
 21
-9
  0
LINE
  8
0
  6
CONTINUOUS
 62
     3
 10
-18.328737889999957
 20
 9
 11
-18.328737889999957
 21
-9
  0
LINE
  8
0
  6
CONTINUOUS
 62
     3
 10
-31.328737889999957
 20
 9
 11
-31.328737889999957
 21
-9
  0
ARC
  8
0
  6
CONTINUOUS
 62
     3
 10
-29.328737889999957
 20
 9
 40
 2
 50
 90.000001535234716
 51
-180.00000307046864
  0
ARC
  8
0
  6
CONTINUOUS
 62
     3
 10
-33.328737889999957
 20
 9
 40
 2
 50
 0
 51
 90.000001535234716
  0
ARC
  8
0
  6
CONTINUOUS
 62
     3
 10
-55.290262109999958
 20
 9
 40
 2
 50
 90.000001535234716
 51
-180.00000307046864
  0
ARC
  8
0
  6
CONTINUOUS
 62
     3
 10
-59.290262109999958
 20
 9
 40
 2
 50
 0
 51
 90.000001535234716
  0
ARC
  8
0
  6
CONTINUOUS
 62
     3
 10
-68.290262109999958
 20
 9
 40
 2
 50
 90.000001535234716
 51
-180.00000307046864
  0
ARC
  8
0
  6
CONTINUOUS
 62
     3
 10
-20.328737889999957
 20
 9
 40
 2
 50
 0
 51
 90.000001535234716
  0
LINE
  8
0
  6
CONTINUOUS
 62
     3
 10
-57.309499999999957
 20
-73
 11
-60.309499999999957
 21
-73
  0
LINE
  8
0
  6
CONTINUOUS
 62
     3
 10
-62.309499999999957
 20
-70
 11
-62.309499999999957
 21
-71
  0
LINE
  8
0
  6
CONTINUOUS
 62
     3
 10
-56.309499999999957
 20
-78
 11
-56.309499999999957
 21
-74
  0
ARC
  8
0
  6
CONTINUOUS
 62
     3
 10
-44.309499999999957
 20
-23
 40
 10.5
 50
-180.00000307046864
 51
 0
  0
ARC
  8
0
  6
CONTINUOUS
 62
     3
 10
-59.309499999999957
 20
-38
 40
 3
 50
-180.00000307046864
 51
-90.00000153523392
  0
LINE
  8
0
  6
CONTINUOUS
 62
     3
 10
-59.309499999999957
 20
-41
 11
-57.559499999999957
 21
-41
  0
ARC
  8
0
  6
CONTINUOUS
 62
     3
 10
-57.559499999999957
 20
-42.25
 40
 1.25
 50
 0
 51
 90.000001535234716
  0
ARC
  8
0
  6
CONTINUOUS
 62
     3
 10
-57.309499999999957
 20
-74
 40
 1
 50
 0
 51
 90.000001535234716
  0
LINE
  8
0
  6
CONTINUOUS
 62
     3
 10
-56.937395799999962
 20
-48.67151303
 11
-60.557569469999962
 21
-48.218991320000001
  0
LINE
  8
0
  6
CONTINUOUS
 62
     3
 10
-56.937395799999962
 20
-55.32848697
 11
-60.557569469999962
 21
-55.781008679999999
  0
LINE
  8
0
  6
CONTINUOUS
 62
     3
 10
-56.937395799999962
 20
-60.67151303
 11
-60.557569469999962
 21
-60.218991320000001
  0
LINE
  8
0
  6
CONTINUOUS
 62
     3
 10
-56.937395799999962
 20
-67.32848697
 11
-60.557569469999962
 21
-67.781008679999999
  0
LINE
  8
0
  6
CONTINUOUS
 62
     3
 10
-57.185465269999952
 20
-43.35949566
 11
-60.557569469999962
 21
-43.781008679999999
  0
LINE
  8
0
  6
CONTINUOUS
 62
     3
 10
-56.309499999999957
 20
-42.25
 11
-56.309499999999957
 21
-42.367217779999997
  0
LINE
  8
0
  6
CONTINUOUS
 62
     3
 10
-62.309499999999957
 20
-46.234435560000001
 11
-62.309499999999957
 21
-45.765564439999999
  0
LINE
  8
0
  6
CONTINUOUS
 62
     3
 10
-54.309499999999957
 20
-52.351653339999999
 11
-54.309499999999957
 21
-51.648346660000001
  0
LINE
  8
0
  6
CONTINUOUS
 62
     3
 10
-62.309499999999957
 20
-58.234435560000001
 11
-62.309499999999957
 21
-57.765564439999999
  0
LINE
  8
0
  6
CONTINUOUS
 62
     3
 10
-62.309499999999957
 20
-70
 11
-62.309499999999957
 21
-69.765564439999991
  0
LINE
  8
0
  6
CONTINUOUS
 62
     3
 10
-54.309499999999957
 20
-64.351653339999999
 11
-54.309499999999957
 21
-63.648346660000001
  0
ARC
  8
0
  6
CONTINUOUS
 62
     3
 10
-60.309499999999957
 20
-45.765564439999999
 40
 2
 50
 97.125018006774397
 51
-180.00000307046864
  0
ARC
  8
0
  6
CONTINUOUS
 62
     3
 10
-60.309499999999957
 20
-46.234435560000001
 40
 2
 50
-180.00000307046864
 51
-97.125018006773644
  0
ARC
  8
0
  6
CONTINUOUS
 62
     3
 10
-60.309499999999957
 20
-57.765564439999999
 40
 2
 50
 97.125018006774397
 51
-180.00000307046864
  0
ARC
  8
0
  6
CONTINUOUS
 62
     3
 10
-60.309499999999957
 20
-58.234435560000001
 40
 2
 50
-180.00000307046864
 51
-97.125018006773644
  0
ARC
  8
0
  6
CONTINUOUS
 62
     3
 10
-60.309499999999957
 20
-69.765564439999991
 40
 2
 50
 97.125018006774397
 51
-180.00000307046864
  0
ARC
  8
0
  6
CONTINUOUS
 62
     3
 10
-60.309499999999957
 20
-71
 40
 2
 50
-180.00000307046864
 51
-90.00000153523392
  0
ARC
  8
0
  6
CONTINUOUS
 62
     3
 10
-57.309499999999957
 20
-51.648346660000001
 40
 3
 50
 0
 51
 82.874985063695021
  0
ARC
  8
0
  6
CONTINUOUS
 62
     3
 10
-57.309499999999957
 20
-52.351653339999999
 40
 3
 50
-82.87498506369424
 51
 0
  0
ARC
  8
0
  6
CONTINUOUS
 62
     3
 10
-57.309499999999957
 20
-63.648346660000001
 40
 3
 50
 0
 51
 82.874985063695021
  0
ARC
  8
0
  6
CONTINUOUS
 62
     3
 10
-57.309499999999957
 20
-64.351653339999999
 40
 3
 50
-82.87498506369424
 51
 0
  0
ARC
  8
0
  6
CONTINUOUS
 62
     3
 10
-57.309499999999957
 20
-42.367217779999997
 40
 1
 50
-82.87498506369424
 51
 0
  0
LINE
  8
0
  6
CONTINUOUS
 62
     3
 10
-31.309499999999957
 20
-73
 11
-28.309499999999957
 21
-73
  0
LINE
  8
0
  6
CONTINUOUS
 62
     3
 10
-26.309499999999957
 20
-70
 11
-26.309499999999957
 21
-71
  0
ARC
  8
0
  6
CONTINUOUS
 62
     3
 10
-31.309499999999957
 20
-74
 40
 1
 50
 90.000001535234716
 51
-180.00000307046864
  0
LINE
  8
0
  6
CONTINUOUS
 62
     3
 10
-31.68160419999996
 20
-48.67151303
 11
-28.06143052999996
 21
-48.218991320000001
  0
LINE
  8
0
  6
CONTINUOUS
 62
     3
 10
-31.68160419999996
 20
-55.32848697
 11
-28.06143052999996
 21
-55.781008679999999
  0
LINE
  8
0
  6
CONTINUOUS
 62
     3
 10
-31.68160419999996
 20
-60.67151303
 11
-28.06143052999996
 21
-60.218991320000001
  0
LINE
  8
0
  6
CONTINUOUS
 62
     3
 10
-31.68160419999996
 20
-67.32848697
 11
-28.06143052999996
 21
-67.781008679999999
  0
LINE
  8
0
  6
CONTINUOUS
 62
     3
 10
-31.433534729999955
 20
-43.35949566
 11
-28.06143052999996
 21
-43.781008679999999
  0
LINE
  8
0
  6
CONTINUOUS
 62
     3
 10
-32.309499999999957
 20
-42.25
 11
-32.309499999999957
 21
-42.367217779999997
  0
LINE
  8
0
  6
CONTINUOUS
 62
     3
 10
-26.309499999999957
 20
-46.234435560000001
 11
-26.309499999999957
 21
-45.765564439999999
  0
LINE
  8
0
  6
CONTINUOUS
 62
     3
 10
-34.309499999999957
 20
-52.351653339999999
 11
-34.309499999999957
 21
-51.648346660000001
  0
LINE
  8
0
  6
CONTINUOUS
 62
     3
 10
-26.309499999999957
 20
-58.234435560000001
 11
-26.309499999999957
 21
-57.765564439999999
  0
LINE
  8
0
  6
CONTINUOUS
 62
     3
 10
-26.309499999999957
 20
-70
 11
-26.309499999999957
 21
-69.765564439999991
  0
LINE
  8
0
  6
CONTINUOUS
 62
     3
 10
-34.309499999999957
 20
-64.351653339999999
 11
-34.309499999999957
 21
-63.648346660000001
  0
ARC
  8
0
  6
CONTINUOUS
 62
     3
 10
-28.309499999999957
 20
-45.765564439999999
 40
 2
 50
 0
 51
 82.874985063695021
  0
ARC
  8
0
  6
CONTINUOUS
 62
     3
 10
-28.309499999999957
 20
-46.234435560000001
 40
 2
 50
-82.87498506369424
 51
 0
  0
ARC
  8
0
  6
CONTINUOUS
 62
     3
 10
-28.309499999999957
 20
-57.765564439999999
 40
 2
 50
 0
 51
 82.874985063695021
  0
ARC
  8
0
  6
CONTINUOUS
 62
     3
 10
-28.309499999999957
 20
-58.234435560000001
 40
 2
 50
-82.87498506369424
 51
 0
  0
ARC
  8
0
  6
CONTINUOUS
 62
     3
 10
-28.309499999999957
 20
-69.765564439999991
 40
 2
 50
 0
 51
 82.874985063695021
  0
ARC
  8
0
  6
CONTINUOUS
 62
     3
 10
-28.309499999999957
 20
-71
 40
 2
 50
-90.00000153523392
 51
 0
  0
ARC
  8
0
  6
CONTINUOUS
 62
     3
 10
-31.309499999999957
 20
-51.648346660000001
 40
 3
 50
 97.125018006774397
 51
-180.00000307046864
  0
ARC
  8
0
  6
CONTINUOUS
 62
     3
 10
-31.309499999999957
 20
-52.351653339999999
 40
 3
 50
-180.00000307046864
 51
-97.125018006773644
  0
ARC
  8
0
  6
CONTINUOUS
 62
     3
 10
-31.309499999999957
 20
-63.648346660000001
 40
 3
 50
 97.125018006774397
 51
-180.00000307046864
  0
ARC
  8
0
  6
CONTINUOUS
 62
     3
 10
-31.309499999999957
 20
-64.351653339999999
 40
 3
 50
-180.00000307046864
 51
-97.125018006773644
  0
ARC
  8
0
  6
CONTINUOUS
 62
     3
 10
-31.309499999999957
 20
-42.367217779999997
 40
 1
 50
-180.00000307046864
 51
-97.125018006773644
  0
LINE
  8
0
  6
CONTINUOUS
 62
     3
 10
-29.309499999999957
 20
-41
 11
-31.059499999999957
 21
-41
  0
LINE
  8
0
  6
CONTINUOUS
 62
     3
 10
-32.309499999999957
 20
-78
 11
-32.309499999999957
 21
-74
  0
ARC
  8
0
  6
CONTINUOUS
 62
     3
 10
-31.059499999999957
 20
-42.25
 40
 1.25
 50
 90.000001535234716
 51
-180.00000307046864
  0
ARC
  8
0
  6
CONTINUOUS
 62
     3
 10
-29.309499999999957
 20
-38
 40
 3
 50
-90.00000153523392
 51
 0
  0
LINE
  8
0
  6
CONTINUOUS
 62
     3
 10
-32.309499999999957
 20
-78
 11
-56.309499999999957
 21
-78
  0
ARC
  8
0
  6
CONTINUOUS
 62
     3
 10
-44.309499999999957
 20
-23
 40
 13
 50
 60.000001023489816
 51
 120.00000204697963
  0
ARC
  8
0
  6
CONTINUOUS
 62
     3
 10
-44.309499999999957
 20
-23
 40
 10.5
 50
 27.580199670467543
 51
 152.41980340000185
  0
ARC
  8
0
  6
CONTINUOUS
 62
     3
 10
-54.059499999999957
 20
-17.9071128
 40
 0.5
 50
-180.00000307046864
 51
-27.580199670466747
  0
ARC
  8
0
  6
CONTINUOUS
 62
     3
 10
-34.559499999999957
 20
-17.9071128
 40
 0.5
 50
-152.41980340000109
 51
 0
  0
ARC
  8
0
  6
CONTINUOUS
 62
     3
 10
-51.309499999999957
 20
-10.875644350000002
 40
 1
 50
-180.00000307046864
 51
-60.000001023489006
  0
ARC
  8
0
  6
CONTINUOUS
 62
     3
 10
-37.309499999999957
 20
-10.875644350000002
 40
 1
 50
-120.00000204697884
 51
 0
  0
LINE
  8
0
  6
DOT
 62
     3
 10
-29.309499999999957
 20
-17
 11
-34.059499999999957
 21
-17
  0
LINE
  8
0
  6
DOT
 62
     3
 10
-54.559499999999957
 20
-17
 11
-59.309499999999957
 21
-17
  0
ARC
  8
0
  6
DOT
 62
     3
 10
-29.309499999999957
 20
-16
 40
 1
 50
-90.00000153523392
 51
 0
  0
ARC
  8
0
  6
DOT
 62
     3
 10
-59.309499999999957
 20
-16
 40
 1
 50
-180.00000307046864
 51
-90.00000153523392
  0
LINE
  8
0
  6
CONTINUOUS
 62
     3
 10
-62.309499999999957
 20
-9
 11
-62.309499999999957
 21
-38
  0
LINE
  8
0
  6
CONTINUOUS
 62
     3
 10
-54.809499999999957
 20
-23
 11
-54.809499999999957
 21
-9
  0
LINE
  8
0
  6
CONTINUOUS
 62
     3
 10
-26.309499999999957
 20
-9
 11
-26.309499999999957
 21
-38
  0
LINE
  8
0
  6
CONTINUOUS
 62
     3
 10
-33.809499999999957
 20
-23
 11
-33.809499999999957
 21
-9
  0
LINE
  8
0
  6
CONTINUOUS
 62
     3
 10
-36.309499999999957
 20
-9
 11
-36.309499999999957
 21
-10.875644350000002
  0
LINE
  8
0
  6
CONTINUOUS
 62
     3
 10
-52.309499999999957
 20
-9
 11
-52.309499999999957
 21
-10.875644350000002
  0
LINE
  8
0
  6
CONTINUOUS
 62
     3
 10
-34.059499999999957
 20
-9
 11
-34.059499999999957
 21
-17.9071128
  0
LINE
  8
0
  6
CONTINUOUS
 62
     3
 10
-54.559499999999957
 20
-9
 11
-54.559499999999957
 21
-17.9071128
  0
LINE
  8
0
  6
DOT
 62
     3
 10
-28.309499999999957
 20
-9
 11
-28.309499999999957
 21
-16
  0
LINE
  8
0
  6
DOT
 62
     3
 10
-60.309499999999957
 20
-9
 11
-60.309499999999957
 21
-16
  0
LINE
  8
0
  6
CONTINUOUS
 62
     3
 10
 47.690500000000043
 20
-73
 11
 44.690500000000043
 21
-73
  0
LINE
  8
0
  6
CONTINUOUS
 62
     3
 10
 42.690500000000043
 20
-70
 11
 42.690500000000043
 21
-71
  0
LINE
  8
0
  6
CONTINUOUS
 62
     3
 10
 48.690500000000043
 20
-78
 11
 48.690500000000043
 21
-74
  0
ARC
  8
0
  6
CONTINUOUS
 62
     3
 10
 47.690500000000043
 20
-74
 40
 1
 50
 0
 51
 90.000001535234716
  0
LINE
  8
0
  6
CONTINUOUS
 62
     3
 10
 48.062604200000038
 20
-48.67151303
 11
 44.442430530000038
 21
-48.218991320000001
  0
LINE
  8
0
  6
CONTINUOUS
 62
     3
 10
 48.062604200000038
 20
-55.32848697
 11
 44.442430530000038
 21
-55.781008679999999
  0
LINE
  8
0
  6
CONTINUOUS
 62
     3
 10
 48.062604200000038
 20
-60.67151303
 11
 44.442430530000038
 21
-60.218991320000001
  0
LINE
  8
0
  6
CONTINUOUS
 62
     3
 10
 48.062604200000038
 20
-67.32848697
 11
 44.442430530000038
 21
-67.781008679999999
  0
LINE
  8
0
  6
CONTINUOUS
 62
     3
 10
 47.814534730000048
 20
-43.35949566
 11
 44.442430530000038
 21
-43.781008679999999
  0
LINE
  8
0
  6
CONTINUOUS
 62
     3
 10
 48.690500000000043
 20
-42.25
 11
 48.690500000000043
 21
-42.367217779999997
  0
LINE
  8
0
  6
CONTINUOUS
 62
     3
 10
 42.690500000000043
 20
-46.234435560000001
 11
 42.690500000000043
 21
-45.765564439999999
  0
LINE
  8
0
  6
CONTINUOUS
 62
     3
 10
 50.690500000000043
 20
-52.351653339999999
 11
 50.690500000000043
 21
-51.648346660000001
  0
LINE
  8
0
  6
CONTINUOUS
 62
     3
 10
 42.690500000000043
 20
-58.234435560000001
 11
 42.690500000000043
 21
-57.765564439999999
  0
LINE
  8
0
  6
CONTINUOUS
 62
     3
 10
 42.690500000000043
 20
-70
 11
 42.690500000000043
 21
-69.765564439999991
  0
LINE
  8
0
  6
CONTINUOUS
 62
     3
 10
 50.690500000000043
 20
-64.351653339999999
 11
 50.690500000000043
 21
-63.648346660000001
  0
ARC
  8
0
  6
CONTINUOUS
 62
     3
 10
 44.690500000000043
 20
-45.765564439999999
 40
 2
 50
 97.125018006774397
 51
-180.00000307046864
  0
ARC
  8
0
  6
CONTINUOUS
 62
     3
 10
 44.690500000000043
 20
-46.234435560000001
 40
 2
 50
-180.00000307046864
 51
-97.125018006773644
  0
ARC
  8
0
  6
CONTINUOUS
 62
     3
 10
 44.690500000000043
 20
-57.765564439999999
 40
 2
 50
 97.125018006774397
 51
-180.00000307046864
  0
ARC
  8
0
  6
CONTINUOUS
 62
     3
 10
 44.690500000000043
 20
-58.234435560000001
 40
 2
 50
-180.00000307046864
 51
-97.125018006773644
  0
ARC
  8
0
  6
CONTINUOUS
 62
     3
 10
 44.690500000000043
 20
-69.765564439999991
 40
 2
 50
 97.125018006774397
 51
-180.00000307046864
  0
ARC
  8
0
  6
CONTINUOUS
 62
     3
 10
 44.690500000000043
 20
-71
 40
 2
 50
-180.00000307046864
 51
-90.00000153523392
  0
ARC
  8
0
  6
CONTINUOUS
 62
     3
 10
 47.690500000000043
 20
-51.648346660000001
 40
 3
 50
 0
 51
 82.874985063695021
  0
ARC
  8
0
  6
CONTINUOUS
 62
     3
 10
 47.690500000000043
 20
-52.351653339999999
 40
 3
 50
-82.87498506369424
 51
 0
  0
ARC
  8
0
  6
CONTINUOUS
 62
     3
 10
 47.690500000000043
 20
-63.648346660000001
 40
 3
 50
 0
 51
 82.874985063695021
  0
ARC
  8
0
  6
CONTINUOUS
 62
     3
 10
 47.690500000000043
 20
-64.351653339999999
 40
 3
 50
-82.87498506369424
 51
 0
  0
ARC
  8
0
  6
CONTINUOUS
 62
     3
 10
 47.690500000000043
 20
-42.367217779999997
 40
 1
 50
-82.87498506369424
 51
 0
  0
LINE
  8
0
  6
CONTINUOUS
 62
     3
 10
 73.690500000000043
 20
-73
 11
 76.690500000000043
 21
-73
  0
LINE
  8
0
  6
CONTINUOUS
 62
     3
 10
 78.690500000000043
 20
-70
 11
 78.690500000000043
 21
-71
  0
ARC
  8
0
  6
CONTINUOUS
 62
     3
 10
 73.690500000000043
 20
-74
 40
 1
 50
 90.000001535234716
 51
-180.00000307046864
  0
LINE
  8
0
  6
CONTINUOUS
 62
     3
 10
 73.318395800000047
 20
-48.67151303
 11
 76.938569470000033
 21
-48.218991320000001
  0
LINE
  8
0
  6
CONTINUOUS
 62
     3
 10
 73.318395800000047
 20
-55.32848697
 11
 76.938569470000033
 21
-55.781008679999999
  0
LINE
  8
0
  6
CONTINUOUS
 62
     3
 10
 73.318395800000047
 20
-60.67151303
 11
 76.938569470000033
 21
-60.218991320000001
  0
LINE
  8
0
  6
CONTINUOUS
 62
     3
 10
 73.318395800000047
 20
-67.32848697
 11
 76.938569470000033
 21
-67.781008679999999
  0
LINE
  8
0
  6
CONTINUOUS
 62
     3
 10
 73.566465270000037
 20
-43.35949566
 11
 76.938569470000033
 21
-43.781008679999999
  0
LINE
  8
0
  6
CONTINUOUS
 62
     3
 10
 72.690500000000043
 20
-42.25
 11
 72.690500000000043
 21
-42.367217779999997
  0
LINE
  8
0
  6
CONTINUOUS
 62
     3
 10
 78.690500000000043
 20
-46.234435560000001
 11
 78.690500000000043
 21
-45.765564439999999
  0
LINE
  8
0
  6
CONTINUOUS
 62
     3
 10
 70.690500000000043
 20
-52.351653339999999
 11
 70.690500000000043
 21
-51.648346660000001
  0
LINE
  8
0
  6
CONTINUOUS
 62
     3
 10
 78.690500000000043
 20
-58.234435560000001
 11
 78.690500000000043
 21
-57.765564439999999
  0
LINE
  8
0
  6
CONTINUOUS
 62
     3
 10
 78.690500000000043
 20
-70
 11
 78.690500000000043
 21
-69.765564439999991
  0
LINE
  8
0
  6
CONTINUOUS
 62
     3
 10
 70.690500000000043
 20
-64.351653339999999
 11
 70.690500000000043
 21
-63.648346660000001
  0
ARC
  8
0
  6
CONTINUOUS
 62
     3
 10
 76.690500000000043
 20
-45.765564439999999
 40
 2
 50
 0
 51
 82.874985063695021
  0
ARC
  8
0
  6
CONTINUOUS
 62
     3
 10
 76.690500000000043
 20
-46.234435560000001
 40
 2
 50
-82.87498506369424
 51
 0
  0
ARC
  8
0
  6
CONTINUOUS
 62
     3
 10
 76.690500000000043
 20
-57.765564439999999
 40
 2
 50
 0
 51
 82.874985063695021
  0
ARC
  8
0
  6
CONTINUOUS
 62
     3
 10
 76.690500000000043
 20
-58.234435560000001
 40
 2
 50
-82.87498506369424
 51
 0
  0
ARC
  8
0
  6
CONTINUOUS
 62
     3
 10
 76.690500000000043
 20
-69.765564439999991
 40
 2
 50
 0
 51
 82.874985063695021
  0
ARC
  8
0
  6
CONTINUOUS
 62
     3
 10
 76.690500000000043
 20
-71
 40
 2
 50
-90.00000153523392
 51
 0
  0
ARC
  8
0
  6
CONTINUOUS
 62
     3
 10
 73.690500000000043
 20
-51.648346660000001
 40
 3
 50
 97.125018006774397
 51
-180.00000307046864
  0
ARC
  8
0
  6
CONTINUOUS
 62
     3
 10
 73.690500000000043
 20
-52.351653339999999
 40
 3
 50
-180.00000307046864
 51
-97.125018006773644
  0
ARC
  8
0
  6
CONTINUOUS
 62
     3
 10
 73.690500000000043
 20
-63.648346660000001
 40
 3
 50
 97.125018006774397
 51
-180.00000307046864
  0
ARC
  8
0
  6
CONTINUOUS
 62
     3
 10
 73.690500000000043
 20
-64.351653339999999
 40
 3
 50
-180.00000307046864
 51
-97.125018006773644
  0
ARC
  8
0
  6
CONTINUOUS
 62
     3
 10
 73.690500000000043
 20
-42.367217779999997
 40
 1
 50
-180.00000307046864
 51
-97.125018006773644
  0
LINE
  8
0
  6
CONTINUOUS
 62
     3
 10
 72.690500000000043
 20
-78
 11
 72.690500000000043
 21
-74
  0
LINE
  8
0
  6
CONTINUOUS
 62
     3
 10
 72.690500000000043
 20
-78
 11
 48.690500000000043
 21
-78
  0
ARC
  8
0
  6
CONTINUOUS
 62
     3
 10
 45.690500000000043
 20
-38
 40
 3
 50
-180.00000307046864
 51
-90.00000153523392
  0
LINE
  8
0
  6
CONTINUOUS
 62
     3
 10
 45.690500000000043
 20
-41
 11
 47.440500000000043
 21
-41
  0
ARC
  8
0
  6
CONTINUOUS
 62
     3
 10
 47.440500000000043
 20
-42.25
 40
 1.25
 50
 0
 51
 90.000001535234716
  0
ARC
  8
0
  6
CONTINUOUS
 62
     3
 10
 73.940500000000043
 20
-42.25
 40
 1.25
 50
 90.000001535234716
 51
-180.00000307046864
  0
ARC
  8
0
  6
CONTINUOUS
 62
     3
 10
 75.690500000000043
 20
-38
 40
 3
 50
-90.00000153523392
 51
 0
  0
ARC
  8
0
  6
CONTINUOUS
 62
     3
 10
 45.690500000000043
 20
-38
 40
 3
 50
-180.00000307046864
 51
-90.00000153523392
  0
ARC
  8
0
  6
CONTINUOUS
 62
     3
 10
 75.690500000000043
 20
-38
 40
 3
 50
-90.00000153523392
 51
 0
  0
ARC
  8
0
  6
CONTINUOUS
 62
     3
 10
 88.690500000000043
 20
-23
 40
 15
 50
-180.00000307046864
 51
-133.8130637426043
  0
LINE
  8
0
  6
CONTINUOUS
 62
     3
 10
 78.690500000000043
 20
-34.726039400000005
 11
 78.690500000000043
 21
-38
  0
ARC
  8
0
  6
CONTINUOUS
 62
     3
 10
 32.690500000000043
 20
-23
 40
 15
 50
-46.186939327863591
 51
 0
  0
LINE
  8
0
  6
CONTINUOUS
 62
     3
 10
 42.690500000000043
 20
-34.726039400000005
 11
 42.690500000000043
 21
-38
  0
ARC
  8
0
  6
CONTINUOUS
 62
     3
 10
 77.440500000000043
 20
-34.726039400000005
 40
 1.25
 50
 0
 51
 46.186939327864344
  0
ARC
  8
0
  6
CONTINUOUS
 62
     3
 10
 43.940500000000043
 20
-34.726039400000005
 40
 1.25
 50
 133.8130637426051
 51
-180.00000307046864
  0
LINE
  8
0
  6
CONTINUOUS
 62
     3
 10
 73.690500000000043
 20
-9
 11
 73.690500000000043
 21
-23
  0
LINE
  8
0
  6
CONTINUOUS
 62
     3
 10
 47.690500000000043
 20
-9
 11
 47.690500000000043
 21
-23
  0
LINE
  8
0
  6
CONTINUOUS
 62
     3
 10
-31.059499999999957
 20
-41
 11
-57.559499999999957
 21
-41
  0
LINE
  8
0
  6
CONTINUOUS
 62
     3
 10
 73.690500000000043
 20
-73
 11
 47.690500000000043
 21
-73
  0
LINE
  8
0
  6
CONTINUOUS
 62
     3
 10
-31.309499999999957
 20
-73
 11
-57.530839309999962
 21
-73
  0
LINE
  8
0
  6
CONTINUOUS
 62
     3
 10
-29.309499999999957
 20
-69
 11
-59.309499999999957
 21
-69
  0
LINE
  8
0
  6
CONTINUOUS
 62
     3
 10
-29.309499999999957
 20
-71.5
 11
-59.309499999999957
 21
-71.5
  0
LINE
  8
0
  6
CONTINUOUS
 62
     3
 10
-29.309499999999957
 20
-59.5
 11
-59.309499999999957
 21
-59.5
  0
LINE
  8
0
  6
CONTINUOUS
 62
     3
 10
-29.309499999999957
 20
-57
 11
-59.309499999999957
 21
-57
  0
LINE
  8
0
  6
CONTINUOUS
 62
     3
 10
-29.309499999999957
 20
-47.5
 11
-59.309499999999957
 21
-47.5
  0
LINE
  8
0
  6
CONTINUOUS
 62
     3
 10
-29.309499999999957
 20
-45
 11
-59.309499999999957
 21
-45
  0
LINE
  8
0
  6
CONTINUOUS
 62
     3
 10
 75.690500000000043
 20
-47.5
 11
 45.690500000000043
 21
-47.5
  0
LINE
  8
0
  6
CONTINUOUS
 62
     3
 10
 75.690500000000043
 20
-45
 11
 45.690500000000043
 21
-45
  0
LINE
  8
0
  6
CONTINUOUS
 62
     3
 10
 75.690500000000043
 20
-59.5
 11
 45.690500000000043
 21
-59.5
  0
LINE
  8
0
  6
CONTINUOUS
 62
     3
 10
 75.690500000000043
 20
-57
 11
 45.690500000000043
 21
-57
  0
LINE
  8
0
  6
CONTINUOUS
 62
     3
 10
 75.690500000000043
 20
-69
 11
 45.690500000000043
 21
-69
  0
LINE
  8
0
  6
CONTINUOUS
 62
     3
 10
 75.690500000000043
 20
-71.5
 11
 45.690500000000043
 21
-71.5
  0
LINE
  8
0
  6
CONTINUOUS
 62
     3
 10
 75.690500000000043
 20
-41
 11
 45.690500000000043
 21
-41
  0
ARC
  8
0
  6
CONTINUOUS
 62
     3
 10
-56.722530789999951
 20
 67.5
 40
 1.5
 50
 90.000001535234716
 51
 150.00000255872453
  0
ARC
  8
0
  6
CONTINUOUS
 62
     3
 10
-69.135561579999958
 20
 46
 40
 1.5
 50
 150.00000255872453
 51
-150.00000255872371
  0
ARC
  8
0
  6
CONTINUOUS
 62
     3
 10
-56.722530789999951
 20
 24.5
 40
 1.5
 50
-150.00000255872371
 51
-90.00000153523392
  0
ARC
  8
0
  6
CONTINUOUS
 62
     3
 10
-31.896469209999957
 20
 24.5
 40
 1.5
 50
-90.00000153523392
 51
-30.000000511744101
  0
ARC
  8
0
  6
CONTINUOUS
 62
     3
 10
-19.483438419999956
 20
 46
 40
 1.5
 50
-30.000000511744101
 51
 30.000000511745721
  0
ARC
  8
0
  6
CONTINUOUS
 62
     3
 10
-31.896469209999957
 20
 67.5
 40
 1.5
 50
 30.000000511744908
 51
 90.000001535234716
  0
LINE
  8
0
  6
CONTINUOUS
 62
     3
 10
-44.309499999999957
 20
-73
 11
-44.309499999999957
 21
-78
  0
LINE
  8
0
  6
CONTINUOUS
 62
     3
 10
 67.618700000000047
 20
-73
 11
 67.618700000000047
 21
-78
  0
LINE
  8
0
  6
CONTINUOUS
 62
     3
 10
 53.762300000000046
 20
-73
 11
 53.762300000000046
 21
-78
  0
CIRCLE
  8
0
  6
CONTINUOUS
 62
     3
 10
-44.309499999999957
 20
 46
 40
 11
  0
CIRCLE
  8
0
  6
CONTINUOUS
 62
     3
 10
-44.309499999999957
 20
 46
 40
 18
  0
LINE
  8
0
  6
CONTINUOUS
 62
     3
 10
-40.309499999999957
 20
-93.799999999999997
 11
-48.309499999999957
 21
-93.799999999999997
  0
LINE
  8
0
  6
CONTINUOUS
 62
     3
 10
-40.309499999999957
 20
-93.799999999999997
 11
-41.50949999999996
 21
-95
  0
LINE
  8
0
  6
CONTINUOUS
 62
     3
 10
-48.309499999999957
 20
-93.799999999999997
 11
-47.109499999999954
 21
-95
  0
ARC
  8
0
  6
CONTINUOUS
 62
     3
 10
-44.309499999999957
 20
-23
 40
 11.75
 50
-180.00000307046864
 51
 0
  0
LINE
  8
0
  6
CONTINUOUS
 62
     3
 10
-26.309499999999957
 20
-11
 11
-27.809499999999957
 21
-11
  0
LINE
  8
0
  6
CONTINUOUS
 62
     3
 10
-62.309499999999957
 20
-11
 11
-60.809499999999957
 21
-11
  0
LINE
  8
0
  6
CONTINUOUS
 62
     3
 10
-60.809499999999957
 20
-11
 11
-60.809499999999957
 21
-9
  0
LINE
  8
0
  6
CONTINUOUS
 62
     3
 10
-56.059499999999957
 20
-9
 11
-56.059499999999957
 21
-23
  0
LINE
  8
0
  6
CONTINUOUS
 62
     3
 10
-27.809499999999957
 20
-11
 11
-27.809499999999957
 21
-9
  0
LINE
  8
0
  6
CONTINUOUS
 62
     3
 10
-32.559499999999957
 20
-9
 11
-32.559499999999957
 21
-23
  0
LINE
  8
0
  6
CONTINUOUS
 62
     3
 10
-48.309499999999957
 20
-88.099999999999994
 11
-48.309499999999957
 21
-93.799999999999997
  0
LINE
  8
0
  6
CONTINUOUS
 62
     3
 10
-40.309499999999957
 20
-88.099999999999994
 11
-40.309499999999957
 21
-93.799999999999997
  0
LINE
  8
0
  6
CONTINUOUS
 62
     3
 10
 64.690500000000043
 20
-93.799999999999997
 11
 56.690500000000043
 21
-93.799999999999997
  0
LINE
  8
0
  6
CONTINUOUS
 62
     3
 10
 63.49050000000004
 20
-95
 11
 57.890500000000046
 21
-95
  0
LINE
  8
0
  6
CONTINUOUS
 62
     3
 10
 64.690500000000043
 20
-93.799999999999997
 11
 63.49050000000004
 21
-95
  0
LINE
  8
0
  6
CONTINUOUS
 62
     3
 10
 56.690500000000043
 20
-93.799999999999997
 11
 57.890500000000046
 21
-95
  0
LINE
  8
0
  6
CONTINUOUS
 62
     3
 10
 81.690500000000043
 20
 11
 11
 39.690500000000043
 21
 11
  0
LINE
  8
0
  6
CONTINUOUS
 62
     3
 10
 37.690500000000043
 20
 9
 11
 37.690500000000043
 21
-9
  0
LINE
  8
0
  6
CONTINUOUS
 62
     3
 10
 83.690500000000043
 20
 9
 11
 83.690500000000043
 21
-9
  0
LINE
  8
0
  6
CONTINUOUS
 62
     3
 10
 83.690500000000043
 20
-9
 11
 37.690500000000043
 21
-9
  0
LINE
  8
0
  6
CONTINUOUS
 62
     3
 10
 60.690500000000043
 20
 9
 11
 60.690500000000043
 21
-9
  0
ARC
  8
0
  6
CONTINUOUS
 62
     3
 10
 62.690500000000043
 20
 9
 40
 2
 50
 90.000001535234716
 51
-180.00000307046864
  0
ARC
  8
0
  6
CONTINUOUS
 62
     3
 10
 58.690500000000043
 20
 9
 40
 2
 50
 0
 51
 90.000001535234716
  0
ARC
  8
0
  6
CONTINUOUS
 62
     3
 10
 39.690500000000043
 20
 9
 40
 2
 50
 90.000001535234716
 51
-180.00000307046864
  0
ARC
  8
0
  6
CONTINUOUS
 62
     3
 10
 81.690500000000043
 20
 9
 40
 2
 50
 0
 51
 90.000001535234716
  0
LINE
  8
0
  6
CONTINUOUS
 62
     3
 10
 56.690500000000043
 20
-88.067094749999995
 11
 56.690500000000043
 21
-93.799999999999997
  0
LINE
  8
0
  6
CONTINUOUS
 62
     3
 10
 64.690500000000043
 20
-88.067094749999995
 11
 64.690500000000043
 21
-93.799999999999997
  0
LINE
  8
0
  6
CONTINUOUS
 62
     3
 10
-47.109499999999954
 20
-95
 11
-41.50949999999996
 21
-95
  0
ARC
  8
0
  6
DOT
 62
     3
 10
-29.309499999999957
 20
 2
 40
 2
 50
 90.000001535234716
 51
-180.00000307046864
  0
ARC
  8
0
  6
DOT
 62
     3
 10
-59.309499999999957
 20
 2
 40
 2
 50
 0
 51
 90.000001535234716
  0
LINE
  8
0
  6
DOT
 62
     3
 10
-31.309499999999957
 20
-29.5
 11
-36.063288749999955
 21
-29.5
  0
LINE
  8
0
  6
DOT
 62
     3
 10
-52.555711249999959
 20
-29.5
 11
-57.309499999999957
 21
-29.5
  0
LINE
  8
0
  6
DOT
 62
     3
 10
-31.309499999999957
 20
-9
 11
-31.309499999999957
 21
-29.5
  0
LINE
  8
0
  6
DOT
 62
     3
 10
-57.309499999999957
 20
-9
 11
-57.309499999999957
 21
-29.5
  0
LINE
  8
0
  6
DOT
 62
     3
 10
-62.309499999999957
 20
 6
 11
-62.309499999999957
 21
-9
  0
LINE
  8
0
  6
DOT
 62
     3
 10
-60.809499999999957
 20
 4
 11
-60.809499999999957
 21
-9
  0
LINE
  8
0
  6
DOT
 62
     3
 10
-62.309499999999957
 20
 4
 11
-56.809499999999957
 21
 4
  0
LINE
  8
0
  6
DOT
 62
     3
 10
-56.059499999999957
 20
 3.8540496199999978
 11
-56.059499999999957
 21
-9
  0
ARC
  8
0
  6
DOT
 62
     3
 10
-56.809499999999957
 20
 2
 40
 2
 50
 0
 51
 90.000001535234716
  0
LINE
  8
0
  6
DOT
 62
     3
 10
-54.809499999999957
 20
 2
 11
-54.809499999999957
 21
-9
  0
LINE
  8
0
  6
DOT
 62
     3
 10
-26.309499999999957
 20
-9
 11
-26.309499999999957
 21
 6
  0
LINE
  8
0
  6
DOT
 62
     3
 10
-27.809499999999957
 20
 4
 11
-27.809499999999957
 21
-9
  0
LINE
  8
0
  6
DOT
 62
     3
 10
-26.309499999999957
 20
 4
 11
-31.809499999999957
 21
 4
  0
ARC
  8
0
  6
DOT
 62
     3
 10
-31.809499999999957
 20
 2
 40
 2
 50
 90.000001535234716
 51
-180.00000307046864
  0
LINE
  8
0
  6
DOT
 62
     3
 10
-32.559499999999957
 20
 3.8540496199999978
 11
-32.559499999999957
 21
-9
  0
LINE
  8
0
  6
DOT
 62
     3
 10
-33.809499999999957
 20
 2
 11
-33.809499999999957
 21
-9
  0
LINE
  8
0
  6
DOT
 62
     3
 10
-36.309499999999957
 20
 6
 11
-36.309499999999957
 21
-9
  0
LINE
  8
0
  6
DOT
 62
     3
 10
-52.309499999999957
 20
 6
 11
-52.309499999999957
 21
-9
  0
LINE
  8
0
  6
DOT
 62
     3
 10
-34.059499999999957
 20
 6
 11
-34.059499999999957
 21
-9
  0
LINE
  8
0
  6
DOT
 62
     3
 10
-54.559499999999957
 20
 6
 11
-54.559499999999957
 21
-9
  0
LINE
  8
0
  6
DOT
 62
     3
 10
-28.309499999999957
 20
 6
 11
-28.309499999999957
 21
-9
  0
LINE
  8
0
  6
DOT
 62
     3
 10
-60.309499999999957
 20
 6
 11
-60.309499999999957
 21
-9
  0
LINE
  8
0
  6
DOT
 62
     3
 10
 59.190500000000043
 20
 4
 11
 59.190500000000043
 21
-29.5
  0
LINE
  8
0
  6
DOT
 62
     3
 10
 62.190500000000043
 20
-29.5
 11
 62.190500000000043
 21
 4
  0
LINE
  8
0
  6
DOT
 62
     3
 10
 62.190500000000043
 20
-29.5
 11
 59.190500000000043
 21
-29.5
  0
LINE
  8
0
  6
DOT
 62
     3
 10
 42.690500000000043
 20
 6
 11
 42.690500000000043
 21
-9
  0
LINE
  8
0
  6
DOT
 62
     3
 10
 44.190500000000043
 20
 6
 11
 44.190500000000043
 21
-9
  0
LINE
  8
0
  6
DOT
 62
     3
 10
 42.690500000000043
 20
 6
 11
 78.690500000000043
 21
 6
  0
LINE
  8
0
  6
DOT
 62
     3
 10
 78.690500000000043
 20
 6
 11
 78.690500000000043
 21
-9
  0
LINE
  8
0
  6
DOT
 62
     3
 10
 77.190500000000043
 20
 6
 11
 77.190500000000043
 21
-9
  0
LINE
  8
0
  6
CONTINUOUS
 62
     3
 10
 49.690500000000043
 20
 4
 11
 71.690500000000043
 21
 4
  0
ARC
  8
0
  6
CONTINUOUS
 62
     3
 10
 71.690500000000043
 20
 2
 40
 2
 50
 0
 51
 90.000001535234716
  0
ARC
  8
0
  6
CONTINUOUS
 62
     3
 10
 49.690500000000043
 20
 2
 40
 2
 50
 90.000001535234716
 51
-180.00000307046864
  0
LINE
  8
0
  6
CONTINUOUS
 62
     3
 10
 73.690500000000043
 20
 2
 11
 73.690500000000043
 21
-9
  0
LINE
  8
0
  6
CONTINUOUS
 62
     3
 10
 47.690500000000043
 20
 2
 11
 47.690500000000043
 21
-9
  0
LINE
  8
0
  6
DOT
 62
     3
 10
-62.309499999999957
 20
 6
 11
-26.309499999999957
 21
 6
  0
LINE
  8
0
  6
DOT
 62
     3
 10
 77.978357360000047
 20
-33.5
 11
 43.402642640000039
 21
-33.5
  0
LINE
  8
0
  6
CONTINUOUS
 62
     3
 10
-47.684499999999957
 20
-88.099999999999994
 11
-47.684499999999957
 21
-94.424999999999997
  0
LINE
  8
0
  6
CONTINUOUS
 62
     3
 10
-40.934499999999957
 20
-88.099999999999994
 11
-40.934499999999957
 21
-94.424999999999997
  0
LINE
  8
0
  6
CONTINUOUS
 62
     3
 10
 57.315500000000043
 20
-88.099999999999994
 11
 57.315500000000043
 21
-94.424999999999997
  0
LINE
  8
0
  6
CONTINUOUS
 62
     3
 10
 64.065500000000043
 20
-88.099999999999994
 11
 64.065500000000043
 21
-94.424999999999997
  0
INSERT
  8
0
  2
CADWIN-G0
 10
0.0
 20
0.0
  0
INSERT
  8
0
  2
CADWIN-G1
 10
0.0
 20
0.0
  0
LINE
  8
0
  6
CONTINUOUS
 62
     3
 10
-44.373915179999955
 20
 37.698582209999998
 11
-49.309499999999957
 21
 46
  0
LINE
  8
0
  6
CONTINUOUS
 62
     3
 10
-44.309499999999957
 20
 39
 11
-48.309499999999957
 21
 46
  0
LINE
  8
0
  6
CONTINUOUS
 62
     3
 10
-48.309499999999957
 20
 46
 11
-44.309499999999957
 21
 53
  0
LINE
  8
0
  6
CONTINUOUS
 62
     3
 10
-49.309499999999957
 20
 46
 11
-44.309499999999957
 21
 54.5
  0
LINE
  8
0
  6
CONTINUOUS
 62
     3
 10
-40.309499999999957
 20
 46
 11
-44.309499999999957
 21
 39
  0
LINE
  8
0
  6
CONTINUOUS
 62
     3
 10
-39.309499999999957
 20
 46
 11
-44.309499999999957
 21
 37.5
  0
LINE
  8
0
  6
CONTINUOUS
 62
     3
 10
-44.309499999999957
 20
 53
 11
-40.309499999999957
 21
 46
  0
LINE
  8
0
  6
CONTINUOUS
 62
     3
 10
-44.309499999999957
 20
 54.5
 11
-39.309499999999957
 21
 46
  0
TEXT
  8
0
  6
CONTINUOUS
 62
     3
 10
-43.109499996153836
 20
 42.819288903846129
 11
-43.109500019230573
 21
 50.019288903846132
 40
 2.3999999999999999
 41
 1
  1
ＫＲＣ
 50
 90.00000171887342
 72
  5
  0
LINE
  8
256
  6
CONTINUOUS
 62
     7
 10
 104.99998474121094
 20
-121.5
 11
 200
 21
-121.5
  0
LINE
  8
256
  6
CONTINUOUS
 62
     7
 10
 170.99998474121094
 20
-109.5
 11
 170.99998474121094
 21
-121.5
  0
TEXT
  8
256
  6
CONTINUOUS
 62
     7
 10
 112.5
 20
-134.25
 11
 193.5
 21
-134.25
 40
 6
 41
 1
  1
Ｃ－Ａ８－１４，２２，３８，６０
 50
 0
 72
  5
  0
TEXT
  8
256
  6
CONTINUOUS
 62
     7
 10
 123.99998474121094
 20
-119.75
 11
 151.99998474121094
 21
-119.75
 40
 5
 41
 0.8
  1
電線サポーター
 50
 0
 72
  5
  0
TEXT
  8
256
  6
CONTINUOUS
 62
     7
 10
 106.29998779296875
 20
-112.4499633789062
 11
 111.29998779296875
 21
-112.4499633789062
 40
 2.5
 41
 0.8
  1
品名
 50
 0
 72
  5
  0
TEXT
  8
256
  6
CONTINUOUS
 62
     7
 10
 106.29998779296875
 20
-124.45003051757811
 11
 111.29998779296875
 21
-124.45003051757811
 40
 2.5
 41
 0.8
  1
品番
 50
 0
 72
  5
  0
LINE
  8
256
  6
CONTINUOUS
 62
     7
 10
 104.99998474121094
 20
-139.5
 11
 104.99998474121094
 21
-109.5
  0
LINE
  8
256
  6
CONTINUOUS
 62
     7
 10
 104.99998474121094
 20
-109.5
 11
 200
 21
-109.5
  0
TEXT
  8
0
  6
CONTINUOUS
 62
     7
 10
 172.89999237060547
 20
-114.25
 11
 198.09999237060546
 21
-114.25
 40
 3.5
 41
 0.8
  1
１４ｓｑ，３８ｓｑ
 50
 0
 72
  5
  0
TEXT
  8
0
  6
CONTINUOUS
 62
     7
 10
 172.89999237060547
 20
-120.25
 11
 198.09999237060546
 21
-120.25
 40
 3.5
 41
 0.8
  1
２２ｓｑ，６０ｓｑ
 50
 0
 72
  5
  0
LINE
  8
256
  6
CONTINUOUS
 62
     7
 10
-193.30000000000001
 20
 124.99999645625348
 11
-93.300000000000011
 21
 124.99999645625348
  0
LINE
  8
256
  6
CONTINUOUS
 62
     7
 10
-93.300000000000011
 20
 124.9999964562535
 11
-93.300000000000011
 21
 136.99999721136808
  0
TEXT
  8
256
  6
CONTINUOUS
 62
     7
 10
-188.30000000000001
 20
 127.99999604817611
 11
-95.300000000000011
 21
 127.99999604817611
 40
 6
 41
 1
  1
Ｃ－Ａ８－１４，２２，３８，６０
 50
 0
 72
  5
  0
LINE
  8
256
  6
CONTINUOUS
 62
     7
 10
 200
 20
-139.5
 11
-193.30000000000001
 21
-139.49999999999994
  0
LINE
  8
256
  6
CONTINUOUS
 62
     7
 10
 200
 20
 136.99999721136808
 11
 200
 21
-139.5
  0
LINE
  8
256
  6
CONTINUOUS
 62
     7
 10
-193.30000000000001
 20
 136.99999721136808
 11
-193.30000000000001
 21
-139.49999999999994
  0
LINE
  8
256
  6
CONTINUOUS
 62
     7
 10
-193.30000000000001
 20
 136.99999721136808
 11
 200
 21
 136.99999721136808
  0
LINE
  8
0
  6
CONTINUOUS
 62
     7
 10
-70.309499999999957
 20
 52
 11
-70.309499999999957
 21
 97.417750559571743
  0
LINE
  8
0
  6
CONTINUOUS
 62
     7
 10
-18.309499999999957
 20
 52
 11
-18.309499999999957
 21
 97.417750559571743
  0
LINE
  8
0
  6
CONTINUOUS
 62
     7
 10
-70.309499999999957
 20
 96.417750559571743
 11
-18.309499999999957
 21
 96.417750559571743
  0
LINE
  8
0
  6
CONTINUOUS
 62
     7
 10
-70.309499999999957
 20
 96.417750559571743
 11
-67.411722521132759
 21
 95.641293424264177
  0
LINE
  8
0
  6
CONTINUOUS
 62
     7
 10
-70.309499999999957
 20
 96.417750559571743
 11
-67.411722521132759
 21
 97.19420769487931
  0
LINE
  8
0
  6
CONTINUOUS
 62
     7
 10
-18.309499999999957
 20
 96.417750559571743
 11
-21.207277478867162
 21
 97.19420769487931
  0
LINE
  8
0
  6
CONTINUOUS
 62
     7
 10
-18.309499999999957
 20
 96.417750559571743
 11
-21.207277478867162
 21
 95.641293424264177
  0
TEXT
  8
0
  6
CONTINUOUS
 62
     7
 10
-46.309499999999957
 20
 97.217750559571741
 11
-42.309499999999957
 21
 97.217750559571741
 40
 2.5
 41
 0.8
  1
52
 50
 0
 72
  5
  0
LINE
  8
0
  6
CONTINUOUS
 62
     7
 10
-60.309499999999957
 20
 69.000000000000014
 11
-101.30949999999996
 21
 69
  0
LINE
  8
0
  6
CONTINUOUS
 62
     7
 10
-60.309499999999957
 20
 23
 11
-101.30949999999996
 21
 23
  0
LINE
  8
0
  6
CONTINUOUS
 62
     7
 10
-100.30949999999996
 20
 69
 11
-100.30949999999996
 21
 23
  0
LINE
  8
0
  6
CONTINUOUS
 62
     7
 10
-100.30949999999996
 20
 69
 11
-101.08595713530752
 21
 66.102222521132802
  0
LINE
  8
0
  6
CONTINUOUS
 62
     7
 10
-100.30949999999996
 20
 69
 11
-99.533042864692391
 21
 66.102222521132802
  0
LINE
  8
0
  6
CONTINUOUS
 62
     7
 10
-100.30949999999996
 20
 23
 11
-99.533042864692391
 21
 25.897777478867205
  0
LINE
  8
0
  6
CONTINUOUS
 62
     7
 10
-100.30949999999996
 20
 23
 11
-101.08595713530752
 21
 25.897777478867205
  0
TEXT
  8
0
  6
CONTINUOUS
 62
     7
 10
-101.10949999999995
 20
 44
 11
-101.10949999999995
 21
 48
 40
 2.5
 41
 0.8
  1
46
 50
 90.000001535234517
 72
  5
  0
LINE
  8
0
  6
CONTINUOUS
 62
     7
 10
-60.309499999999957
 20
-23
 11
-86.309499999999957
 21
-23
  0
LINE
  8
0
  6
CONTINUOUS
 62
     7
 10
-57.309499999999957
 20
-78
 11
-86.309499999999957
 21
-78
  0
LINE
  8
0
  6
CONTINUOUS
 62
     7
 10
-85.309499999999957
 20
-23
 11
-85.309499999999957
 21
-78
  0
LINE
  8
0
  6
CONTINUOUS
 62
     7
 10
-85.309499999999957
 20
-23
 11
-86.085957135307524
 21
-25.897777478867205
  0
LINE
  8
0
  6
CONTINUOUS
 62
     7
 10
-85.309499999999957
 20
-23
 11
-84.533042864692391
 21
-25.897777478867205
  0
LINE
  8
0
  6
CONTINUOUS
 62
     7
 10
-85.309499999999957
 20
-78
 11
-84.533042864692391
 21
-75.102222521132802
  0
LINE
  8
0
  6
CONTINUOUS
 62
     7
 10
-85.309499999999957
 20
-78
 11
-86.085957135307524
 21
-75.102222521132802
  0
TEXT
  8
0
  6
CONTINUOUS
 62
     7
 10
-86.109499999999954
 20
-52.5
 11
-86.109499999999954
 21
-48.5
 40
 2.5
 41
 0.8
  1
55
 50
 90.000001535234517
 72
  5
  0
LINE
  8
0
  6
CONTINUOUS
 62
     7
 10
-74.290262109999958
 20
 11
 11
-101.30949999999996
 21
 11
  0
LINE
  8
0
  6
CONTINUOUS
 62
     7
 10
-57.309499999999957
 20
-78
 11
-101.30949999999996
 21
-78
  0
LINE
  8
0
  6
CONTINUOUS
 62
     7
 10
-100.30949999999996
 20
 11
 11
-100.30949999999996
 21
-78
  0
LINE
  8
0
  6
CONTINUOUS
 62
     7
 10
-100.30949999999996
 20
 11
 11
-101.08595713530752
 21
 8.102222521132795
  0
LINE
  8
0
  6
CONTINUOUS
 62
     7
 10
-100.30949999999996
 20
 11
 11
-99.533042864692391
 21
 8.102222521132795
  0
LINE
  8
0
  6
CONTINUOUS
 62
     7
 10
-100.30949999999996
 20
-78
 11
-99.533042864692391
 21
-75.102222521132802
  0
LINE
  8
0
  6
CONTINUOUS
 62
     7
 10
-100.30949999999996
 20
-78
 11
-101.08595713530752
 21
-75.102222521132802
  0
TEXT
  8
0
  6
CONTINUOUS
 62
     7
 10
-101.10949999999995
 20
-35.5
 11
-101.10949999999995
 21
-31.5
 40
 2.5
 41
 0.8
  1
89
 50
 90.000001535234517
 72
  5
  0
LINE
  8
0
  6
CONTINUOUS
 62
     7
 10
-57.309499999999957
 20
-78
 11
-86.309499999999957
 21
-78
  0
LINE
  8
0
  6
CONTINUOUS
 62
     7
 10
-48.109499999999954
 20
-95
 11
-86.309499999999957
 21
-95
  0
LINE
  8
0
  6
CONTINUOUS
 62
     7
 10
-85.309499999999957
 20
-95
 11
-85.309499999999957
 21
-78
  0
LINE
  8
0
  6
CONTINUOUS
 62
     7
 10
-85.309499999999957
 20
-95
 11
-84.533042864692391
 21
-92.102222521132802
  0
LINE
  8
0
  6
CONTINUOUS
 62
     7
 10
-85.309499999999957
 20
-95
 11
-86.085957135307524
 21
-92.102222521132802
  0
LINE
  8
0
  6
CONTINUOUS
 62
     7
 10
-85.309499999999957
 20
-78
 11
-86.085957135307524
 21
-80.897777478867198
  0
LINE
  8
0
  6
CONTINUOUS
 62
     7
 10
-85.309499999999957
 20
-78
 11
-84.533042864692391
 21
-80.897777478867198
  0
TEXT
  8
0
  6
CONTINUOUS
 62
     7
 10
-86.109499999999954
 20
-88.5
 11
-86.109499999999954
 21
-84.5
 40
 2.5
 41
 0.8
  1
17
 50
 90.000001535234517
 72
  5
  0
LINE
  8
0
  6
CONTINUOUS
 62
     7
 10
 42.690500000000043
 20
-77
 11
 42.690500000000043
 21
-111
  0
LINE
  8
0
  6
CONTINUOUS
 62
     7
 10
 78.690500000000043
 20
-77
 11
 78.690500000000043
 21
-111
  0
LINE
  8
0
  6
CONTINUOUS
 62
     7
 10
 42.690500000000043
 20
-110
 11
 78.690500000000043
 21
-110
  0
LINE
  8
0
  6
CONTINUOUS
 62
     7
 10
 42.690500000000043
 20
-110
 11
 45.588277478867248
 21
-110.77645713530757
  0
LINE
  8
0
  6
CONTINUOUS
 62
     7
 10
 42.690500000000043
 20
-110
 11
 45.588277478867248
 21
-109.22354286469243
  0
LINE
  8
0
  6
CONTINUOUS
 62
     7
 10
 78.690500000000043
 20
-110
 11
 75.792722521132845
 21
-109.22354286469243
  0
LINE
  8
0
  6
CONTINUOUS
 62
     7
 10
 78.690500000000043
 20
-110
 11
 75.792722521132845
 21
-110.77645713530757
  0
TEXT
  8
0
  6
CONTINUOUS
 62
     7
 10
 58.690500000000043
 20
-109.2
 11
 62.690500000000043
 21
-109.2
 40
 2.5
 41
 0.8
  1
36
 50
 0
 72
  5
  0
LINE
  8
0
  6
CONTINUOUS
 62
     7
 10
-48.309499999999957
 20
-94.799999999999997
 11
-48.309499999999957
 21
-111
  0
LINE
  8
0
  6
CONTINUOUS
 62
     7
 10
-40.309499999999957
 20
-94.799999999999997
 11
-40.309499999999957
 21
-111
  0
LINE
  8
0
  6
CONTINUOUS
 62
     7
 10
-48.309499999999957
 20
-110
 11
-40.309499999999957
 21
-110
  0
LINE
  8
0
  6
CONTINUOUS
 62
     7
 10
-48.309499999999957
 20
-110
 11
-45.411722521132752
 21
-110.77645713530757
  0
LINE
  8
0
  6
CONTINUOUS
 62
     7
 10
-48.309499999999957
 20
-110
 11
-45.411722521132752
 21
-109.22354286469243
  0
LINE
  8
0
  6
CONTINUOUS
 62
     7
 10
-40.309499999999957
 20
-110
 11
-43.207277478867162
 21
-109.22354286469243
  0
LINE
  8
0
  6
CONTINUOUS
 62
     7
 10
-40.309499999999957
 20
-110
 11
-43.207277478867162
 21
-110.77645713530757
  0
TEXT
  8
0
  6
CONTINUOUS
 62
     7
 10
-45.309499999999957
 20
-109.2
 11
-43.309499999999957
 21
-109.2
 40
 2.5
 41
 0.8
  1
8
 50
 0
 72
  5
  0
CIRCLE
  8
0
  6
CONTINUOUS
 62
     2
 10
-44.309499999999957
 20
-23
 40
 9
  0
LINE
  8
0
  6
CONTINUOUS
 62
     7
 10
-53.254727186972993
 20
-23.991418465350787
 11
-35.364272813026922
 21
-22.008581534649213
  0
TEXT
  8
0
  6
CONTINUOUS
 62
     7
 10
-14.831174430103463
 20
-18.927956268046046
 11
-8.8676896387881072
 21
-18.267010624478853
 40
 2.5
 41
 0.8
  1
（Ｒ）
 50
 6.3244011216301548
 72
  5
  0
LINE
  8
0
  6
CONTINUOUS
 62
     7
 10
-8.7795635529791483
 20
-19.062141929987568
 11
-35.364272813026922
 21
-22.008581534649213
  0
LINE
  8
0
  6
CONTINUOUS
 62
     7
 10
-35.364272813026922
 20
-22.008581534649213
 11
-32.398598165553764
 21
-22.461101020787638
  0
LINE
  8
0
  6
CONTINUOUS
 62
     7
 10
-35.364272813026922
 20
-22.008581534649213
 11
-32.569663485886501
 21
-20.917637581615992
  0
LINE
  8
0
  6
CONTINUOUS
 62
     7
 10
-56.236469582630669
 20
-24.321891287134385
 11
-53.254727186972993
 21
-23.991418465350787
  0
LINE
  8
0
  6
CONTINUOUS
 62
     7
 10
-53.254727186972993
 20
-23.991418465350787
 11
-56.22040183444615
 21
-23.538898979212366
  0
LINE
  8
0
  6
CONTINUOUS
 62
     7
 10
-53.254727186972993
 20
-23.991418465350787
 11
-56.049336514113413
 21
-25.082362418384012
  0
LINE
  8
0
  6
CONTINUOUS
 62
     7
 10
 14.087227414330206
 20
 96.704049844236891
 11
 14.087227414330206
 21
 46.704049844236899
  0
LINE
  8
0
  6
CONTINUOUS
 62
     7
 10
 119.08722741433019
 20
 46.704049844236877
 11
 119.08722741433019
 21
 96.704049844236877
  0
LINE
  8
0
  6
CONTINUOUS
 62
     7
 10
 119.08722741433019
 20
 86.704049844236877
 11
 14.087227414330215
 21
 86.704049844236877
  0
LINE
  8
0
  6
CONTINUOUS
 62
     7
 10
 119.08722741433019
 20
 76.704049844236877
 11
 14.087227414330215
 21
 76.704049844236877
  0
LINE
  8
0
  6
CONTINUOUS
 62
     7
 10
 119.08722741433019
 20
 66.704049844236877
 11
 14.087227414330215
 21
 66.704049844236877
  0
LINE
  8
0
  6
CONTINUOUS
 62
     7
 10
 119.08722741433019
 20
 56.704049844236877
 11
 14.087227414330215
 21
 56.704049844236877
  0
LINE
  8
0
  6
CONTINUOUS
 62
     7
 10
 119.08722741433019
 20
 46.704049844236877
 11
 14.087227414330215
 21
 46.704049844236877
  0
LINE
  8
0
  6
CONTINUOUS
 62
     7
 10
 64.087227414330187
 20
 96.704049844236877
 11
 64.087227414330187
 21
 46.704049844236899
  0
LINE
  8
0
  6
CONTINUOUS
 62
     7
 10
 94.087227414330187
 20
 96.704049844236877
 11
 94.087227414330187
 21
 46.704049844236899
  0
LINE
  8
0
  6
CONTINUOUS
 62
     7
 10
 119.08722741433016
 20
 86.704049844236877
 11
 119.08722741433016
 21
 46.704049844236899
  0
LINE
  8
0
  6
CONTINUOUS
 62
     7
 10
 119.08722741433019
 20
 96.704049844236877
 11
 14.087227414330215
 21
 96.704049844236877
  0
TEXT
  8
0
  6
CONTINUOUS
 62
     7
 10
 35.787227414330196
 20
 89.704049844236891
 11
 42.387227414330191
 21
 89.704049844236891
 40
 4
 41
 0.8
  1
品番
 50
 0
 72
  5
  0
TEXT
  8
0
  6
CONTINUOUS
 62
     7
 10
 27.2872274143302
 20
 79.704049844236877
 11
 50.887227414330198
 21
 79.704049844236877
 40
 4
 41
 0.8
  1
Ｃ－Ａ８－１４
 50
 0
 72
  5
  0
TEXT
  8
0
  6
CONTINUOUS
 62
     7
 10
 27.2872274143302
 20
 69.704049844236877
 11
 50.887227414330198
 21
 69.704049844236877
 40
 4
 41
 0.8
  1
Ｃ－Ａ８－２２
 50
 0
 72
  5
  0
TEXT
  8
0
  6
CONTINUOUS
 62
     7
 10
 27.2872274143302
 20
 59.704049844236877
 11
 50.887227414330198
 21
 59.704049844236877
 40
 4
 41
 0.8
  1
Ｃ－Ａ８－３８
 50
 0
 72
  5
  0
TEXT
  8
0
  6
CONTINUOUS
 62
     7
 10
 27.2872274143302
 20
 49.704049844236884
 11
 50.887227414330198
 21
 49.704049844236884
 40
 4
 41
 0.8
  1
Ｃ－Ａ８－６０
 50
 0
 72
  5
  0
TEXT
  8
0
  6
CONTINUOUS
 62
     7
 10
 70.687227414330181
 20
 89.704049844236877
 11
 87.487227414330192
 21
 89.704049844236877
 40
 4
 41
 0.8
  1
電線サイズ
 50
 0
 72
  5
  0
TEXT
  8
0
  6
CONTINUOUS
 62
     7
 10
 72.387227414330184
 20
 79.704049844236877
 11
 85.787227414330189
 21
 79.704049844236877
 40
 4
 41
 0.8
  1
１４ｓｑ
 50
 0
 72
  5
  0
TEXT
  8
0
  6
CONTINUOUS
 62
     7
 10
 72.387227414330184
 20
 69.704049844236877
 11
 85.787227414330189
 21
 69.704049844236877
 40
 4
 41
 0.8
  1
２２ｓｑ
 50
 0
 72
  5
  0
TEXT
  8
0
  6
CONTINUOUS
 62
     7
 10
 72.387227414330184
 20
 59.704049844236877
 11
 85.787227414330189
 21
 59.704049844236877
 40
 4
 41
 0.8
  1
３８ｓｑ
 50
 0
 72
  5
  0
TEXT
  8
0
  6
CONTINUOUS
 62
     7
 10
 72.387227414330184
 20
 49.704049844236877
 11
 85.787227414330189
 21
 49.704049844236877
 40
 4
 41
 0.8
  1
６０ｓｑ
 50
 0
 72
  5
  0
TEXT
  8
0
  6
CONTINUOUS
 62
     7
 10
 101.58722741433017
 20
 89.704049844236877
 11
 111.58722741433017
 21
 89.704049844236877
 40
 4
 41
 0.8
  1
Ｒ寸法
 50
 0
 72
  5
  0
TEXT
  8
0
  6
CONTINUOUS
 62
     7
 10
 101.58722741433019
 20
 79.704049844236877
 11
 111.58722741433019
 21
 79.704049844236877
 40
 4
 41
 0.8
  1
６．５
 50
 0
 72
  5
  0
TEXT
  8
0
  6
CONTINUOUS
 62
     7
 10
 104.98722741433019
 20
 69.704049844236877
 11
 108.18722741433018
 21
 69.704049844236877
 40
 4
 41
 0.8
  1
７
 50
 0
 72
  5
  0
TEXT
  8
0
  6
CONTINUOUS
 62
     7
 10
 104.98722741433019
 20
 59.704049844236877
 11
 108.18722741433018
 21
 59.704049844236877
 40
 4
 41
 0.8
  1
８
 50
 0
 72
  5
  0
TEXT
  8
0
  6
CONTINUOUS
 62
     7
 10
 104.98722741433016
 20
 49.704049844236877
 11
 108.18722741433015
 21
 49.704049844236877
 40
 4
 41
 0.8
  1
９
 50
 0
 72
  5
  0
ENDSEC
  0
EOF
