  0
SECTION
  2
HEADER
  9
$INSBASE
 10
0.0
20
0.0
  9
$REGENMODE
 70
     1
  9
$DRAGMODE
 70
     1
  9
$DIMTAD
 70
     1
  9
$EXTMIN
 10
-210.000000
 20
-148.500000
 30
 0.0
  9
$EXTMAX
 10
210.000000
 20
148.500000
 30
 0.0
  9
$LUPREC
 70
    3
  9
$AUPREC
 70
    3
  9
$LTSCALE
 40
26.250000
  0
ENDSEC
  0
SECTION
  2
TABLES
  0
TABLE
  2
LTYPE
 70
     6
  0
LTYPE
  2
CONTINUOUS
 70
    64
  3
SOLID
 72
    65
 73
     0
 40
0.0
  0
LTYPE
  2
DASHED2
 70
    64
  3
_ _ _ _ _ _ _ _ _ _ _ _ _ _ _ _ _ _ _ _ _ _ 
 72
    65
 73
     2
 40
0.5
 49
0.25
 49
-0.25
  0
LTYPE
  2
DASHED
 70
    64
  3
__ __ __ __ __ __ __ __ __ __ __ __ __ __ __
 72
    65
 73
     2
 40
0.75
 49
0.5
 49
-0.25
  0
LTYPE
  2
DASHEDX2
 70
    64
  3
____  ____  ____  ____  ____  ____  ____  __
 72
    65
 73
     2
 40
1.5
 49
1.0
 49
-0.5
  0
LTYPE
  2
DOT
 70
    64
  3
............................................
 72
    65
 73
     2
 40
0.25
 49
0
 49
-0.25
  0
LTYPE
  2
DASHDOT
 70
    64
  3
__ . __ . __ . __ . __ . __ . __ . __ . __ .
 72
    65
 73
     4
 40
1.0
 49
0.5
 49
-0.25
 49
0.0
 49
-0.25
  0
LTYPE
  2
CENTER
 70
    64
  3
____ _ ____ _ ____ _ ____ _ ____ _ ____ _ __
 72
    65
 73
     4
 40
2.0
 49
1.25
 49
-0.25
 49
0.25
 49
-0.25
  0
LTYPE
  2
DIVIDE
 70
    64
  3
__ . . __ . . __ . . __ . . __ . . __ . . __
 72
    65
 73
     6
 40
1.25
 49
0.5
 49
-0.25
 49
0.0
 49
-0.25
 49
0.0
 49
-0.25
  0
LTYPE
  2
PHANTOM2
 70
    64
  3
___ _ _ ___ _ _ ___ _ _ ___ _ _ ___ _ _ ___ 
 72
    65
 73
     6
 40
1.25
 49
0.625
 49
-0.125
 49
0.125
 49
-0.125
 49
0.125
 49
-0.125
  0
LTYPE
  2
DOTX2
 70
    64
  3
. . . . . . . . . . . . . . . . . . . . . . 
 72
    65
 73
     2
 40
0.5
 49
0
 49
-0.5
  0
ENDTAB
  0
TABLE
  2
LAYER
 70
   255
  0
LAYER
  2
0
 70
    64
 62
     7
  6
CONTINUOUS
  0
LAYER
  2
1
 70
    64
 62
     7
  6
CONTINUOUS
  0
LAYER
  2
2
 70
    64
 62
     7
  6
CONTINUOUS
  0
LAYER
  2
3
 70
    64
 62
     7
  6
CONTINUOUS
  0
LAYER
  2
4
 70
    64
 62
     7
  6
CONTINUOUS
  0
LAYER
  2
5
 70
    64
 62
     7
  6
CONTINUOUS
  0
LAYER
  2
6
 70
    64
 62
     7
  6
CONTINUOUS
  0
LAYER
  2
7
 70
    64
 62
     7
  6
CONTINUOUS
  0
LAYER
  2
8
 70
    64
 62
     7
  6
CONTINUOUS
  0
LAYER
  2
9
 70
    64
 62
     7
  6
CONTINUOUS
  0
LAYER
  2
10
 70
    64
 62
     7
  6
CONTINUOUS
  0
LAYER
  2
11
 70
    64
 62
     7
  6
CONTINUOUS
  0
LAYER
  2
12
 70
    64
 62
     7
  6
CONTINUOUS
  0
LAYER
  2
13
 70
    64
 62
     7
  6
CONTINUOUS
  0
LAYER
  2
14
 70
    64
 62
     7
  6
CONTINUOUS
  0
LAYER
  2
15
 70
    64
 62
     7
  6
CONTINUOUS
  0
LAYER
  2
16
 70
    64
 62
     7
  6
CONTINUOUS
  0
LAYER
  2
17
 70
    64
 62
     7
  6
CONTINUOUS
  0
LAYER
  2
18
 70
    64
 62
     7
  6
CONTINUOUS
  0
LAYER
  2
19
 70
    64
 62
     7
  6
CONTINUOUS
  0
LAYER
  2
20
 70
    64
 62
     7
  6
CONTINUOUS
  0
LAYER
  2
21
 70
    64
 62
     7
  6
CONTINUOUS
  0
LAYER
  2
22
 70
    64
 62
     7
  6
CONTINUOUS
  0
LAYER
  2
23
 70
    64
 62
     7
  6
CONTINUOUS
  0
LAYER
  2
24
 70
    64
 62
     7
  6
CONTINUOUS
  0
LAYER
  2
25
 70
    64
 62
     7
  6
CONTINUOUS
  0
LAYER
  2
26
 70
    64
 62
     7
  6
CONTINUOUS
  0
LAYER
  2
27
 70
    64
 62
     7
  6
CONTINUOUS
  0
LAYER
  2
28
 70
    64
 62
     7
  6
CONTINUOUS
  0
LAYER
  2
29
 70
    64
 62
     7
  6
CONTINUOUS
  0
LAYER
  2
30
 70
    64
 62
     7
  6
CONTINUOUS
  0
LAYER
  2
31
 70
    64
 62
     7
  6
CONTINUOUS
  0
LAYER
  2
32
 70
    64
 62
     7
  6
CONTINUOUS
  0
LAYER
  2
33
 70
    64
 62
     7
  6
CONTINUOUS
  0
LAYER
  2
34
 70
    64
 62
     7
  6
CONTINUOUS
  0
LAYER
  2
35
 70
    64
 62
     7
  6
CONTINUOUS
  0
LAYER
  2
36
 70
    64
 62
     7
  6
CONTINUOUS
  0
LAYER
  2
37
 70
    64
 62
     7
  6
CONTINUOUS
  0
LAYER
  2
38
 70
    64
 62
     7
  6
CONTINUOUS
  0
LAYER
  2
39
 70
    64
 62
     7
  6
CONTINUOUS
  0
LAYER
  2
40
 70
    64
 62
     7
  6
CONTINUOUS
  0
LAYER
  2
41
 70
    64
 62
     7
  6
CONTINUOUS
  0
LAYER
  2
42
 70
    64
 62
     7
  6
CONTINUOUS
  0
LAYER
  2
43
 70
    64
 62
     7
  6
CONTINUOUS
  0
LAYER
  2
44
 70
    64
 62
     7
  6
CONTINUOUS
  0
LAYER
  2
45
 70
    64
 62
     7
  6
CONTINUOUS
  0
LAYER
  2
46
 70
    64
 62
     7
  6
CONTINUOUS
  0
LAYER
  2
47
 70
    64
 62
     7
  6
CONTINUOUS
  0
LAYER
  2
48
 70
    64
 62
     7
  6
CONTINUOUS
  0
LAYER
  2
49
 70
    64
 62
     7
  6
CONTINUOUS
  0
LAYER
  2
50
 70
    64
 62
     7
  6
CONTINUOUS
  0
LAYER
  2
51
 70
    64
 62
     7
  6
CONTINUOUS
  0
LAYER
  2
52
 70
    64
 62
     7
  6
CONTINUOUS
  0
LAYER
  2
53
 70
    64
 62
     7
  6
CONTINUOUS
  0
LAYER
  2
54
 70
    64
 62
     7
  6
CONTINUOUS
  0
LAYER
  2
55
 70
    64
 62
     7
  6
CONTINUOUS
  0
LAYER
  2
56
 70
    64
 62
     7
  6
CONTINUOUS
  0
LAYER
  2
57
 70
    64
 62
     7
  6
CONTINUOUS
  0
LAYER
  2
58
 70
    64
 62
     7
  6
CONTINUOUS
  0
LAYER
  2
59
 70
    64
 62
     7
  6
CONTINUOUS
  0
LAYER
  2
60
 70
    64
 62
     7
  6
CONTINUOUS
  0
LAYER
  2
61
 70
    64
 62
     7
  6
CONTINUOUS
  0
LAYER
  2
62
 70
    64
 62
     7
  6
CONTINUOUS
  0
LAYER
  2
63
 70
    64
 62
     7
  6
CONTINUOUS
  0
LAYER
  2
64
 70
    64
 62
     7
  6
CONTINUOUS
  0
LAYER
  2
65
 70
    64
 62
     7
  6
CONTINUOUS
  0
LAYER
  2
66
 70
    64
 62
     7
  6
CONTINUOUS
  0
LAYER
  2
67
 70
    64
 62
     7
  6
CONTINUOUS
  0
LAYER
  2
68
 70
    64
 62
     7
  6
CONTINUOUS
  0
LAYER
  2
69
 70
    64
 62
     7
  6
CONTINUOUS
  0
LAYER
  2
70
 70
    64
 62
     7
  6
CONTINUOUS
  0
LAYER
  2
71
 70
    64
 62
     7
  6
CONTINUOUS
  0
LAYER
  2
72
 70
    64
 62
     7
  6
CONTINUOUS
  0
LAYER
  2
73
 70
    64
 62
     7
  6
CONTINUOUS
  0
LAYER
  2
74
 70
    64
 62
     7
  6
CONTINUOUS
  0
LAYER
  2
75
 70
    64
 62
     7
  6
CONTINUOUS
  0
LAYER
  2
76
 70
    64
 62
     7
  6
CONTINUOUS
  0
LAYER
  2
77
 70
    64
 62
     7
  6
CONTINUOUS
  0
LAYER
  2
78
 70
    64
 62
     7
  6
CONTINUOUS
  0
LAYER
  2
79
 70
    64
 62
     7
  6
CONTINUOUS
  0
LAYER
  2
80
 70
    64
 62
     7
  6
CONTINUOUS
  0
LAYER
  2
81
 70
    64
 62
     7
  6
CONTINUOUS
  0
LAYER
  2
82
 70
    64
 62
     7
  6
CONTINUOUS
  0
LAYER
  2
83
 70
    64
 62
     7
  6
CONTINUOUS
  0
LAYER
  2
84
 70
    64
 62
     7
  6
CONTINUOUS
  0
LAYER
  2
85
 70
    64
 62
     7
  6
CONTINUOUS
  0
LAYER
  2
86
 70
    64
 62
     7
  6
CONTINUOUS
  0
LAYER
  2
87
 70
    64
 62
     7
  6
CONTINUOUS
  0
LAYER
  2
88
 70
    64
 62
     7
  6
CONTINUOUS
  0
LAYER
  2
89
 70
    64
 62
     7
  6
CONTINUOUS
  0
LAYER
  2
90
 70
    64
 62
     7
  6
CONTINUOUS
  0
LAYER
  2
91
 70
    64
 62
     7
  6
CONTINUOUS
  0
LAYER
  2
92
 70
    64
 62
     7
  6
CONTINUOUS
  0
LAYER
  2
93
 70
    64
 62
     7
  6
CONTINUOUS
  0
LAYER
  2
94
 70
    64
 62
     7
  6
CONTINUOUS
  0
LAYER
  2
95
 70
    64
 62
     7
  6
CONTINUOUS
  0
LAYER
  2
96
 70
    64
 62
     7
  6
CONTINUOUS
  0
LAYER
  2
97
 70
    64
 62
     7
  6
CONTINUOUS
  0
LAYER
  2
98
 70
    64
 62
     7
  6
CONTINUOUS
  0
LAYER
  2
99
 70
    64
 62
     7
  6
CONTINUOUS
  0
LAYER
  2
100
 70
    64
 62
     7
  6
CONTINUOUS
  0
LAYER
  2
101
 70
    64
 62
     7
  6
CONTINUOUS
  0
LAYER
  2
102
 70
    64
 62
     7
  6
CONTINUOUS
  0
LAYER
  2
103
 70
    64
 62
     7
  6
CONTINUOUS
  0
LAYER
  2
104
 70
    64
 62
     7
  6
CONTINUOUS
  0
LAYER
  2
105
 70
    64
 62
     7
  6
CONTINUOUS
  0
LAYER
  2
106
 70
    64
 62
     7
  6
CONTINUOUS
  0
LAYER
  2
107
 70
    64
 62
     7
  6
CONTINUOUS
  0
LAYER
  2
108
 70
    64
 62
     7
  6
CONTINUOUS
  0
LAYER
  2
109
 70
    64
 62
     7
  6
CONTINUOUS
  0
LAYER
  2
110
 70
    64
 62
     7
  6
CONTINUOUS
  0
LAYER
  2
111
 70
    64
 62
     7
  6
CONTINUOUS
  0
LAYER
  2
112
 70
    64
 62
     7
  6
CONTINUOUS
  0
LAYER
  2
113
 70
    64
 62
     7
  6
CONTINUOUS
  0
LAYER
  2
114
 70
    64
 62
     7
  6
CONTINUOUS
  0
LAYER
  2
115
 70
    64
 62
     7
  6
CONTINUOUS
  0
LAYER
  2
116
 70
    64
 62
     7
  6
CONTINUOUS
  0
LAYER
  2
117
 70
    64
 62
     7
  6
CONTINUOUS
  0
LAYER
  2
118
 70
    64
 62
     7
  6
CONTINUOUS
  0
LAYER
  2
119
 70
    64
 62
     7
  6
CONTINUOUS
  0
LAYER
  2
120
 70
    64
 62
     7
  6
CONTINUOUS
  0
LAYER
  2
121
 70
    64
 62
     7
  6
CONTINUOUS
  0
LAYER
  2
122
 70
    64
 62
     7
  6
CONTINUOUS
  0
LAYER
  2
123
 70
    64
 62
     7
  6
CONTINUOUS
  0
LAYER
  2
124
 70
    64
 62
     7
  6
CONTINUOUS
  0
LAYER
  2
125
 70
    64
 62
     7
  6
CONTINUOUS
  0
LAYER
  2
126
 70
    64
 62
     7
  6
CONTINUOUS
  0
LAYER
  2
127
 70
    64
 62
     7
  6
CONTINUOUS
  0
LAYER
  2
128
 70
    64
 62
     7
  6
CONTINUOUS
  0
LAYER
  2
129
 70
    64
 62
     7
  6
CONTINUOUS
  0
LAYER
  2
130
 70
    64
 62
     7
  6
CONTINUOUS
  0
LAYER
  2
131
 70
    64
 62
     7
  6
CONTINUOUS
  0
LAYER
  2
132
 70
    64
 62
     7
  6
CONTINUOUS
  0
LAYER
  2
133
 70
    64
 62
     7
  6
CONTINUOUS
  0
LAYER
  2
134
 70
    64
 62
     7
  6
CONTINUOUS
  0
LAYER
  2
135
 70
    64
 62
     7
  6
CONTINUOUS
  0
LAYER
  2
136
 70
    64
 62
     7
  6
CONTINUOUS
  0
LAYER
  2
137
 70
    64
 62
     7
  6
CONTINUOUS
  0
LAYER
  2
138
 70
    64
 62
     7
  6
CONTINUOUS
  0
LAYER
  2
139
 70
    64
 62
     7
  6
CONTINUOUS
  0
LAYER
  2
140
 70
    64
 62
     7
  6
CONTINUOUS
  0
LAYER
  2
141
 70
    64
 62
     7
  6
CONTINUOUS
  0
LAYER
  2
142
 70
    64
 62
     7
  6
CONTINUOUS
  0
LAYER
  2
143
 70
    64
 62
     7
  6
CONTINUOUS
  0
LAYER
  2
144
 70
    64
 62
     7
  6
CONTINUOUS
  0
LAYER
  2
145
 70
    64
 62
     7
  6
CONTINUOUS
  0
LAYER
  2
146
 70
    64
 62
     7
  6
CONTINUOUS
  0
LAYER
  2
147
 70
    64
 62
     7
  6
CONTINUOUS
  0
LAYER
  2
148
 70
    64
 62
     7
  6
CONTINUOUS
  0
LAYER
  2
149
 70
    64
 62
     7
  6
CONTINUOUS
  0
LAYER
  2
150
 70
    64
 62
     7
  6
CONTINUOUS
  0
LAYER
  2
151
 70
    64
 62
     7
  6
CONTINUOUS
  0
LAYER
  2
152
 70
    64
 62
     7
  6
CONTINUOUS
  0
LAYER
  2
153
 70
    64
 62
     7
  6
CONTINUOUS
  0
LAYER
  2
154
 70
    64
 62
     7
  6
CONTINUOUS
  0
LAYER
  2
155
 70
    64
 62
     7
  6
CONTINUOUS
  0
LAYER
  2
156
 70
    64
 62
     7
  6
CONTINUOUS
  0
LAYER
  2
157
 70
    64
 62
     7
  6
CONTINUOUS
  0
LAYER
  2
158
 70
    64
 62
     7
  6
CONTINUOUS
  0
LAYER
  2
159
 70
    64
 62
     7
  6
CONTINUOUS
  0
LAYER
  2
160
 70
    64
 62
     7
  6
CONTINUOUS
  0
LAYER
  2
161
 70
    64
 62
     7
  6
CONTINUOUS
  0
LAYER
  2
162
 70
    64
 62
     7
  6
CONTINUOUS
  0
LAYER
  2
163
 70
    64
 62
     7
  6
CONTINUOUS
  0
LAYER
  2
164
 70
    64
 62
     7
  6
CONTINUOUS
  0
LAYER
  2
165
 70
    64
 62
     7
  6
CONTINUOUS
  0
LAYER
  2
166
 70
    64
 62
     7
  6
CONTINUOUS
  0
LAYER
  2
167
 70
    64
 62
     7
  6
CONTINUOUS
  0
LAYER
  2
168
 70
    64
 62
     7
  6
CONTINUOUS
  0
LAYER
  2
169
 70
    64
 62
     7
  6
CONTINUOUS
  0
LAYER
  2
170
 70
    64
 62
     7
  6
CONTINUOUS
  0
LAYER
  2
171
 70
    64
 62
     7
  6
CONTINUOUS
  0
LAYER
  2
172
 70
    64
 62
     7
  6
CONTINUOUS
  0
LAYER
  2
173
 70
    64
 62
     7
  6
CONTINUOUS
  0
LAYER
  2
174
 70
    64
 62
     7
  6
CONTINUOUS
  0
LAYER
  2
175
 70
    64
 62
     7
  6
CONTINUOUS
  0
LAYER
  2
176
 70
    64
 62
     7
  6
CONTINUOUS
  0
LAYER
  2
177
 70
    64
 62
     7
  6
CONTINUOUS
  0
LAYER
  2
178
 70
    64
 62
     7
  6
CONTINUOUS
  0
LAYER
  2
179
 70
    64
 62
     7
  6
CONTINUOUS
  0
LAYER
  2
180
 70
    64
 62
     7
  6
CONTINUOUS
  0
LAYER
  2
181
 70
    64
 62
     7
  6
CONTINUOUS
  0
LAYER
  2
182
 70
    64
 62
     7
  6
CONTINUOUS
  0
LAYER
  2
183
 70
    64
 62
     7
  6
CONTINUOUS
  0
LAYER
  2
184
 70
    64
 62
     7
  6
CONTINUOUS
  0
LAYER
  2
185
 70
    64
 62
     7
  6
CONTINUOUS
  0
LAYER
  2
186
 70
    64
 62
     7
  6
CONTINUOUS
  0
LAYER
  2
187
 70
    64
 62
     7
  6
CONTINUOUS
  0
LAYER
  2
188
 70
    64
 62
     7
  6
CONTINUOUS
  0
LAYER
  2
189
 70
    64
 62
     7
  6
CONTINUOUS
  0
LAYER
  2
190
 70
    64
 62
     7
  6
CONTINUOUS
  0
LAYER
  2
191
 70
    64
 62
     7
  6
CONTINUOUS
  0
LAYER
  2
192
 70
    64
 62
     7
  6
CONTINUOUS
  0
LAYER
  2
193
 70
    64
 62
     7
  6
CONTINUOUS
  0
LAYER
  2
194
 70
    64
 62
     7
  6
CONTINUOUS
  0
LAYER
  2
195
 70
    64
 62
     7
  6
CONTINUOUS
  0
LAYER
  2
196
 70
    64
 62
     7
  6
CONTINUOUS
  0
LAYER
  2
197
 70
    64
 62
     7
  6
CONTINUOUS
  0
LAYER
  2
198
 70
    64
 62
     7
  6
CONTINUOUS
  0
LAYER
  2
199
 70
    64
 62
     7
  6
CONTINUOUS
  0
LAYER
  2
200
 70
    64
 62
     7
  6
CONTINUOUS
  0
LAYER
  2
201
 70
    64
 62
     7
  6
CONTINUOUS
  0
LAYER
  2
202
 70
    64
 62
     7
  6
CONTINUOUS
  0
LAYER
  2
203
 70
    64
 62
     7
  6
CONTINUOUS
  0
LAYER
  2
204
 70
    64
 62
     7
  6
CONTINUOUS
  0
LAYER
  2
205
 70
    64
 62
     7
  6
CONTINUOUS
  0
LAYER
  2
206
 70
    64
 62
     7
  6
CONTINUOUS
  0
LAYER
  2
207
 70
    64
 62
     7
  6
CONTINUOUS
  0
LAYER
  2
208
 70
    64
 62
     7
  6
CONTINUOUS
  0
LAYER
  2
209
 70
    64
 62
     7
  6
CONTINUOUS
  0
LAYER
  2
210
 70
    64
 62
     7
  6
CONTINUOUS
  0
LAYER
  2
211
 70
    64
 62
     7
  6
CONTINUOUS
  0
LAYER
  2
212
 70
    64
 62
     7
  6
CONTINUOUS
  0
LAYER
  2
213
 70
    64
 62
     7
  6
CONTINUOUS
  0
LAYER
  2
214
 70
    64
 62
     7
  6
CONTINUOUS
  0
LAYER
  2
215
 70
    64
 62
     7
  6
CONTINUOUS
  0
LAYER
  2
216
 70
    64
 62
     7
  6
CONTINUOUS
  0
LAYER
  2
217
 70
    64
 62
     7
  6
CONTINUOUS
  0
LAYER
  2
218
 70
    64
 62
     7
  6
CONTINUOUS
  0
LAYER
  2
219
 70
    64
 62
     7
  6
CONTINUOUS
  0
LAYER
  2
220
 70
    64
 62
     7
  6
CONTINUOUS
  0
LAYER
  2
221
 70
    64
 62
     7
  6
CONTINUOUS
  0
LAYER
  2
222
 70
    64
 62
     7
  6
CONTINUOUS
  0
LAYER
  2
223
 70
    64
 62
     7
  6
CONTINUOUS
  0
LAYER
  2
224
 70
    64
 62
     7
  6
CONTINUOUS
  0
LAYER
  2
225
 70
    64
 62
     7
  6
CONTINUOUS
  0
LAYER
  2
226
 70
    64
 62
     7
  6
CONTINUOUS
  0
LAYER
  2
227
 70
    64
 62
     7
  6
CONTINUOUS
  0
LAYER
  2
228
 70
    64
 62
     7
  6
CONTINUOUS
  0
LAYER
  2
229
 70
    64
 62
     7
  6
CONTINUOUS
  0
LAYER
  2
230
 70
    64
 62
     7
  6
CONTINUOUS
  0
LAYER
  2
231
 70
    64
 62
     7
  6
CONTINUOUS
  0
LAYER
  2
232
 70
    64
 62
     7
  6
CONTINUOUS
  0
LAYER
  2
233
 70
    64
 62
     7
  6
CONTINUOUS
  0
LAYER
  2
234
 70
    64
 62
     7
  6
CONTINUOUS
  0
LAYER
  2
235
 70
    64
 62
     7
  6
CONTINUOUS
  0
LAYER
  2
236
 70
    64
 62
     7
  6
CONTINUOUS
  0
LAYER
  2
237
 70
    64
 62
     7
  6
CONTINUOUS
  0
LAYER
  2
238
 70
    64
 62
     7
  6
CONTINUOUS
  0
LAYER
  2
239
 70
    64
 62
     7
  6
CONTINUOUS
  0
LAYER
  2
240
 70
    64
 62
     7
  6
CONTINUOUS
  0
LAYER
  2
241
 70
    64
 62
     7
  6
CONTINUOUS
  0
LAYER
  2
242
 70
    64
 62
     7
  6
CONTINUOUS
  0
LAYER
  2
243
 70
    64
 62
     7
  6
CONTINUOUS
  0
LAYER
  2
244
 70
    64
 62
     7
  6
CONTINUOUS
  0
LAYER
  2
245
 70
    64
 62
     7
  6
CONTINUOUS
  0
LAYER
  2
246
 70
    64
 62
     7
  6
CONTINUOUS
  0
LAYER
  2
247
 70
    64
 62
     7
  6
CONTINUOUS
  0
LAYER
  2
248
 70
    64
 62
     7
  6
CONTINUOUS
  0
LAYER
  2
249
 70
    64
 62
     7
  6
CONTINUOUS
  0
LAYER
  2
250
 70
    64
 62
     7
  6
CONTINUOUS
  0
LAYER
  2
251
 70
    64
 62
     7
  6
CONTINUOUS
  0
LAYER
  2
252
 70
    64
 62
     7
  6
CONTINUOUS
  0
LAYER
  2
253
 70
    64
 62
     7
  6
CONTINUOUS
  0
LAYER
  2
254
 70
    64
 62
     7
  6
CONTINUOUS
  0
LAYER
  2
255
 70
    64
 62
     7
  6
CONTINUOUS
  0
ENDTAB
  0
TABLE
  2
STYLE
 70
     2
  0
STYLE
  2
STANDARD
 70
    64
 40
0.0
 41
1.0
 50
0.0
 71
     0
 42
3.000000
  3
TXT
  4
BIGFONT
  0
ENDTAB
  0
ENDSEC
  0
SECTION
  2
ENTITIES
  0
LINE
  8
0
  6
DASHDOT
 62
     3
 10
-68.073722839355469
 20
-78.54229736328125
 11
-68.073722839355469
 21
 90.587928771972656
  0
LINE
  8
0
  6
CONTINUOUS
 62
     3
 10
-154.27371215820312
 20
 103.94516754150391
 11
-61.273731231689453
 21
 103.94516754150391
  0
LINE
  8
0
  6
CONTINUOUS
 62
     3
 10
-61.273731231689453
 20
 103.94516754150391
 11
-61.273731231689453
 21
-93.054832458496094
  0
LINE
  8
0
  6
CONTINUOUS
 62
     3
 10
-61.273731231689453
 20
-93.054832458496094
 11
-154.27371215820312
 21
-93.054832458496094
  0
LINE
  8
0
  6
CONTINUOUS
 62
     3
 10
-154.27371215820312
 20
-93.054832458496094
 11
-154.27371215820312
 21
 103.94516754150391
  0
LINE
  8
0
  6
DASHDOT
 62
     3
 10
-156.73077392578125
 20
 92.945159912109375
 11
-58.198719024658203
 21
 92.945159912109375
  0
LINE
  8
0
  6
DASHDOT
 62
     3
 10
-158.19711303710937
 20
-82.054832458496094
 11
-58.198719024658203
 21
-82.054832458496094
  0
LINE
  8
0
  6
DOT
 62
     3
 10
-153.07373046875
 20
-93.054832458496094
 11
-153.07373046875
 21
-90.054840087890625
  0
LINE
  8
0
  6
CONTINUOUS
 62
     3
 10
-153.07373046875
 20
-90.054840087890625
 11
-153.07373046875
 21
-88.054847717285156
  0
LINE
  8
0
  6
DOT
 62
     3
 10
-153.07373046875
 20
-88.054847717285156
 11
-153.07373046875
 21
-76.054851531982422
  0
LINE
  8
0
  6
CONTINUOUS
 62
     3
 10
-153.07373046875
 20
-76.054851531982422
 11
-153.07373046875
 21
-74.054828643798828
  0
LINE
  8
0
  6
DOT
 62
     3
 10
-153.07373046875
 20
-74.054828643798828
 11
-153.07373046875
 21
-64.804828643798828
  0
LINE
  8
0
  6
DOT
 62
     3
 10
-153.07373046875
 20
-49.054841995239258
 11
-153.07373046875
 21
-15.054837226867676
  0
LINE
  8
0
  6
DOT
 62
     3
 10
-153.07373046875
 20
 0.945159912109375
 11
-153.07373046875
 21
 9.945159912109375
  0
LINE
  8
0
  6
DOT
 62
     3
 10
-153.07373046875
 20
 25.945159912109375
 11
-153.07373046875
 21
 34.945159912109375
  0
LINE
  8
0
  6
DOT
 62
     3
 10
-153.07373046875
 20
 50.945159912109375
 11
-153.07373046875
 21
 59.945159912109375
  0
LINE
  8
0
  6
DOT
 62
     3
 10
-153.07373046875
 20
 75.945159912109375
 11
-153.07373046875
 21
 85.195159912109375
  0
LINE
  8
0
  6
DOT
 62
     3
 10
-153.07373046875
 20
 100.94515991210937
 11
-153.07373046875
 21
 103.94516754150391
  0
LINE
  8
0
  6
CONTINUOUS
 62
     3
 10
-154.27371215820312
 20
-76.054851531982422
 11
-150.27371215820313
 21
-76.054851531982422
  0
LINE
  8
0
  6
CONTINUOUS
 62
     3
 10
-149.27371215820312
 20
-77.054851531982422
 11
-149.27371215820312
 21
-87.054817199707031
  0
ARC
  8
0
  6
CONTINUOUS
 62
     3
 10
-150.27371215820313
 20
-77.054851531982422
 40
 1
 50
 0
 51
 90.000004039712721
  0
LINE
  8
0
  6
CONTINUOUS
 62
     3
 10
-150.27371215820313
 20
-88.054847717285156
 11
-154.27371215820312
 21
-88.054847717285156
  0
ARC
  8
0
  6
CONTINUOUS
 62
     3
 10
-150.27371215820313
 20
-87.054817199707031
 40
 1
 50
-90.000000851989171
 51
 0
  0
LINE
  8
0
  6
CONTINUOUS
 62
     3
 10
-154.27371215820312
 20
-74.054828643798828
 11
-139.773681640625
 21
-74.054828643798828
  0
LINE
  8
0
  6
CONTINUOUS
 62
     3
 10
-136.773681640625
 20
-77.054840087890625
 11
-136.773681640625
 21
-87.054817199707031
  0
ARC
  8
0
  6
CONTINUOUS
 62
     3
 10
-139.773681640625
 20
-77.054840087890625
 40
 3
 50
 0
 51
 90.000004039712721
  0
LINE
  8
0
  6
CONTINUOUS
 62
     3
 10
-139.773681640625
 20
-90.054840087890625
 11
-154.27371215820312
 21
-90.054840087890625
  0
ARC
  8
0
  6
CONTINUOUS
 62
     3
 10
-139.773681640625
 20
-87.054817199707031
 40
 3
 50
-89.99997353123203
 51
 0
  0
LINE
  8
0
  6
DOT
 62
     3
 10
-62.473724365234375
 20
 103.94516754150391
 11
-62.473724365234375
 21
 97.545158386230469
  0
LINE
  8
0
  6
DOT
 62
     3
 10
-62.473724365234375
 20
 88.345161437988281
 11
-62.473724365234375
 21
 72.545158386230469
  0
LINE
  8
0
  6
DOT
 62
     3
 10
-62.473724365234375
 20
 63.345161437988281
 11
-62.473724365234375
 21
 47.545158386230469
  0
LINE
  8
0
  6
DOT
 62
     3
 10
-62.473724365234375
 20
 38.345161437988281
 11
-62.473724365234375
 21
 22.545158386230469
  0
LINE
  8
0
  6
DOT
 62
     3
 10
-62.473724365234375
 20
 13.345161437988281
 11
-62.473724365234375
 21
-2.4548406600952148
  0
LINE
  8
0
  6
DOT
 62
     3
 10
-62.473724365234375
 20
-11.654840469360352
 11
-62.473724365234375
 21
-27.454841613769531
  0
LINE
  8
0
  6
DOT
 62
     3
 10
-62.473724365234375
 20
-36.654838562011719
 11
-62.473724365234375
 21
-52.454837799072266
  0
LINE
  8
0
  6
DOT
 62
     3
 10
-62.473724365234375
 20
-61.654834747314453
 11
-62.473724365234375
 21
-77.454841613769531
  0
LINE
  8
0
  6
CONTINUOUS
 62
     3
 10
-28.673734664916992
 20
-77.454841613769531
 11
-28.673734664916992
 21
-86.654830932617188
  0
LINE
  8
0
  6
DOT
 62
     3
 10
-62.473724365234375
 20
-86.654830932617188
 11
-62.473724365234375
 21
-93.054832458496094
  0
LINE
  8
0
  6
CONTINUOUS
 62
     3
 10
-78.773735046386719
 20
-77.054840087890625
 11
-73.773735046386719
 21
-77.054840087890625
  0
LINE
  8
0
  6
CONTINUOUS
 62
     3
 10
-73.773735046386719
 20
-75.854835510253906
 11
-73.773735046386719
 21
-88.254844665527344
  0
LINE
  8
0
  6
CONTINUOUS
 62
     3
 10
-73.773735046386719
 20
-87.054832458496094
 11
-78.773735046386719
 21
-87.054832458496094
  0
LINE
  8
0
  6
CONTINUOUS
 62
     3
 10
-78.773735046386719
 20
-88.254844665527344
 11
-78.773735046386719
 21
-75.854835510253906
  0
LINE
  8
0
  6
CONTINUOUS
 62
     3
 10
-28.673734664916992
 20
-77.454841613769531
 11
-31.873733520507813
 21
-77.454841613769531
  0
LINE
  8
0
  6
CONTINUOUS
 62
     3
 10
-31.873733520507813
 20
-86.654830932617188
 11
-28.673734664916992
 21
-86.654830932617188
  0
LINE
  8
0
  6
DOT
 62
     3
 10
-73.773735046386719
 20
-75.554843902587891
 11
-78.773735046386719
 21
-75.554843902587891
  0
LINE
  8
0
  6
DOT
 62
     3
 10
-78.773735046386719
 20
-75.554843902587891
 11
-78.773735046386719
 21
-75.854835510253906
  0
LINE
  8
0
  6
DOT
 62
     3
 10
-78.773735046386719
 20
-88.254844665527344
 11
-78.773735046386719
 21
-88.554847717285156
  0
LINE
  8
0
  6
DOT
 62
     3
 10
-78.773735046386719
 20
-88.554847717285156
 11
-73.773735046386719
 21
-88.554847717285156
  0
LINE
  8
0
  6
DOT
 62
     3
 10
-73.773735046386719
 20
-88.554847717285156
 11
-73.773735046386719
 21
-88.254844665527344
  0
LINE
  8
0
  6
DOT
 62
     3
 10
-73.773735046386719
 20
-75.854835510253906
 11
-78.773735046386719
 21
-75.854835510253906
  0
LINE
  8
0
  6
DOT
 62
     3
 10
-78.773735046386719
 20
-88.254844665527344
 11
-73.773735046386719
 21
-88.254844665527344
  0
LINE
  8
0
  6
DASHDOT
 62
     7
 10
-108.07372283935547
 20
 107.11484527587891
 11
-108.07372283935547
 21
-99.071128845214844
  0
LINE
  8
0
  6
CONTINUOUS
 62
     7
 10
-156.73077392578125
 20
 92.945167541503906
 11
-168.23373413085937
 21
 92.945167541503906
  0
LINE
  8
0
  6
CONTINUOUS
 62
     7
 10
-156.73077392578125
 20
-82.054832458496094
 11
-168.23373413085937
 21
-82.054832458496094
  0
LINE
  8
0
  6
CONTINUOUS
 62
     7
 10
-154.27371215820312
 20
-95.054824829101563
 11
-154.27371215820312
 21
-120.01482391357422
  0
LINE
  8
0
  6
CONTINUOUS
 62
     7
 10
-61.273731231689453
 20
-94.60247802734375
 11
-61.273731231689453
 21
-120.01482391357422
  0
LINE
  8
0
  6
CONTINUOUS
 62
     7
 10
-57.06884765625
 20
 80.445167541503906
 11
-44.313728332519531
 21
 80.445167541503906
  0
LINE
  8
0
  6
CONTINUOUS
 62
     7
 10
-59.273723602294922
 20
 103.94516754150391
 11
-44.313728332519531
 21
 103.94516754150391
  0
LINE
  8
0
  6
CONTINUOUS
 62
     7
 10
-167.77374267578125
 20
-82.054832458496094
 11
-168.23373413085937
 21
-82.054832458496094
  0
CIRCLE
  8
0
  6
CONTINUOUS
 62
     3
 10
-68.073722839355469
 20
 80.445152282714844
 40
 4.5
  0
LINE
  8
0
  6
DOT
 62
     6
 10
-73.273735046386719
 20
 103.94516754150391
 11
-73.273735046386719
 21
 83.445152282714844
  0
LINE
  8
0
  6
DOT
 62
     6
 10
-73.273735046386719
 20
 83.445152282714844
 11
-72.27374267578125
 21
 82.445152282714844
  0
LINE
  8
0
  6
DOT
 62
     6
 10
-73.273735046386719
 20
-93.054832458496094
 11
-73.273735046386719
 21
-72.554836273193359
  0
LINE
  8
0
  6
DOT
 62
     6
 10
-73.273735046386719
 20
-66.554851531982422
 11
-73.273735046386719
 21
 77.445159912109375
  0
LINE
  8
0
  6
DOT
 62
     6
 10
-73.273735046386719
 20
 77.445159912109375
 11
-72.27374267578125
 21
 78.445167541503906
  0
LINE
  8
0
  6
DASHDOT
 62
     3
 10
-143.07373046875
 20
 96.70318603515625
 11
-143.07373046875
 21
-85.610977172851562
  0
LINE
  8
0
  6
CONTINUOUS
 62
     7
 10
-78.4954833984375
 20
 110.33867645263672
 11
-63.882015228271484
 21
 110.33867645263672
  0
TEXT
  8
0
  6
CONTINUOUS
 62
     7
 10
-76.114044189453125
 20
 111.08867645263672
 11
-66.614044189453125
 21
 111.08867645263672
 40
 2.5
 41
 0.8
  1
２－φ９
 50
 0
 72
  5
  0
LINE
  8
0
  6
CONTINUOUS
 62
     7
 10
-63.882015228271484
 20
 110.33867645263672
 11
-67.448837280273437
 21
 84.901557922363281
  0
LINE
  8
0
  6
CONTINUOUS
 62
     7
 10
-67.448837280273437
 20
 84.901557922363281
 11
-66.277509700961787
 21
 87.663439835469617
  0
LINE
  8
0
  6
CONTINUOUS
 62
     7
 10
-67.448837280273437
 20
 84.901557922363281
 11
-67.815378796989378
 21
 87.879081611021959
  0
LINE
  8
0
  6
CONTINUOUS
 62
     6
 10
-68.07373046875
 20
 82.445152282714844
 11
-72.27374267578125
 21
 82.445152282714844
  0
LINE
  8
0
  6
CONTINUOUS
 62
     6
 10
-68.07373046875
 20
 78.445167541503906
 11
-72.27374267578125
 21
 78.445167541503906
  0
LINE
  8
0
  6
CONTINUOUS
 62
     7
 10
-138.23716735839844
 20
 110.33867645263672
 11
-124.0306396484375
 21
 110.33867645263672
  0
TEXT
  8
0
  6
CONTINUOUS
 62
     7
 10
-135.85574340820312
 20
 111.08867645263672
 11
-126.35574340820312
 21
 111.08867645263672
 40
 2.5
 41
 0.8
  1
２－φ４
 50
 0
 72
  5
  0
TEXT
  8
0
  6
CONTINUOUS
 62
     7
 10
-162.74510498046874
 20
 110.83866119384766
 11
-148.74510498046874
 21
 110.83866119384766
 40
 3
 41
 0.8
  1
８－切抜き
 50
 0
 72
  5
  0
LINE
  8
0
  6
CONTINUOUS
 62
     7
 10
-164.65704345703125
 20
 110.33867645263672
 11
-148.23716735839844
 21
 110.33867645263672
  0
LINE
  8
0
  6
CONTINUOUS
 62
     7
 10
-148.23716735839844
 20
 110.33867645263672
 11
-146.055908203125
 21
 95.189338684082031
  0
LINE
  8
0
  6
CONTINUOUS
 62
     7
 10
-146.055908203125
 20
 95.189338684082031
 11
-145.70035075222444
 21
 98.168193984211442
  0
LINE
  8
0
  6
CONTINUOUS
 62
     7
 10
-146.055908203125
 20
 95.189338684082031
 11
-147.237414068205
 21
 97.946881773642303
  0
LINE
  8
0
  6
CONTINUOUS
 62
     7
 10
-108.07372283935547
 20
-99.071128845214844
 11
-108.07372283935547
 21
-115.01483917236328
  0
LINE
  8
0
  6
DASHDOT
 62
     7
 10
-158.02883911132812
 20
 80.445159912109375
 11
-57.06884765625
 21
 80.445159912109375
  0
LINE
  8
0
  6
DOT
 62
     3
 10
-73.773735046386719
 20
-75.554843902587891
 11
-73.773735046386719
 21
-75.854835510253906
  0
LINE
  8
0
  6
CONTINUOUS
 62
     3
 10
-62.473724365234375
 20
 97.545158386230469
 11
-62.473724365234375
 21
 88.345161437988281
  0
LINE
  8
0
  6
CONTINUOUS
 62
     3
 10
-78.773735046386719
 20
 97.945159912109375
 11
-73.773735046386719
 21
 97.945159912109375
  0
LINE
  8
0
  6
CONTINUOUS
 62
     3
 10
-73.773735046386719
 20
 99.145156860351563
 11
-73.773735046386719
 21
 86.745155334472656
  0
LINE
  8
0
  6
CONTINUOUS
 62
     3
 10
-73.773735046386719
 20
 87.945152282714844
 11
-78.773735046386719
 21
 87.945152282714844
  0
LINE
  8
0
  6
CONTINUOUS
 62
     3
 10
-78.773735046386719
 20
 86.745155334472656
 11
-78.773735046386719
 21
 99.145156860351563
  0
LINE
  8
0
  6
CONTINUOUS
 62
     3
 10
-61.273731231689453
 20
 97.545158386230469
 11
-63.773735046386719
 21
 97.545158386230469
  0
LINE
  8
0
  6
CONTINUOUS
 62
     3
 10
-63.773735046386719
 20
 97.545158386230469
 11
-63.773735046386719
 21
 88.345161437988281
  0
LINE
  8
0
  6
CONTINUOUS
 62
     3
 10
-63.773735046386719
 20
 88.345161437988281
 11
-61.273731231689453
 21
 88.345161437988281
  0
LINE
  8
0
  6
DOT
 62
     3
 10
-73.773735046386719
 20
 99.445159912109375
 11
-78.773735046386719
 21
 99.445159912109375
  0
LINE
  8
0
  6
DOT
 62
     3
 10
-78.773735046386719
 20
 99.445159912109375
 11
-78.773735046386719
 21
 99.145156860351563
  0
LINE
  8
0
  6
DOT
 62
     3
 10
-78.773735046386719
 20
 86.745155334472656
 11
-78.773735046386719
 21
 86.445152282714844
  0
LINE
  8
0
  6
DOT
 62
     3
 10
-78.773735046386719
 20
 86.445152282714844
 11
-73.773735046386719
 21
 86.445152282714844
  0
LINE
  8
0
  6
DOT
 62
     3
 10
-73.773735046386719
 20
 86.445152282714844
 11
-73.773735046386719
 21
 86.745155334472656
  0
LINE
  8
0
  6
DOT
 62
     3
 10
-73.773735046386719
 20
 99.145156860351563
 11
-78.773735046386719
 21
 99.145156860351563
  0
LINE
  8
0
  6
DOT
 62
     3
 10
-78.773735046386719
 20
 86.745155334472656
 11
-73.773735046386719
 21
 86.745155334472656
  0
LINE
  8
0
  6
DOT
 62
     3
 10
-73.773735046386719
 20
 99.445159912109375
 11
-73.773735046386719
 21
 99.145156860351563
  0
CIRCLE
  8
0
  6
CONTINUOUS
 62
     6
 10
-143.07373046875
 20
 92.945159912109375
 40
 2
  0
ARC
  8
0
  6
CONTINUOUS
 62
     6
 10
-68.07373046875
 20
 80.445159912109375
 40
 2
 50
-90.000000851989171
 51
 90.000004039712721
  0
LINE
  8
0
  6
CONTINUOUS
 62
     3
 10
-153.07373046875
 20
 84.945159912109375
 11
-153.07373046875
 21
 86.945152282714844
  0
LINE
  8
0
  6
DOT
 62
     3
 10
-153.07373046875
 20
 86.945152282714844
 11
-153.07373046875
 21
 98.945159912109375
  0
LINE
  8
0
  6
CONTINUOUS
 62
     3
 10
-153.07373046875
 20
 98.945159912109375
 11
-153.07373046875
 21
 100.94515991210937
  0
LINE
  8
0
  6
CONTINUOUS
 62
     3
 10
-154.27371215820312
 20
 98.945159912109375
 11
-150.27371215820313
 21
 98.945159912109375
  0
LINE
  8
0
  6
CONTINUOUS
 62
     3
 10
-149.27371215820312
 20
 97.945152282714844
 11
-149.27371215820312
 21
 87.945152282714844
  0
ARC
  8
0
  6
CONTINUOUS
 62
     3
 10
-150.27371215820313
 20
 97.945152282714844
 40
 1
 50
 0
 51
 90.000004039712721
  0
LINE
  8
0
  6
CONTINUOUS
 62
     3
 10
-150.27371215820313
 20
 86.945152282714844
 11
-154.27371215820312
 21
 86.945152282714844
  0
ARC
  8
0
  6
CONTINUOUS
 62
     3
 10
-150.27371215820313
 20
 87.945152282714844
 40
 1
 50
-90.000000851989171
 51
 0
  0
LINE
  8
0
  6
CONTINUOUS
 62
     3
 10
-154.27371215820312
 20
 100.94515991210937
 11
-139.773681640625
 21
 100.94515991210937
  0
LINE
  8
0
  6
CONTINUOUS
 62
     3
 10
-136.773681640625
 20
 97.945159912109375
 11
-136.773681640625
 21
 87.945167541503906
  0
ARC
  8
0
  6
CONTINUOUS
 62
     3
 10
-139.773681640625
 20
 97.945159912109375
 40
 3
 50
 0
 51
 90.000004039712721
  0
LINE
  8
0
  6
CONTINUOUS
 62
     3
 10
-139.773681640625
 20
 84.945167541503906
 11
-154.27371215820312
 21
 84.945159912109375
  0
ARC
  8
0
  6
CONTINUOUS
 62
     3
 10
-139.773681640625
 20
 87.945167541503906
 40
 3
 50
-89.99997353123203
 51
 0
  0
LINE
  8
0
  6
CONTINUOUS
 62
     6
 10
-138.77371215820313
 20
-89.883255004882813
 11
-138.77371215820313
 21
-74.226402282714844
  0
LINE
  8
0
  6
DOT
 62
     6
 10
-138.77371215820313
 20
-93.054832458496094
 11
-138.77371215820313
 21
-89.883255004882813
  0
LINE
  8
0
  6
DOT
 62
     6
 10
-138.77371215820313
 20
-74.226402282714844
 11
-138.77371215820313
 21
-64.883270263671875
  0
LINE
  8
0
  6
CONTINUOUS
 62
     6
 10
-138.77371215820313
 20
-64.883270263671875
 11
-138.77371215820313
 21
-49.226398468017578
  0
LINE
  8
0
  6
DOT
 62
     6
 10
-138.77371215820313
 20
-49.226398468017578
 11
-138.77371215820313
 21
 60.116722106933594
  0
LINE
  8
0
  6
CONTINUOUS
 62
     6
 10
-138.77371215820313
 20
 60.116722106933594
 11
-138.77371215820313
 21
 75.773597717285156
  0
LINE
  8
0
  6
DOT
 62
     6
 10
-138.77371215820313
 20
 75.773597717285156
 11
-138.77371215820313
 21
 85.116722106933594
  0
LINE
  8
0
  6
CONTINUOUS
 62
     6
 10
-138.77371215820313
 20
 85.116722106933594
 11
-138.77371215820313
 21
 100.77359771728516
  0
LINE
  8
0
  6
DOT
 62
     6
 10
-138.77371215820313
 20
 100.77359771728516
 11
-138.77371215820313
 21
 103.94516754150391
  0
CIRCLE
  8
0
  6
CONTINUOUS
 62
     6
 10
-143.07373046875
 20
-82.054832458496094
 40
 2
  0
LINE
  8
0
  6
CONTINUOUS
 62
     7
 10
-138.23716735839844
 20
 110.33867645263672
 11
-142.53793334960937
 21
 94.872055053710938
  0
LINE
  8
0
  6
CONTINUOUS
 62
     7
 10
-142.53793334960937
 20
 94.872055053710938
 11
-141.01353546592773
 21
 97.455891560192526
  0
LINE
  8
0
  6
CONTINUOUS
 62
     7
 10
-142.53793334960937
 20
 94.872055053710938
 11
-142.50968431010662
 21
 97.871922049390434
  0
LINE
  8
0
  6
DASHDOT
 62
     7
 10
 0.4267535209655762
 20
 80.445159912109375
 11
-39.509147644042969
 21
 80.445159912109375
  0
LINE
  8
0
  6
CONTINUOUS
 62
     3
 10
-5.8737344741821289
 20
 103.94516754150391
 11
-31.873733520507813
 21
 103.94516754150391
  0
LINE
  8
0
  6
CONTINUOUS
 62
     3
 10
-31.873733520507813
 20
 103.94516754150391
 11
-31.873733520507813
 21
-93.054832458496094
  0
LINE
  8
0
  6
CONTINUOUS
 62
     3
 10
-31.873733520507813
 20
-93.054832458496094
 11
-5.8737344741821289
 21
-93.054832458496094
  0
LINE
  8
0
  6
CONTINUOUS
 62
     3
 10
-5.8737344741821289
 20
-93.054832458496094
 11
-5.8737344741821289
 21
 103.94516754150391
  0
LINE
  8
0
  6
DASHDOT
 62
     3
 10
-35.470684051513672
 20
 92.945159912109375
 11
-2.7142727375030518
 21
 92.945159912109375
  0
LINE
  8
0
  6
DASHDOT
 62
     3
 10
-35.470684051513672
 20
-82.054832458496094
 11
-2.7142727375030518
 21
-82.054832458496094
  0
LINE
  8
0
  6
DOT
 62
     3
 10
-30.673736572265625
 20
 103.94516754150391
 11
-30.673736572265625
 21
 97.545158386230469
  0
LINE
  8
0
  6
DOT
 62
     3
 10
-30.673736572265625
 20
 88.345161437988281
 11
-30.673736572265625
 21
-77.454841613769531
  0
LINE
  8
0
  6
CONTINUOUS
 62
     3
 10
-30.673736572265625
 20
-77.454841613769531
 11
-30.673736572265625
 21
-86.654830932617188
  0
LINE
  8
0
  6
DOT
 62
     3
 10
-30.673736572265625
 20
-86.654830932617188
 11
-30.673736572265625
 21
-93.054832458496094
  0
LINE
  8
0
  6
CONTINUOUS
 62
     3
 10
-5.8737344741821289
 20
 98.045158386230469
 11
-11.173735618591309
 21
 98.045158386230469
  0
LINE
  8
0
  6
CONTINUOUS
 62
     3
 10
-11.173735618591309
 20
 98.045158386230469
 11
-11.173735618591309
 21
 87.845161437988281
  0
LINE
  8
0
  6
CONTINUOUS
 62
     3
 10
-11.173735618591309
 20
 87.845161437988281
 11
-5.8737344741821289
 21
 87.845161437988281
  0
LINE
  8
0
  6
DOT
 62
     3
 10
-7.0737452507019043
 20
-93.054832458496094
 11
-7.0737452507019043
 21
-87.154830932617188
  0
LINE
  8
0
  6
DOT
 62
     3
 10
-7.0737452507019043
 20
-76.954837799072266
 11
-7.0737452507019043
 21
 87.845161437988281
  0
LINE
  8
0
  6
CONTINUOUS
 62
     3
 10
-7.0737452507019043
 20
 87.845161437988281
 11
-7.0737452507019043
 21
 98.045158386230469
  0
LINE
  8
0
  6
DOT
 62
     3
 10
-7.0737452507019043
 20
 98.045158386230469
 11
-7.0737452507019043
 21
 103.94516754150391
  0
LINE
  8
0
  6
CONTINUOUS
 62
     3
 10
-5.8737344741821289
 20
-76.954837799072266
 11
-11.173735618591309
 21
-76.954837799072266
  0
LINE
  8
0
  6
CONTINUOUS
 62
     3
 10
-11.173735618591309
 20
-76.954837799072266
 11
-11.173735618591309
 21
-87.154830932617188
  0
LINE
  8
0
  6
CONTINUOUS
 62
     3
 10
-11.173735618591309
 20
-87.154830932617188
 11
-5.8737344741821289
 21
-87.154830932617188
  0
LINE
  8
0
  6
CONTINUOUS
 62
     3
 10
-7.0737452507019043
 20
-87.154830932617188
 11
-7.0737452507019043
 21
-76.954837799072266
  0
LINE
  8
0
  6
CONTINUOUS
 62
     3
 10
-28.673734664916992
 20
 97.545158386230469
 11
-28.673734664916992
 21
 88.345161437988281
  0
LINE
  8
0
  6
CONTINUOUS
 62
     3
 10
-28.673734664916992
 20
 97.545158386230469
 11
-31.873733520507813
 21
 97.545158386230469
  0
LINE
  8
0
  6
CONTINUOUS
 62
     3
 10
-31.873733520507813
 20
 88.345161437988281
 11
-28.673734664916992
 21
 88.345161437988281
  0
LINE
  8
0
  6
CONTINUOUS
 62
     3
 10
-30.673736572265625
 20
 97.545158386230469
 11
-30.673736572265625
 21
 88.345161437988281
  0
LINE
  8
0
  6
CONTINUOUS
 62
     3
 10
-62.473724365234375
 20
-77.454841613769531
 11
-62.473724365234375
 21
-86.654830932617188
  0
LINE
  8
0
  6
CONTINUOUS
 62
     3
 10
-61.273731231689453
 20
-77.454841613769531
 11
-63.773735046386719
 21
-77.454841613769531
  0
LINE
  8
0
  6
CONTINUOUS
 62
     3
 10
-63.773735046386719
 20
-77.454841613769531
 11
-63.773735046386719
 21
-86.654830932617188
  0
LINE
  8
0
  6
CONTINUOUS
 62
     3
 10
-63.773735046386719
 20
-86.654830932617188
 11
-61.273731231689453
 21
-86.654830932617188
  0
LINE
  8
0
  6
CONTINUOUS
 62
     3
 10
-153.07373046875
 20
 59.945159912109375
 11
-153.07373046875
 21
 61.945152282714844
  0
LINE
  8
0
  6
DOT
 62
     3
 10
-153.07373046875
 20
 61.945152282714844
 11
-153.07373046875
 21
 73.945159912109375
  0
LINE
  8
0
  6
CONTINUOUS
 62
     3
 10
-153.07373046875
 20
 73.945159912109375
 11
-153.07373046875
 21
 75.945159912109375
  0
LINE
  8
0
  6
CONTINUOUS
 62
     3
 10
-154.27371215820312
 20
 73.945159912109375
 11
-150.27371215820313
 21
 73.945159912109375
  0
LINE
  8
0
  6
CONTINUOUS
 62
     3
 10
-149.27371215820312
 20
 72.945152282714844
 11
-149.27371215820312
 21
 62.945152282714844
  0
ARC
  8
0
  6
CONTINUOUS
 62
     3
 10
-150.27371215820313
 20
 72.945152282714844
 40
 1
 50
 0
 51
 90.000004039712721
  0
LINE
  8
0
  6
CONTINUOUS
 62
     3
 10
-150.27371215820313
 20
 61.945152282714844
 11
-154.27371215820312
 21
 61.945152282714844
  0
ARC
  8
0
  6
CONTINUOUS
 62
     3
 10
-150.27371215820313
 20
 62.945152282714844
 40
 1
 50
-90.000000851989171
 51
 0
  0
LINE
  8
0
  6
CONTINUOUS
 62
     3
 10
-154.27371215820312
 20
 75.945159912109375
 11
-139.773681640625
 21
 75.945159912109375
  0
LINE
  8
0
  6
CONTINUOUS
 62
     3
 10
-136.773681640625
 20
 72.945159912109375
 11
-136.773681640625
 21
 62.945167541503906
  0
ARC
  8
0
  6
CONTINUOUS
 62
     3
 10
-139.773681640625
 20
 72.945159912109375
 40
 3
 50
 0
 51
 90.000004039712721
  0
LINE
  8
0
  6
CONTINUOUS
 62
     3
 10
-139.773681640625
 20
 59.945167541503906
 11
-154.27371215820312
 21
 59.945159912109375
  0
ARC
  8
0
  6
CONTINUOUS
 62
     3
 10
-139.773681640625
 20
 62.945167541503906
 40
 3
 50
-89.99997353123203
 51
 0
  0
LINE
  8
0
  6
CONTINUOUS
 62
     3
 10
-153.07373046875
 20
-64.804828643798828
 11
-153.07373046875
 21
-62.804843902587891
  0
LINE
  8
0
  6
DOT
 62
     3
 10
-153.07373046875
 20
-62.804843902587891
 11
-153.07373046875
 21
-51.054836273193359
  0
LINE
  8
0
  6
CONTINUOUS
 62
     3
 10
-153.07373046875
 20
-51.054836273193359
 11
-153.07373046875
 21
-49.054841995239258
  0
LINE
  8
0
  6
CONTINUOUS
 62
     3
 10
-154.27371215820312
 20
-51.054836273193359
 11
-150.27371215820313
 21
-51.054836273193359
  0
LINE
  8
0
  6
CONTINUOUS
 62
     3
 10
-149.27371215820312
 20
-52.054851531982422
 11
-149.27371215820312
 21
-62.054847717285156
  0
ARC
  8
0
  6
CONTINUOUS
 62
     3
 10
-150.27371215820313
 20
-52.054851531982422
 40
 1
 50
 0
 51
 90.000004039712721
  0
LINE
  8
0
  6
CONTINUOUS
 62
     3
 10
-150.27371215820313
 20
-63.054847717285156
 11
-154.27371215820312
 21
-63.054847717285156
  0
ARC
  8
0
  6
CONTINUOUS
 62
     3
 10
-150.27371215820313
 20
-62.054847717285156
 40
 1
 50
-90.000000851989171
 51
 0
  0
LINE
  8
0
  6
CONTINUOUS
 62
     3
 10
-154.27371215820312
 20
-49.054841995239258
 11
-139.773681640625
 21
-49.054841995239258
  0
LINE
  8
0
  6
CONTINUOUS
 62
     3
 10
-136.773681640625
 20
-52.054832458496094
 11
-136.773681640625
 21
-62.054828643798828
  0
ARC
  8
0
  6
CONTINUOUS
 62
     3
 10
-139.773681640625
 20
-52.054832458496094
 40
 3
 50
 0
 51
 90.000004039712721
  0
LINE
  8
0
  6
CONTINUOUS
 62
     3
 10
-139.773681640625
 20
-65.054832458496094
 11
-154.27371215820312
 21
-65.054832458496094
  0
ARC
  8
0
  6
CONTINUOUS
 62
     3
 10
-139.773681640625
 20
-62.054828643798828
 40
 3
 50
-89.99997353123203
 51
 0
  0
CIRCLE
  8
0
  6
CONTINUOUS
 62
     3
 10
-68.073722839355469
 20
-69.554847717285156
 40
 4.5
  0
LINE
  8
0
  6
DOT
 62
     6
 10
-73.273735046386719
 20
-66.554851531982422
 11
-72.27374267578125
 21
-67.554851531982422
  0
LINE
  8
0
  6
DOT
 62
     6
 10
-73.273735046386719
 20
-72.554836273193359
 11
-72.27374267578125
 21
-71.554836273193359
  0
LINE
  8
0
  6
CONTINUOUS
 62
     6
 10
-68.07373046875
 20
-67.554851531982422
 11
-72.27374267578125
 21
-67.554851531982422
  0
LINE
  8
0
  6
CONTINUOUS
 62
     6
 10
-68.07373046875
 20
-71.554836273193359
 11
-72.27374267578125
 21
-71.554836273193359
  0
ARC
  8
0
  6
CONTINUOUS
 62
     6
 10
-68.07373046875
 20
-69.554836273193359
 40
 2
 50
-90.000000851989171
 51
 90.000004039712721
  0
LINE
  8
0
  6
CONTINUOUS
 62
     3
 10
-62.473724365234375
 20
 72.545158386230469
 11
-62.473724365234375
 21
 63.345161437988281
  0
LINE
  8
0
  6
CONTINUOUS
 62
     3
 10
-78.773735046386719
 20
 72.945159912109375
 11
-73.773735046386719
 21
 72.945159912109375
  0
LINE
  8
0
  6
CONTINUOUS
 62
     3
 10
-73.773735046386719
 20
 74.145156860351563
 11
-73.773735046386719
 21
 61.745155334472656
  0
LINE
  8
0
  6
CONTINUOUS
 62
     3
 10
-73.773735046386719
 20
 62.945152282714844
 11
-78.773735046386719
 21
 62.945152282714844
  0
LINE
  8
0
  6
CONTINUOUS
 62
     3
 10
-78.773735046386719
 20
 61.745155334472656
 11
-78.773735046386719
 21
 74.145156860351563
  0
LINE
  8
0
  6
CONTINUOUS
 62
     3
 10
-61.273731231689453
 20
 72.545158386230469
 11
-63.773735046386719
 21
 72.545158386230469
  0
LINE
  8
0
  6
CONTINUOUS
 62
     3
 10
-63.773735046386719
 20
 72.545158386230469
 11
-63.773735046386719
 21
 63.345161437988281
  0
LINE
  8
0
  6
CONTINUOUS
 62
     3
 10
-63.773735046386719
 20
 63.345161437988281
 11
-61.273731231689453
 21
 63.345161437988281
  0
LINE
  8
0
  6
DOT
 62
     3
 10
-73.773735046386719
 20
 74.445159912109375
 11
-78.773735046386719
 21
 74.445159912109375
  0
LINE
  8
0
  6
DOT
 62
     3
 10
-78.773735046386719
 20
 74.445159912109375
 11
-78.773735046386719
 21
 74.145156860351563
  0
LINE
  8
0
  6
DOT
 62
     3
 10
-78.773735046386719
 20
 61.745155334472656
 11
-78.773735046386719
 21
 61.445152282714844
  0
LINE
  8
0
  6
DOT
 62
     3
 10
-78.773735046386719
 20
 61.445152282714844
 11
-73.773735046386719
 21
 61.445152282714844
  0
LINE
  8
0
  6
DOT
 62
     3
 10
-73.773735046386719
 20
 61.445152282714844
 11
-73.773735046386719
 21
 61.745155334472656
  0
LINE
  8
0
  6
DOT
 62
     3
 10
-73.773735046386719
 20
 74.145156860351563
 11
-78.773735046386719
 21
 74.145156860351563
  0
LINE
  8
0
  6
DOT
 62
     3
 10
-78.773735046386719
 20
 61.745155334472656
 11
-73.773735046386719
 21
 61.745155334472656
  0
LINE
  8
0
  6
DOT
 62
     3
 10
-73.773735046386719
 20
 74.445159912109375
 11
-73.773735046386719
 21
 74.145156860351563
  0
LINE
  8
0
  6
CONTINUOUS
 62
     3
 10
-62.473724365234375
 20
-52.454837799072266
 11
-62.473724365234375
 21
-61.654834747314453
  0
LINE
  8
0
  6
CONTINUOUS
 62
     3
 10
-78.773735046386719
 20
-52.054847717285156
 11
-73.773735046386719
 21
-52.054847717285156
  0
LINE
  8
0
  6
CONTINUOUS
 62
     3
 10
-73.773735046386719
 20
-50.854850769042969
 11
-73.773735046386719
 21
-63.254848480224609
  0
LINE
  8
0
  6
CONTINUOUS
 62
     3
 10
-73.773735046386719
 20
-62.054855346679688
 11
-78.773735046386719
 21
-62.054855346679688
  0
LINE
  8
0
  6
CONTINUOUS
 62
     3
 10
-78.773735046386719
 20
-63.254848480224609
 11
-78.773735046386719
 21
-50.854850769042969
  0
LINE
  8
0
  6
CONTINUOUS
 62
     3
 10
-61.273731231689453
 20
-52.454837799072266
 11
-63.773735046386719
 21
-52.454837799072266
  0
LINE
  8
0
  6
CONTINUOUS
 62
     3
 10
-63.773735046386719
 20
-52.454837799072266
 11
-63.773735046386719
 21
-61.654834747314453
  0
LINE
  8
0
  6
CONTINUOUS
 62
     3
 10
-63.773735046386719
 20
-61.654834747314453
 11
-61.273731231689453
 21
-61.654834747314453
  0
LINE
  8
0
  6
DOT
 62
     3
 10
-73.773735046386719
 20
-50.554840087890625
 11
-78.773735046386719
 21
-50.554840087890625
  0
LINE
  8
0
  6
DOT
 62
     3
 10
-78.773735046386719
 20
-50.554840087890625
 11
-78.773735046386719
 21
-50.854850769042969
  0
LINE
  8
0
  6
DOT
 62
     3
 10
-78.773735046386719
 20
-63.254848480224609
 11
-78.773735046386719
 21
-63.554851531982422
  0
LINE
  8
0
  6
DOT
 62
     3
 10
-78.773735046386719
 20
-63.554851531982422
 11
-73.773735046386719
 21
-63.554851531982422
  0
LINE
  8
0
  6
DOT
 62
     3
 10
-73.773735046386719
 20
-63.554851531982422
 11
-73.773735046386719
 21
-63.254848480224609
  0
LINE
  8
0
  6
DOT
 62
     3
 10
-73.773735046386719
 20
-50.854850769042969
 11
-78.773735046386719
 21
-50.854850769042969
  0
LINE
  8
0
  6
DOT
 62
     3
 10
-78.773735046386719
 20
-63.254848480224609
 11
-73.773735046386719
 21
-63.254848480224609
  0
LINE
  8
0
  6
DOT
 62
     3
 10
-73.773735046386719
 20
-50.554840087890625
 11
-73.773735046386719
 21
-50.854850769042969
  0
LINE
  8
0
  6
DASHDOT
 62
     3
 10
-156.73077392578125
 20
 67.945159912109375
 11
-58.198719024658203
 21
 67.945159912109375
  0
LINE
  8
0
  6
DASHDOT
 62
     3
 10
-156.73077392578125
 20
-57.054836273193359
 11
-58.198719024658203
 21
-57.054836273193359
  0
LINE
  8
0
  6
DASHDOT
 62
     7
 10
-158.02883911132812
 20
-69.554836273193359
 11
-57.06884765625
 21
-69.554836273193359
  0
LINE
  8
0
  6
DASHDOT
 62
     3
 10
-35.470684051513672
 20
 67.945159912109375
 11
-2.7142727375030518
 21
 67.945159912109375
  0
LINE
  8
0
  6
CONTINUOUS
 62
     3
 10
-5.8737344741821289
 20
 73.045158386230469
 11
-11.173735618591309
 21
 73.045158386230469
  0
LINE
  8
0
  6
CONTINUOUS
 62
     3
 10
-11.173735618591309
 20
 73.045158386230469
 11
-11.173735618591309
 21
 62.845161437988281
  0
LINE
  8
0
  6
CONTINUOUS
 62
     3
 10
-11.173735618591309
 20
 62.845161437988281
 11
-5.8737344741821289
 21
 62.845161437988281
  0
LINE
  8
0
  6
CONTINUOUS
 62
     3
 10
-7.0737452507019043
 20
 62.845161437988281
 11
-7.0737452507019043
 21
 73.045158386230469
  0
LINE
  8
0
  6
CONTINUOUS
 62
     3
 10
-28.673734664916992
 20
 72.545158386230469
 11
-28.673734664916992
 21
 63.345161437988281
  0
LINE
  8
0
  6
CONTINUOUS
 62
     3
 10
-28.673734664916992
 20
 72.545158386230469
 11
-31.873733520507813
 21
 72.545158386230469
  0
LINE
  8
0
  6
CONTINUOUS
 62
     3
 10
-31.873733520507813
 20
 63.345161437988281
 11
-28.673734664916992
 21
 63.345161437988281
  0
LINE
  8
0
  6
CONTINUOUS
 62
     3
 10
-30.673736572265625
 20
 72.545158386230469
 11
-30.673736572265625
 21
 63.345161437988281
  0
LINE
  8
0
  6
DASHDOT
 62
     7
 10
 0.4267535209655762
 20
-69.554836273193359
 11
-39.509147644042969
 21
-69.554836273193359
  0
LINE
  8
0
  6
DASHDOT
 62
     3
 10
-35.470684051513672
 20
-57.054836273193359
 11
-2.7142727375030518
 21
-57.054836273193359
  0
LINE
  8
0
  6
CONTINUOUS
 62
     3
 10
-5.8737344741821289
 20
-51.954837799072266
 11
-11.173735618591309
 21
-51.954837799072266
  0
LINE
  8
0
  6
CONTINUOUS
 62
     3
 10
-11.173735618591309
 20
-51.954837799072266
 11
-11.173735618591309
 21
-62.154834747314453
  0
LINE
  8
0
  6
CONTINUOUS
 62
     3
 10
-11.173735618591309
 20
-62.154834747314453
 11
-5.8737344741821289
 21
-62.154834747314453
  0
LINE
  8
0
  6
CONTINUOUS
 62
     3
 10
-7.0737452507019043
 20
-62.154834747314453
 11
-7.0737452507019043
 21
-51.954837799072266
  0
LINE
  8
0
  6
CONTINUOUS
 62
     3
 10
-28.673734664916992
 20
-52.454837799072266
 11
-28.673734664916992
 21
-61.654834747314453
  0
LINE
  8
0
  6
CONTINUOUS
 62
     3
 10
-28.673734664916992
 20
-52.454837799072266
 11
-31.873733520507813
 21
-52.454837799072266
  0
LINE
  8
0
  6
CONTINUOUS
 62
     3
 10
-31.873733520507813
 20
-61.654834747314453
 11
-28.673734664916992
 21
-61.654834747314453
  0
LINE
  8
0
  6
CONTINUOUS
 62
     3
 10
-30.673736572265625
 20
-52.454837799072266
 11
-30.673736572265625
 21
-61.654834747314453
  0
LINE
  8
0
  6
CONTINUOUS
 62
     7
 10
-156.73077392578125
 20
 67.945159912109375
 11
-168.23374938964844
 21
 67.945159912109375
  0
LINE
  8
0
  6
CONTINUOUS
 62
     7
 10
-156.73077392578125
 20
-57.054836273193359
 11
-168.23374938964844
 21
-57.054836273193359
  0
LINE
  8
0
  6
CONTINUOUS
 62
     3
 10
-153.07373046875
 20
 34.945159912109375
 11
-153.07373046875
 21
 36.945152282714844
  0
LINE
  8
0
  6
DOT
 62
     3
 10
-153.07373046875
 20
 36.945152282714844
 11
-153.07373046875
 21
 48.945159912109375
  0
LINE
  8
0
  6
CONTINUOUS
 62
     3
 10
-153.07373046875
 20
 48.945159912109375
 11
-153.07373046875
 21
 50.945159912109375
  0
LINE
  8
0
  6
CONTINUOUS
 62
     3
 10
-154.27371215820312
 20
 48.945159912109375
 11
-150.27371215820313
 21
 48.945159912109375
  0
LINE
  8
0
  6
CONTINUOUS
 62
     3
 10
-149.27371215820312
 20
 47.945152282714844
 11
-149.27371215820312
 21
 37.945152282714844
  0
ARC
  8
0
  6
CONTINUOUS
 62
     3
 10
-150.27371215820313
 20
 47.945152282714844
 40
 1
 50
 0
 51
 90.000004039712721
  0
LINE
  8
0
  6
CONTINUOUS
 62
     3
 10
-150.27371215820313
 20
 36.945152282714844
 11
-154.27371215820312
 21
 36.945152282714844
  0
ARC
  8
0
  6
CONTINUOUS
 62
     3
 10
-150.27371215820313
 20
 37.945152282714844
 40
 1
 50
-90.000000851989171
 51
 0
  0
LINE
  8
0
  6
CONTINUOUS
 62
     3
 10
-154.27371215820312
 20
 50.945159912109375
 11
-139.773681640625
 21
 50.945159912109375
  0
LINE
  8
0
  6
CONTINUOUS
 62
     3
 10
-136.773681640625
 20
 47.945159912109375
 11
-136.773681640625
 21
 37.945167541503906
  0
ARC
  8
0
  6
CONTINUOUS
 62
     3
 10
-139.773681640625
 20
 47.945159912109375
 40
 3
 50
 0
 51
 90.000004039712721
  0
LINE
  8
0
  6
CONTINUOUS
 62
     3
 10
-139.773681640625
 20
 34.945167541503906
 11
-154.27371215820312
 21
 34.945159912109375
  0
ARC
  8
0
  6
CONTINUOUS
 62
     3
 10
-139.773681640625
 20
 37.945167541503906
 40
 3
 50
-89.99997353123203
 51
 0
  0
LINE
  8
0
  6
CONTINUOUS
 62
     3
 10
-62.473724365234375
 20
 47.545158386230469
 11
-62.473724365234375
 21
 38.345161437988281
  0
LINE
  8
0
  6
CONTINUOUS
 62
     3
 10
-78.773735046386719
 20
 47.945159912109375
 11
-73.773735046386719
 21
 47.945159912109375
  0
LINE
  8
0
  6
CONTINUOUS
 62
     3
 10
-73.773735046386719
 20
 49.145156860351563
 11
-73.773735046386719
 21
 36.745155334472656
  0
LINE
  8
0
  6
CONTINUOUS
 62
     3
 10
-73.773735046386719
 20
 37.945152282714844
 11
-78.773735046386719
 21
 37.945152282714844
  0
LINE
  8
0
  6
CONTINUOUS
 62
     3
 10
-78.773735046386719
 20
 36.745155334472656
 11
-78.773735046386719
 21
 49.145156860351563
  0
LINE
  8
0
  6
CONTINUOUS
 62
     3
 10
-61.273731231689453
 20
 47.545158386230469
 11
-63.773735046386719
 21
 47.545158386230469
  0
LINE
  8
0
  6
CONTINUOUS
 62
     3
 10
-63.773735046386719
 20
 47.545158386230469
 11
-63.773735046386719
 21
 38.345161437988281
  0
LINE
  8
0
  6
CONTINUOUS
 62
     3
 10
-63.773735046386719
 20
 38.345161437988281
 11
-61.273731231689453
 21
 38.345161437988281
  0
LINE
  8
0
  6
DOT
 62
     3
 10
-73.773735046386719
 20
 49.445159912109375
 11
-78.773735046386719
 21
 49.445159912109375
  0
LINE
  8
0
  6
DOT
 62
     3
 10
-78.773735046386719
 20
 49.445159912109375
 11
-78.773735046386719
 21
 49.145156860351563
  0
LINE
  8
0
  6
DOT
 62
     3
 10
-78.773735046386719
 20
 36.745155334472656
 11
-78.773735046386719
 21
 36.445152282714844
  0
LINE
  8
0
  6
DOT
 62
     3
 10
-78.773735046386719
 20
 36.445152282714844
 11
-73.773735046386719
 21
 36.445152282714844
  0
LINE
  8
0
  6
DOT
 62
     3
 10
-73.773735046386719
 20
 36.445152282714844
 11
-73.773735046386719
 21
 36.745155334472656
  0
LINE
  8
0
  6
DOT
 62
     3
 10
-73.773735046386719
 20
 49.145156860351563
 11
-78.773735046386719
 21
 49.145156860351563
  0
LINE
  8
0
  6
DOT
 62
     3
 10
-78.773735046386719
 20
 36.745155334472656
 11
-73.773735046386719
 21
 36.745155334472656
  0
LINE
  8
0
  6
DOT
 62
     3
 10
-73.773735046386719
 20
 49.445159912109375
 11
-73.773735046386719
 21
 49.145156860351563
  0
LINE
  8
0
  6
DASHDOT
 62
     3
 10
-156.73077392578125
 20
 42.945159912109375
 11
-58.198719024658203
 21
 42.945159912109375
  0
LINE
  8
0
  6
CONTINUOUS
 62
     3
 10
-153.07373046875
 20
 9.945159912109375
 11
-153.07373046875
 21
 11.945152282714844
  0
LINE
  8
0
  6
DOT
 62
     3
 10
-153.07373046875
 20
 11.945152282714844
 11
-153.07373046875
 21
 23.945159912109375
  0
LINE
  8
0
  6
CONTINUOUS
 62
     3
 10
-153.07373046875
 20
 23.945159912109375
 11
-153.07373046875
 21
 25.945159912109375
  0
LINE
  8
0
  6
CONTINUOUS
 62
     3
 10
-154.27371215820312
 20
 23.945159912109375
 11
-150.27371215820313
 21
 23.945159912109375
  0
LINE
  8
0
  6
CONTINUOUS
 62
     3
 10
-149.27371215820312
 20
 22.945152282714844
 11
-149.27371215820312
 21
 12.945152282714844
  0
ARC
  8
0
  6
CONTINUOUS
 62
     3
 10
-150.27371215820313
 20
 22.945152282714844
 40
 1
 50
 0
 51
 90.000004039712721
  0
LINE
  8
0
  6
CONTINUOUS
 62
     3
 10
-150.27371215820313
 20
 11.945152282714844
 11
-154.27371215820312
 21
 11.945152282714844
  0
ARC
  8
0
  6
CONTINUOUS
 62
     3
 10
-150.27371215820313
 20
 12.945152282714844
 40
 1
 50
-90.000000851989171
 51
 0
  0
LINE
  8
0
  6
CONTINUOUS
 62
     3
 10
-154.27371215820312
 20
 25.945159912109375
 11
-139.773681640625
 21
 25.945159912109375
  0
LINE
  8
0
  6
CONTINUOUS
 62
     3
 10
-136.773681640625
 20
 22.945159912109375
 11
-136.773681640625
 21
 12.945167541503906
  0
ARC
  8
0
  6
CONTINUOUS
 62
     3
 10
-139.773681640625
 20
 22.945159912109375
 40
 3
 50
 0
 51
 90.000004039712721
  0
LINE
  8
0
  6
CONTINUOUS
 62
     3
 10
-139.773681640625
 20
 9.9451675415039062
 11
-154.27371215820312
 21
 9.945159912109375
  0
ARC
  8
0
  6
CONTINUOUS
 62
     3
 10
-139.773681640625
 20
 12.945167541503906
 40
 3
 50
-89.99997353123203
 51
 0
  0
LINE
  8
0
  6
CONTINUOUS
 62
     3
 10
-62.473724365234375
 20
 22.545158386230469
 11
-62.473724365234375
 21
 13.345161437988281
  0
LINE
  8
0
  6
CONTINUOUS
 62
     3
 10
-78.773735046386719
 20
 22.945159912109375
 11
-73.773735046386719
 21
 22.945159912109375
  0
LINE
  8
0
  6
CONTINUOUS
 62
     3
 10
-73.773735046386719
 20
 24.145156860351563
 11
-73.773735046386719
 21
 11.745153427124023
  0
LINE
  8
0
  6
CONTINUOUS
 62
     3
 10
-73.773735046386719
 20
 12.945152282714844
 11
-78.773735046386719
 21
 12.945152282714844
  0
LINE
  8
0
  6
CONTINUOUS
 62
     3
 10
-78.773735046386719
 20
 11.745153427124023
 11
-78.773735046386719
 21
 24.145156860351563
  0
LINE
  8
0
  6
CONTINUOUS
 62
     3
 10
-61.273731231689453
 20
 22.545158386230469
 11
-63.773735046386719
 21
 22.545158386230469
  0
LINE
  8
0
  6
CONTINUOUS
 62
     3
 10
-63.773735046386719
 20
 22.545158386230469
 11
-63.773735046386719
 21
 13.345161437988281
  0
LINE
  8
0
  6
CONTINUOUS
 62
     3
 10
-63.773735046386719
 20
 13.345161437988281
 11
-61.273731231689453
 21
 13.345161437988281
  0
LINE
  8
0
  6
DOT
 62
     3
 10
-73.773735046386719
 20
 24.445159912109375
 11
-78.773735046386719
 21
 24.445159912109375
  0
LINE
  8
0
  6
DOT
 62
     3
 10
-78.773735046386719
 20
 24.445159912109375
 11
-78.773735046386719
 21
 24.145156860351563
  0
LINE
  8
0
  6
DOT
 62
     3
 10
-78.773735046386719
 20
 11.745153427124023
 11
-78.773735046386719
 21
 11.445154190063477
  0
LINE
  8
0
  6
DOT
 62
     3
 10
-78.773735046386719
 20
 11.445154190063477
 11
-73.773735046386719
 21
 11.445154190063477
  0
LINE
  8
0
  6
DOT
 62
     3
 10
-73.773735046386719
 20
 11.445154190063477
 11
-73.773735046386719
 21
 11.745153427124023
  0
LINE
  8
0
  6
DOT
 62
     3
 10
-73.773735046386719
 20
 24.145156860351563
 11
-78.773735046386719
 21
 24.145156860351563
  0
LINE
  8
0
  6
DOT
 62
     3
 10
-78.773735046386719
 20
 11.745153427124023
 11
-73.773735046386719
 21
 11.745153427124023
  0
LINE
  8
0
  6
DOT
 62
     3
 10
-73.773735046386719
 20
 24.445159912109375
 11
-73.773735046386719
 21
 24.145156860351563
  0
LINE
  8
0
  6
DASHDOT
 62
     3
 10
-156.73077392578125
 20
 17.945159912109375
 11
-58.198719024658203
 21
 17.945159912109375
  0
LINE
  8
0
  6
CONTINUOUS
 62
     3
 10
-153.07373046875
 20
-15.054837226867676
 11
-153.07373046875
 21
-13.054844856262207
  0
LINE
  8
0
  6
DOT
 62
     3
 10
-153.07373046875
 20
-13.054844856262207
 11
-153.07373046875
 21
-1.0548381805419922
  0
LINE
  8
0
  6
CONTINUOUS
 62
     3
 10
-153.07373046875
 20
-1.0548381805419922
 11
-153.07373046875
 21
 0.945159912109375
  0
LINE
  8
0
  6
CONTINUOUS
 62
     3
 10
-154.27371215820312
 20
-1.0548381805419922
 11
-150.27371215820313
 21
-1.0548381805419922
  0
LINE
  8
0
  6
CONTINUOUS
 62
     3
 10
-149.27371215820312
 20
-2.0548477172851562
 11
-149.27371215820312
 21
-12.054845333099365
  0
ARC
  8
0
  6
CONTINUOUS
 62
     3
 10
-150.27371215820313
 20
-2.0548477172851562
 40
 1
 50
 0
 51
 90.000004039712721
  0
LINE
  8
0
  6
CONTINUOUS
 62
     3
 10
-150.27371215820313
 20
-13.054844856262207
 11
-154.27371215820312
 21
-13.054844856262207
  0
ARC
  8
0
  6
CONTINUOUS
 62
     3
 10
-150.27371215820313
 20
-12.054845333099365
 40
 1
 50
-90.000000851989171
 51
 0
  0
LINE
  8
0
  6
CONTINUOUS
 62
     3
 10
-154.27371215820312
 20
 0.945159912109375
 11
-139.773681640625
 21
 0.945159912109375
  0
LINE
  8
0
  6
CONTINUOUS
 62
     3
 10
-136.773681640625
 20
-2.0548381805419922
 11
-136.773681640625
 21
-12.054826259613037
  0
ARC
  8
0
  6
CONTINUOUS
 62
     3
 10
-139.773681640625
 20
-2.0548381805419922
 40
 3
 50
 0
 51
 90.000004039712721
  0
LINE
  8
0
  6
CONTINUOUS
 62
     3
 10
-139.773681640625
 20
-15.05483078956604
 11
-154.27371215820312
 21
-15.054837226867676
  0
ARC
  8
0
  6
CONTINUOUS
 62
     3
 10
-139.773681640625
 20
-12.054826259613037
 40
 3
 50
-89.99997353123203
 51
 0
  0
LINE
  8
0
  6
CONTINUOUS
 62
     3
 10
-62.473724365234375
 20
-2.4548406600952148
 11
-62.473724365234375
 21
-11.654840469360352
  0
LINE
  8
0
  6
CONTINUOUS
 62
     3
 10
-78.773735046386719
 20
-2.0548381805419922
 11
-73.773735046386719
 21
-2.0548381805419922
  0
LINE
  8
0
  6
CONTINUOUS
 62
     3
 10
-73.773735046386719
 20
-0.8548431396484375
 11
-73.773735046386719
 21
-13.254840850830078
  0
LINE
  8
0
  6
CONTINUOUS
 62
     3
 10
-73.773735046386719
 20
-12.054845333099365
 11
-78.773735046386719
 21
-12.054845333099365
  0
LINE
  8
0
  6
CONTINUOUS
 62
     3
 10
-78.773735046386719
 20
-13.254840850830078
 11
-78.773735046386719
 21
-0.8548431396484375
  0
LINE
  8
0
  6
CONTINUOUS
 62
     3
 10
-61.273731231689453
 20
-2.4548406600952148
 11
-63.773735046386719
 21
-2.4548406600952148
  0
LINE
  8
0
  6
CONTINUOUS
 62
     3
 10
-63.773735046386719
 20
-2.4548406600952148
 11
-63.773735046386719
 21
-11.654840469360352
  0
LINE
  8
0
  6
CONTINUOUS
 62
     3
 10
-63.773735046386719
 20
-11.654840469360352
 11
-61.273731231689453
 21
-11.654840469360352
  0
LINE
  8
0
  6
DOT
 62
     3
 10
-73.773735046386719
 20
-0.554840087890625
 11
-78.773735046386719
 21
-0.554840087890625
  0
LINE
  8
0
  6
DOT
 62
     3
 10
-78.773735046386719
 20
-0.554840087890625
 11
-78.773735046386719
 21
-0.8548431396484375
  0
LINE
  8
0
  6
DOT
 62
     3
 10
-78.773735046386719
 20
-13.254840850830078
 11
-78.773735046386719
 21
-13.554844379425049
  0
LINE
  8
0
  6
DOT
 62
     3
 10
-78.773735046386719
 20
-13.554844379425049
 11
-73.773735046386719
 21
-13.554844379425049
  0
LINE
  8
0
  6
DOT
 62
     3
 10
-73.773735046386719
 20
-13.554844379425049
 11
-73.773735046386719
 21
-13.254840850830078
  0
LINE
  8
0
  6
DOT
 62
     3
 10
-73.773735046386719
 20
-0.8548431396484375
 11
-78.773735046386719
 21
-0.8548431396484375
  0
LINE
  8
0
  6
DOT
 62
     3
 10
-78.773735046386719
 20
-13.254840850830078
 11
-73.773735046386719
 21
-13.254840850830078
  0
LINE
  8
0
  6
DOT
 62
     3
 10
-73.773735046386719
 20
-0.554840087890625
 11
-73.773735046386719
 21
-0.8548431396484375
  0
LINE
  8
0
  6
DASHDOT
 62
     3
 10
-156.73077392578125
 20
-7.0548391342163086
 11
-58.198719024658203
 21
-7.0548391342163086
  0
LINE
  8
0
  6
CONTINUOUS
 62
     3
 10
-153.07373046875
 20
-40.054834365844727
 11
-153.07373046875
 21
-38.054841995239258
  0
LINE
  8
0
  6
DOT
 62
     3
 10
-153.07373046875
 20
-38.054841995239258
 11
-153.07373046875
 21
-26.054842948913574
  0
LINE
  8
0
  6
CONTINUOUS
 62
     3
 10
-153.07373046875
 20
-26.054842948913574
 11
-153.07373046875
 21
-24.054844379425049
  0
LINE
  8
0
  6
CONTINUOUS
 62
     3
 10
-154.27371215820312
 20
-26.054842948913574
 11
-150.27371215820313
 21
-26.054842948913574
  0
LINE
  8
0
  6
CONTINUOUS
 62
     3
 10
-149.27371215820312
 20
-27.054848670959473
 11
-149.27371215820312
 21
-37.054843902587891
  0
ARC
  8
0
  6
CONTINUOUS
 62
     3
 10
-150.27371215820313
 20
-27.054848670959473
 40
 1
 50
 0
 51
 90.000004039712721
  0
LINE
  8
0
  6
CONTINUOUS
 62
     3
 10
-150.27371215820313
 20
-38.054841995239258
 11
-154.27371215820312
 21
-38.054841995239258
  0
ARC
  8
0
  6
CONTINUOUS
 62
     3
 10
-150.27371215820313
 20
-37.054843902587891
 40
 1
 50
-90.000000851989171
 51
 0
  0
LINE
  8
0
  6
CONTINUOUS
 62
     3
 10
-154.27371215820312
 20
-24.054844379425049
 11
-139.773681640625
 21
-24.054844379425049
  0
LINE
  8
0
  6
CONTINUOUS
 62
     3
 10
-136.773681640625
 20
-27.054842948913574
 11
-136.773681640625
 21
-37.054830551147461
  0
ARC
  8
0
  6
CONTINUOUS
 62
     3
 10
-139.773681640625
 20
-27.054842948913574
 40
 3
 50
 0
 51
 90.000004039712721
  0
LINE
  8
0
  6
CONTINUOUS
 62
     3
 10
-139.773681640625
 20
-40.054828643798828
 11
-154.27371215820312
 21
-40.054834365844727
  0
ARC
  8
0
  6
CONTINUOUS
 62
     3
 10
-139.773681640625
 20
-37.054830551147461
 40
 3
 50
-89.99997353123203
 51
 0
  0
LINE
  8
0
  6
CONTINUOUS
 62
     3
 10
-62.473724365234375
 20
-27.454841613769531
 11
-62.473724365234375
 21
-36.654838562011719
  0
LINE
  8
0
  6
CONTINUOUS
 62
     3
 10
-78.773735046386719
 20
-27.054842948913574
 11
-73.773735046386719
 21
-27.054842948913574
  0
LINE
  8
0
  6
CONTINUOUS
 62
     3
 10
-73.773735046386719
 20
-25.854841232299805
 11
-73.773735046386719
 21
-38.254844665527344
  0
LINE
  8
0
  6
CONTINUOUS
 62
     3
 10
-73.773735046386719
 20
-37.054849624633789
 11
-78.773735046386719
 21
-37.054849624633789
  0
LINE
  8
0
  6
CONTINUOUS
 62
     3
 10
-78.773735046386719
 20
-38.254844665527344
 11
-78.773735046386719
 21
-25.854841232299805
  0
LINE
  8
0
  6
CONTINUOUS
 62
     3
 10
-61.273731231689453
 20
-27.454841613769531
 11
-63.773735046386719
 21
-27.454841613769531
  0
LINE
  8
0
  6
CONTINUOUS
 62
     3
 10
-63.773735046386719
 20
-27.454841613769531
 11
-63.773735046386719
 21
-36.654838562011719
  0
LINE
  8
0
  6
CONTINUOUS
 62
     3
 10
-63.773735046386719
 20
-36.654838562011719
 11
-61.273731231689453
 21
-36.654838562011719
  0
LINE
  8
0
  6
DOT
 62
     3
 10
-73.773735046386719
 20
-25.554837226867676
 11
-78.773735046386719
 21
-25.554837226867676
  0
LINE
  8
0
  6
DOT
 62
     3
 10
-78.773735046386719
 20
-25.554837226867676
 11
-78.773735046386719
 21
-25.854841232299805
  0
LINE
  8
0
  6
DOT
 62
     3
 10
-78.773735046386719
 20
-38.254844665527344
 11
-78.773735046386719
 21
-38.554847717285156
  0
LINE
  8
0
  6
DOT
 62
     3
 10
-78.773735046386719
 20
-38.554847717285156
 11
-73.773735046386719
 21
-38.554847717285156
  0
LINE
  8
0
  6
DOT
 62
     3
 10
-73.773735046386719
 20
-38.554847717285156
 11
-73.773735046386719
 21
-38.254844665527344
  0
LINE
  8
0
  6
DOT
 62
     3
 10
-73.773735046386719
 20
-25.854841232299805
 11
-78.773735046386719
 21
-25.854841232299805
  0
LINE
  8
0
  6
DOT
 62
     3
 10
-78.773735046386719
 20
-38.254844665527344
 11
-73.773735046386719
 21
-38.254844665527344
  0
LINE
  8
0
  6
DOT
 62
     3
 10
-73.773735046386719
 20
-25.554837226867676
 11
-73.773735046386719
 21
-25.854841232299805
  0
LINE
  8
0
  6
DASHDOT
 62
     3
 10
-156.73077392578125
 20
-32.054840087890625
 11
-58.198719024658203
 21
-32.054840087890625
  0
LINE
  8
0
  6
DASHDOT
 62
     3
 10
-35.470684051513672
 20
 42.945159912109375
 11
-2.7142727375030518
 21
 42.945159912109375
  0
LINE
  8
0
  6
CONTINUOUS
 62
     3
 10
-5.8737344741821289
 20
 48.045158386230469
 11
-11.173735618591309
 21
 48.045158386230469
  0
LINE
  8
0
  6
CONTINUOUS
 62
     3
 10
-11.173735618591309
 20
 48.045158386230469
 11
-11.173735618591309
 21
 37.845161437988281
  0
LINE
  8
0
  6
CONTINUOUS
 62
     3
 10
-11.173735618591309
 20
 37.845161437988281
 11
-5.8737344741821289
 21
 37.845161437988281
  0
LINE
  8
0
  6
CONTINUOUS
 62
     3
 10
-7.0737452507019043
 20
 37.845161437988281
 11
-7.0737452507019043
 21
 48.045158386230469
  0
LINE
  8
0
  6
CONTINUOUS
 62
     3
 10
-28.673734664916992
 20
 47.545158386230469
 11
-28.673734664916992
 21
 38.345161437988281
  0
LINE
  8
0
  6
CONTINUOUS
 62
     3
 10
-28.673734664916992
 20
 47.545158386230469
 11
-31.873733520507813
 21
 47.545158386230469
  0
LINE
  8
0
  6
CONTINUOUS
 62
     3
 10
-31.873733520507813
 20
 38.345161437988281
 11
-28.673734664916992
 21
 38.345161437988281
  0
LINE
  8
0
  6
CONTINUOUS
 62
     3
 10
-30.673736572265625
 20
 47.545158386230469
 11
-30.673736572265625
 21
 38.345161437988281
  0
LINE
  8
0
  6
DASHDOT
 62
     3
 10
-35.470684051513672
 20
 17.945159912109375
 11
-2.7142727375030518
 21
 17.945159912109375
  0
LINE
  8
0
  6
CONTINUOUS
 62
     3
 10
-5.8737344741821289
 20
 23.045158386230469
 11
-11.173734664916992
 21
 23.045158386230469
  0
LINE
  8
0
  6
CONTINUOUS
 62
     3
 10
-11.173734664916992
 20
 23.045158386230469
 11
-11.173734664916992
 21
 12.845161437988281
  0
LINE
  8
0
  6
CONTINUOUS
 62
     3
 10
-11.173734664916992
 20
 12.845161437988281
 11
-5.8737344741821289
 21
 12.845161437988281
  0
LINE
  8
0
  6
CONTINUOUS
 62
     3
 10
-7.0737452507019043
 20
 12.845161437988281
 11
-7.0737452507019043
 21
 23.045158386230469
  0
LINE
  8
0
  6
CONTINUOUS
 62
     3
 10
-28.673734664916992
 20
 22.545158386230469
 11
-28.673734664916992
 21
 13.345161437988281
  0
LINE
  8
0
  6
CONTINUOUS
 62
     3
 10
-28.673734664916992
 20
 22.545158386230469
 11
-31.873733520507813
 21
 22.545158386230469
  0
LINE
  8
0
  6
CONTINUOUS
 62
     3
 10
-31.873733520507813
 20
 13.345161437988281
 11
-28.673734664916992
 21
 13.345161437988281
  0
LINE
  8
0
  6
CONTINUOUS
 62
     3
 10
-30.673736572265625
 20
 22.545158386230469
 11
-30.673736572265625
 21
 13.345161437988281
  0
LINE
  8
0
  6
DASHDOT
 62
     3
 10
-35.470684051513672
 20
-7.0548391342163086
 11
-2.7142727375030518
 21
-7.0548391342163086
  0
LINE
  8
0
  6
CONTINUOUS
 62
     3
 10
-5.8737344741821289
 20
-1.9548406600952148
 11
-11.173734664916992
 21
-1.9548406600952148
  0
LINE
  8
0
  6
CONTINUOUS
 62
     3
 10
-11.173734664916992
 20
-1.9548406600952148
 11
-11.173734664916992
 21
-12.154839992523193
  0
LINE
  8
0
  6
CONTINUOUS
 62
     3
 10
-11.173734664916992
 20
-12.154839992523193
 11
-5.8737344741821289
 21
-12.154839992523193
  0
LINE
  8
0
  6
CONTINUOUS
 62
     3
 10
-7.0737452507019043
 20
-12.154839992523193
 11
-7.0737452507019043
 21
-1.9548406600952148
  0
LINE
  8
0
  6
CONTINUOUS
 62
     3
 10
-28.673734664916992
 20
-2.4548406600952148
 11
-28.673734664916992
 21
-11.654840469360352
  0
LINE
  8
0
  6
CONTINUOUS
 62
     3
 10
-28.673734664916992
 20
-2.4548406600952148
 11
-31.873733520507813
 21
-2.4548406600952148
  0
LINE
  8
0
  6
CONTINUOUS
 62
     3
 10
-31.873733520507813
 20
-11.654840469360352
 11
-28.673734664916992
 21
-11.654840469360352
  0
LINE
  8
0
  6
CONTINUOUS
 62
     3
 10
-30.673736572265625
 20
-2.4548406600952148
 11
-30.673736572265625
 21
-11.654840469360352
  0
LINE
  8
0
  6
DASHDOT
 62
     3
 10
-35.470684051513672
 20
-32.054840087890625
 11
-2.7142727375030518
 21
-32.054840087890625
  0
LINE
  8
0
  6
CONTINUOUS
 62
     3
 10
-5.8737344741821289
 20
-26.954841613769531
 11
-11.173734664916992
 21
-26.954841613769531
  0
LINE
  8
0
  6
CONTINUOUS
 62
     3
 10
-11.173734664916992
 20
-26.954841613769531
 11
-11.173734664916992
 21
-37.154838562011719
  0
LINE
  8
0
  6
CONTINUOUS
 62
     3
 10
-11.173734664916992
 20
-37.154838562011719
 11
-5.8737344741821289
 21
-37.154838562011719
  0
LINE
  8
0
  6
CONTINUOUS
 62
     3
 10
-7.0737452507019043
 20
-37.154838562011719
 11
-7.0737452507019043
 21
-26.954841613769531
  0
LINE
  8
0
  6
CONTINUOUS
 62
     3
 10
-28.673734664916992
 20
-27.454841613769531
 11
-28.673734664916992
 21
-36.654838562011719
  0
LINE
  8
0
  6
CONTINUOUS
 62
     3
 10
-28.673734664916992
 20
-27.454841613769531
 11
-31.873733520507813
 21
-27.454841613769531
  0
LINE
  8
0
  6
CONTINUOUS
 62
     3
 10
-31.873733520507813
 20
-36.654838562011719
 11
-28.673734664916992
 21
-36.654838562011719
  0
LINE
  8
0
  6
CONTINUOUS
 62
     3
 10
-30.673736572265625
 20
-27.454841613769531
 11
-30.673736572265625
 21
-36.654838562011719
  0
CIRCLE
  8
0
  6
CONTINUOUS
 62
     2
 10
-143.07373046875
 20
 42.945159912109375
 40
 2
  0
CIRCLE
  8
0
  6
CONTINUOUS
 62
     2
 10
-143.07373046875
 20
 17.945159912109375
 40
 2
  0
LINE
  8
0
  6
CONTINUOUS
 62
     2
 10
-138.23716735839844
 20
 52.838676452636719
 11
-124.0306396484375
 21
 52.838676452636719
  0
TEXT
  8
0
  6
CONTINUOUS
 62
     2
 10
-135.85574340820312
 20
 53.588676452636719
 11
-126.35574340820312
 21
 53.588676452636719
 40
 2.5
 41
 0.8
  1
２－φ４
 50
 0
 72
  5
  0
LINE
  8
0
  6
CONTINUOUS
 62
     2
 10
-138.23716735839844
 20
 52.838676452636719
 11
-142.19535827636719
 21
 44.741943359375
  0
LINE
  8
0
  6
CONTINUOUS
 62
     2
 10
-142.19535827636719
 20
 44.741943359375
 11
-140.22511589247478
 21
 47.004275109740973
  0
LINE
  8
0
  6
CONTINUOUS
 62
     2
 10
-142.19535827636719
 20
 44.741943359375
 11
-141.62024419548655
 21
 47.686301318926247
  0
LINE
  8
0
  6
CONTINUOUS
 62
     2
 10
-138.23716735839844
 20
 52.838676452636719
 11
-142.80174255371094
 21
 19.907459259033203
  0
LINE
  8
0
  6
CONTINUOUS
 62
     2
 10
-142.80174255371094
 20
 19.907459259033203
 11
-141.63478311859751
 21
 22.671189650514926
  0
LINE
  8
0
  6
CONTINUOUS
 62
     2
 10
-142.80174255371094
 20
 19.907459259033203
 11
-143.17299123345762
 21
 22.884399704824208
  0
LINE
  8
256
  6
CONTINUOUS
 62
     7
 10
 104.99998474121094
 20
-121.5
 11
 200
 21
-121.5
  0
LINE
  8
256
  6
CONTINUOUS
 62
     7
 10
 170.99998474121094
 20
-109.5
 11
 170.99998474121094
 21
-121.5
  0
TEXT
  8
256
  6
CONTINUOUS
 62
     7
 10
 112.5
 20
-134.25
 11
 160.5
 21
-134.25
 40
 6
 41
 1
  1
ＢＨ２６ＳＰ－８
 50
 0
 72
  5
  0
TEXT
  8
256
  6
CONTINUOUS
 62
     7
 10
 117.99998474121094
 20
-119.75
 11
 157.99998474121094
 21
-119.75
 40
 5
 41
 0.8
  1
分岐ＭＣＣＢ取付金具
 50
 0
 72
  5
  0
TEXT
  8
256
  6
CONTINUOUS
 62
     7
 10
 106.29998779296875
 20
-112.4499633789062
 11
 111.29998779296875
 21
-112.4499633789062
 40
 2.5
 41
 0.8
  1
品名
 50
 0
 72
  5
  0
TEXT
  8
256
  6
CONTINUOUS
 62
     7
 10
 106.29998779296875
 20
-124.45003051757811
 11
 111.29998779296875
 21
-124.45003051757811
 40
 2.5
 41
 0.8
  1
品番
 50
 0
 72
  5
  0
TEXT
  8
256
  6
CONTINUOUS
 62
     7
 10
 180.55000000000001
 20
-117.25
 11
 189.94999999999999
 21
-117.25
 40
 3.5
 41
 0.8
  1
８個用
 50
 0
 72
  5
  0
LINE
  8
256
  6
CONTINUOUS
 62
     7
 10
 104.99998474121094
 20
-139.5
 11
 104.99998474121094
 21
-109.5
  0
LINE
  8
256
  6
CONTINUOUS
 62
     7
 10
 104.99998474121094
 20
-109.5
 11
 200
 21
-109.5
  0
LINE
  8
256
  6
CONTINUOUS
 62
     7
 10
-193.30000000000001
 20
 124.99999645625348
 11
-93.300000000000011
 21
 124.99999645625348
  0
LINE
  8
256
  6
CONTINUOUS
 62
     7
 10
-93.300000000000011
 20
 124.9999964562535
 11
-93.300000000000011
 21
 136.99999721136808
  0
TEXT
  8
256
  6
CONTINUOUS
 62
     7
 10
-188.30000000000001
 20
 127.99999604817611
 11
-140.30000000000001
 21
 127.99999604817611
 40
 6
 41
 1
  1
ＬＢ－Ｄ７１３０
 50
 0
 72
  5
  0
LINE
  8
256
  6
CONTINUOUS
 62
     7
 10
 200
 20
-139.5
 11
-193.30000000000001
 21
-139.49999999999994
  0
LINE
  8
256
  6
CONTINUOUS
 62
     7
 10
 200
 20
 136.99999721136808
 11
 200
 21
-139.5
  0
LINE
  8
256
  6
CONTINUOUS
 62
     7
 10
-193.30000000000001
 20
 136.99999721136808
 11
-193.30000000000001
 21
-139.49999999999994
  0
LINE
  8
256
  6
CONTINUOUS
 62
     7
 10
-193.30000000000001
 20
 136.99999721136808
 11
 200
 21
 136.99999721136808
  0
LINE
  8
0
  6
DASHDOT
 62
     3
 10
 141.90314789804955
 20
-16.360461963790442
 11
 141.90314789804955
 21
-11.223750843184973
  0
LINE
  8
0
  6
CONTINUOUS
 62
     7
 10
 54.667567453713616
 20
 11.63070319734237
 11
 41.743174753518304
 21
 11.63070319734237
  0
LINE
  8
0
  6
CONTINUOUS
 62
     7
 10
 53.306178293557366
 20
-14.369304432052161
 11
 41.743174753518304
 21
-14.369304432052161
  0
LINE
  8
0
  6
CONTINUOUS
 62
     3
 10
 56.903117380471429
 20
 9.6306917532505736
 11
 56.903117380471429
 21
 16.530704723221277
  0
ARC
  8
0
  6
CONTINUOUS
 62
     3
 10
 57.203120432229241
 20
 16.530704723221277
 40
 0.300000011920929
 50
 90.000004039712721
 51
-179.9999980615126
  0
LINE
  8
0
  6
CONTINUOUS
 62
     3
 10
 57.203120432229241
 20
 16.830688701492761
 11
 60.703135691018304
 21
 16.830688701492761
  0
LINE
  8
0
  6
CONTINUOUS
 62
     3
 10
 60.703135691018304
 20
 18.030697093826745
 11
 57.203120432229241
 21
 18.030697093826745
  0
LINE
  8
0
  6
CONTINUOUS
 62
     3
 10
 55.703120432229241
 20
 16.530704723221277
 11
 55.703120432229241
 21
 9.6306917532505736
  0
LINE
  8
0
  6
CONTINUOUS
 62
     3
 10
 55.703120432229241
 20
 9.6306917532505736
 11
 55.703135691018304
 21
-12.869312061446692
  0
ARC
  8
0
  6
CONTINUOUS
 62
     3
 10
 57.203166208596429
 20
-12.869312061446692
 40
 0.300000011920929
 50
-179.9999980615126
 51
-90.000000851989171
  0
ARC
  8
0
  6
CONTINUOUS
 62
     3
 10
 57.203120432229241
 20
 16.530704723221277
 40
 1.5
 50
 90.000004039712721
 51
-179.9999980615126
  0
ARC
  8
0
  6
CONTINUOUS
 62
     3
 10
 57.203120432229241
 20
 10.130699382645105
 40
 1.5
 50
 90.000004039712721
 51
 101.537375367397
  0
ARC
  8
0
  6
DOT
 62
     3
 10
 57.203120432229241
 20
 10.130699382645105
 40
 1.5
 50
 101.537375367397
 51
-179.9999980615126
  0
LINE
  8
0
  6
CONTINUOUS
 62
     3
 10
 57.203120432229241
 20
 11.630691753250574
 11
 147.2031356910183
 21
 11.630691753250574
  0
LINE
  8
0
  6
CONTINUOUS
 62
     3
 10
 148.7031356910183
 20
 10.130699382645105
 11
 148.7031356910183
 21
-12.869312061446692
  0
ARC
  8
0
  6
CONTINUOUS
 62
     3
 10
 147.2031356910183
 20
-12.869312061446692
 40
 1.5
 50
-90.000000851989171
 51
 0
  0
ARC
  8
0
  6
CONTINUOUS
 62
     3
 10
 147.2031356910183
 20
 10.130699382645105
 40
 1.5
 50
 0
 51
 90.000004039712721
  0
LINE
  8
0
  6
CONTINUOUS
 62
     3
 10
 147.50313874277612
 20
-12.869312061446692
 11
 147.50313874277612
 21
 10.130699382645105
  0
ARC
  8
0
  6
CONTINUOUS
 62
     3
 10
 147.2031356910183
 20
-12.869312061446692
 40
 0.300000011920929
 50
-90.000000851989171
 51
 0
  0
ARC
  8
0
  6
CONTINUOUS
 62
     3
 10
 147.2031356910183
 20
 10.130699382645105
 40
 0.300000011920929
 50
 0
 51
 90.000004039712721
  0
LINE
  8
0
  6
CONTINUOUS
 62
     3
 10
 57.203120432229241
 20
 10.430702434402917
 11
 131.2031356910183
 21
 10.430702434402917
  0
LINE
  8
0
  6
DOT
 62
     3
 10
 131.2031356910183
 20
 10.430702434402917
 11
 136.20315094980737
 21
 10.430702434402917
  0
LINE
  8
0
  6
CONTINUOUS
 62
     3
 10
 136.20315094980737
 20
 10.430702434402917
 11
 147.2031356910183
 21
 10.430702434402917
  0
ARC
  8
0
  6
CONTINUOUS
 62
     3
 10
 57.203120432229241
 20
 10.130699382645105
 40
 0.300000011920929
 50
 90.000004039712721
 51
-179.9999980615126
  0
LINE
  8
0
  6
CONTINUOUS
 62
     3
 10
 57.203166208596429
 20
-14.369304432052161
 11
 71.203120432229241
 21
-14.369304432052161
  0
ARC
  8
0
  6
CONTINUOUS
 62
     3
 10
 57.203166208596429
 20
-12.869312061446692
 40
 1.5
 50
-179.9999980615126
 51
-90.000000851989171
  0
LINE
  8
0
  6
CONTINUOUS
 62
     3
 10
 71.203120432229241
 20
-14.369304432052161
 11
 71.203120432229241
 21
-13.169315113204505
  0
LINE
  8
0
  6
CONTINUOUS
 62
     3
 10
 57.203166208596429
 20
-13.169315113204505
 11
 71.203120432229241
 21
-13.169315113204505
  0
LINE
  8
0
  6
DASHDOT
 62
     3
 10
 66.903132639260491
 20
-16.861797107833411
 11
 66.903132639260491
 21
-10.887218250411536
  0
LINE
  8
0
  6
DOT
 62
     3
 10
 64.803157053322991
 20
-13.169315113204505
 11
 64.803157053322991
 21
-14.369304432052161
  0
LINE
  8
0
  6
DOT
 62
     3
 10
 69.003169260354241
 20
-13.169315113204505
 11
 69.003169260354241
 21
-14.369304432052161
  0
LINE
  8
0
  6
CONTINUOUS
 62
     3
 10
 136.20315094980737
 20
 11.630691753250574
 11
 136.20315094980737
 21
 8.2306749685826048
  0
LINE
  8
0
  6
CONTINUOUS
 62
     3
 10
 131.2031356910183
 20
 8.2306749685826048
 11
 131.2031356910183
 21
 11.630691753250574
  0
LINE
  8
0
  6
CONTINUOUS
 62
     3
 10
 131.2031356910183
 20
 9.4306909903111205
 11
 136.20315094980737
 21
 9.4306909903111205
  0
LINE
  8
0
  6
CONTINUOUS
 62
     3
 10
 131.2031356910183
 20
 8.2306749685826048
 11
 136.20315094980737
 21
 8.2306749685826048
  0
LINE
  8
0
  6
CONTINUOUS
 62
     3
 10
 73.203150949807366
 20
 11.630691753250574
 11
 73.203150949807366
 21
 10.430702434402917
  0
LINE
  8
0
  6
CONTINUOUS
 62
     3
 10
 56.903117380471429
 20
 9.6306917532505736
 11
 55.703120432229241
 21
 9.6306917532505736
  0
LINE
  8
0
  6
CONTINUOUS
 62
     3
 10
 146.20315094980737
 20
 10.430725322586511
 11
 146.20315094980737
 21
 11.630714641434167
  0
LINE
  8
0
  6
CONTINUOUS
 62
     3
 10
 147.50313874277612
 20
 8.430675731522058
 11
 148.7031356910183
 21
 8.430675731522058
  0
LINE
  8
0
  6
CONTINUOUS
 62
     3
 10
 60.703135691018304
 20
 18.030697093826745
 11
 60.703135691018304
 21
 16.830688701492761
  0
LINE
  8
0
  6
CONTINUOUS
 62
     3
 10
 147.2031356910183
 20
-13.169315113204505
 11
 136.70312043222924
 21
-13.169315113204505
  0
LINE
  8
0
  6
CONTINUOUS
 62
     3
 10
 147.2031356910183
 20
-14.369304432052161
 11
 136.70312043222924
 21
-14.369304432052161
  0
LINE
  8
0
  6
DOT
 62
     3
 10
 143.90314026865502
 20
-13.169315113204505
 11
 143.90314026865502
 21
-14.369304432052161
  0
LINE
  8
0
  6
CONTINUOUS
 62
     3
 10
 56.903117380471429
 20
 10.130699382645105
 11
 56.903147898049554
 21
-12.869312061446692
  0
LINE
  8
0
  6
CONTINUOUS
 62
     3
 10
 136.70312043222924
 20
-13.169315113204505
 11
 136.70312043222924
 21
-14.369304432052161
  0
LINE
  8
0
  6
CONTINUOUS
 62
     7
 10
 55.703135691018304
 20
-15.54269768156388
 11
 55.703135691018304
 21
-30.329303516524817
  0
LINE
  8
0
  6
CONTINUOUS
 62
     7
 10
 141.90314789804955
 20
-11.223750843184973
 11
 141.90314789804955
 21
 17.590698467117761
  0
TEXT
  8
0
  6
CONTINUOUS
 62
     7
 10
 92.903134165139392
 20
-32.605167163985755
 11
 110.90313416513939
 21
-32.605167163985755
 40
 3.5
 41
 0.8
  1
（断面図）
 50
 0
 72
  5
  0
LINE
  8
0
  6
CONTINUOUS
 62
     7
 10
 66.903147898049554
 20
 17.590698467117761
 11
 66.903132639260491
 21
-10.887218250411536
  0
LINE
  8
0
  6
CONTINUOUS
 62
     7
 10
 66.903132639260491
 20
-16.861797107833411
 11
 66.903132639260491
 21
-25.329311145919348
  0
LINE
  8
0
  6
CONTINUOUS
 62
     7
 10
 55.703135691018304
 20
-24.369312061446692
 11
 66.903132639260491
 21
-24.369312061446692
  0
LINE
  8
0
  6
CONTINUOUS
 62
     7
 10
 55.703135691018304
 20
-24.369312061446692
 11
 58.600913169885509
 21
-25.145769196754255
  0
LINE
  8
0
  6
CONTINUOUS
 62
     7
 10
 55.703135691018304
 20
-24.369312061446692
 11
 58.600913169885509
 21
-23.592854926139129
  0
LINE
  8
0
  6
CONTINUOUS
 62
     7
 10
 66.903132639260491
 20
-24.369312061446692
 11
 64.005355160393293
 21
-23.592854926139129
  0
LINE
  8
0
  6
CONTINUOUS
 62
     7
 10
 66.903132639260491
 20
-24.369312061446692
 11
 64.005355160393293
 21
-25.145769196754255
  0
TEXT
  8
0
  6
CONTINUOUS
 62
     7
 10
 57.353147898049556
 20
-23.409320606368567
 11
 65.253147898049562
 21
-23.409320606368567
 40
 2
 41
 0.8
  1
１１．２
 50
 0
 72
  5
  0
LINE
  8
0
  6
CONTINUOUS
 62
     7
 10
 56.723139963479241
 20
-24.369312061446692
 11
 66.903132639260491
 21
-24.369312061446692
  0
LINE
  8
0
  6
CONTINUOUS
 62
     7
 10
 66.903132639260491
 20
-24.369312061446692
 11
 64.005355160393293
 21
-23.592854926139129
  0
LINE
  8
0
  6
CONTINUOUS
 62
     7
 10
 66.903132639260491
 20
-24.369312061446692
 11
 64.005355160393293
 21
-25.145769196754255
  0
LINE
  8
0
  6
CONTINUOUS
 62
     7
 10
 66.903132639260491
 20
-24.369312061446692
 11
 71.203120432229241
 21
-24.369312061446692
  0
TEXT
  8
0
  6
CONTINUOUS
 62
     7
 10
 72.803144846291744
 20
-23.409320606368567
 11
 78.603144846291741
 21
-23.409320606368567
 40
 2
 41
 0.8
  1
４．３
 50
 0
 72
  5
  0
LINE
  8
0
  6
CONTINUOUS
 62
     7
 10
 80.203135691018304
 20
-24.369312061446692
 11
 71.203120432229241
 21
-24.369312061446692
  0
LINE
  8
0
  6
CONTINUOUS
 62
     7
 10
 71.203120432229241
 20
-24.369312061446692
 11
 74.100897911096439
 21
-25.145769196754255
  0
LINE
  8
0
  6
CONTINUOUS
 62
     7
 10
 71.203120432229241
 20
-24.369312061446692
 11
 74.100897911096439
 21
-23.592854926139129
  0
LINE
  8
0
  6
CONTINUOUS
 62
     3
 10
 148.7031356910183
 20
-9.0693090096888795
 11
 147.50313492807885
 21
-9.0693090096888795
  0
LINE
  8
0
  6
CONTINUOUS
 62
     3
 10
 146.2031356910183
 20
-14.369304432052161
 11
 146.2031356910183
 21
-13.169307483809973
  0
LINE
  8
0
  6
DOT
 62
     3
 10
 137.40314789804955
 20
 11.630691753250574
 11
 137.40314789804955
 21
 10.430687175613855
  0
LINE
  8
0
  6
DOT
 62
     3
 10
 146.40314789804955
 20
 11.630691753250574
 11
 146.40314789804955
 21
 10.430687175613855
  0
LINE
  8
0
  6
CONTINUOUS
 62
     7
 10
 42.703181467385491
 20
 11.63070319734237
 11
 42.703181467385491
 21
-14.369304432052161
  0
LINE
  8
0
  6
CONTINUOUS
 62
     7
 10
 42.703181467385491
 20
 11.63070319734237
 11
 41.926724332077931
 21
 8.7329257184751654
  0
LINE
  8
0
  6
CONTINUOUS
 62
     7
 10
 42.703181467385491
 20
 11.63070319734237
 11
 43.479638602693051
 21
 8.7329257184751654
  0
LINE
  8
0
  6
CONTINUOUS
 62
     7
 10
 42.703181467385491
 20
-14.369304432052161
 11
 43.479638602693051
 21
-11.471526953184956
  0
LINE
  8
0
  6
CONTINUOUS
 62
     7
 10
 42.703181467385491
 20
-14.369304432052161
 11
 41.926724332077931
 21
-11.471526953184956
  0
TEXT
  8
0
  6
CONTINUOUS
 62
     7
 10
 41.743174788487416
 20
-3.4693074400985795
 11
 41.74317462675527
 21
 0.2306925599014194
 40
 2
 41
 0.8
  1
26
 50
 90.000004039712721
 72
  5
  0
LINE
  8
0
  6
CONTINUOUS
 62
     7
 10
 54.807795725197991
 20
 18.03069327912948
 11
 41.743174753518304
 21
 18.03069327912948
  0
LINE
  8
0
  6
CONTINUOUS
 62
     7
 10
 42.703181467385491
 20
 11.63070319734237
 11
 42.703181467385491
 21
 18.03069327912948
  0
LINE
  8
0
  6
CONTINUOUS
 62
     7
 10
 42.703181467385491
 20
 11.63070319734237
 11
 43.479638602693051
 21
 14.528480676209576
  0
LINE
  8
0
  6
CONTINUOUS
 62
     7
 10
 42.703181467385491
 20
 11.63070319734237
 11
 41.926724332077931
 21
 14.528480676209576
  0
LINE
  8
0
  6
CONTINUOUS
 62
     7
 10
 42.703181467385491
 20
 18.03069327912948
 11
 41.926724332077931
 21
 15.132915800262275
  0
LINE
  8
0
  6
CONTINUOUS
 62
     7
 10
 42.703181467385491
 20
 18.03069327912948
 11
 43.479638602693051
 21
 15.132915800262275
  0
TEXT
  8
0
  6
CONTINUOUS
 62
     7
 10
 41.743174788487416
 20
 11.930705529872125
 11
 41.743174534961355
 21
 17.730705529872115
 40
 2
 41
 0.8
  1
6.4
 50
 90.000004039712721
 72
  5
  0
LINE
  8
0
  6
CONTINUOUS
 62
     7
 10
 136.70312043222924
 20
-16.369304432052161
 11
 136.70312043222924
 21
-25.329311145919348
  0
LINE
  8
0
  6
CONTINUOUS
 62
     7
 10
 141.90314789804955
 20
-16.360461963790442
 11
 141.90314789804955
 21
-25.329311145919348
  0
LINE
  8
0
  6
CONTINUOUS
 62
     7
 10
 136.70312043222924
 20
-24.369312061446692
 11
 141.90314789804955
 21
-24.369312061446692
  0
LINE
  8
0
  6
CONTINUOUS
 62
     7
 10
 136.70312043222924
 20
-24.369312061446692
 11
 139.60089791109644
 21
-25.145769196754255
  0
LINE
  8
0
  6
CONTINUOUS
 62
     7
 10
 136.70312043222924
 20
-24.369312061446692
 11
 139.60089791109644
 21
-23.592854926139129
  0
LINE
  8
0
  6
CONTINUOUS
 62
     7
 10
 141.90314789804955
 20
-24.369312061446692
 11
 139.00537041918236
 21
-23.592854926139129
  0
LINE
  8
0
  6
CONTINUOUS
 62
     7
 10
 141.90314789804955
 20
-24.369312061446692
 11
 139.00537041918236
 21
-25.145769196754255
  0
TEXT
  8
0
  6
CONTINUOUS
 62
     7
 10
 136.65313569101829
 20
-23.409320606368567
 11
 141.4531356910183
 21
-23.409320606368567
 40
 2
 41
 0.8
  1
5.2
 50
 0
 72
  5
  0
LINE
  8
0
  6
CONTINUOUS
 62
     7
 10
 148.7031356910183
 20
-16.369304432052161
 11
 148.7031356910183
 21
-25.329311145919348
  0
LINE
  8
0
  6
CONTINUOUS
 62
     7
 10
 141.90314789804955
 20
-24.369312061446692
 11
 148.7031356910183
 21
-24.369312061446692
  0
LINE
  8
0
  6
CONTINUOUS
 62
     7
 10
 141.90314789804955
 20
-24.369312061446692
 11
 144.80092537691675
 21
-25.145769196754255
  0
LINE
  8
0
  6
CONTINUOUS
 62
     7
 10
 141.90314789804955
 20
-24.369312061446692
 11
 144.80092537691675
 21
-23.592854926139129
  0
LINE
  8
0
  6
CONTINUOUS
 62
     7
 10
 148.7031356910183
 20
-24.369312061446692
 11
 145.80535821215111
 21
-23.592854926139129
  0
LINE
  8
0
  6
CONTINUOUS
 62
     7
 10
 148.7031356910183
 20
-24.369312061446692
 11
 145.80535821215111
 21
-25.145769196754255
  0
TEXT
  8
0
  6
CONTINUOUS
 62
     7
 10
 142.65315094980735
 20
-23.409320606368567
 11
 147.45315094980737
 21
-23.409320606368567
 40
 2
 41
 0.8
  1
6.8
 50
 0
 72
  5
  0
LINE
  8
0
  6
CONTINUOUS
 62
     7
 10
 136.70312043222924
 20
-24.869304432052161
 11
 136.70312043222924
 21
-30.329303516524817
  0
LINE
  8
0
  6
CONTINUOUS
 62
     7
 10
 148.7031356910183
 20
-24.869304432052161
 11
 148.7031356910183
 21
-30.329303516524817
  0
LINE
  8
0
  6
CONTINUOUS
 62
     7
 10
 136.70312043222924
 20
-29.369312061446692
 11
 148.7031356910183
 21
-29.369312061446692
  0
LINE
  8
0
  6
CONTINUOUS
 62
     7
 10
 136.70312043222924
 20
-29.369312061446692
 11
 139.60089791109644
 21
-30.145769196754255
  0
LINE
  8
0
  6
CONTINUOUS
 62
     7
 10
 136.70312043222924
 20
-29.369312061446692
 11
 139.60089791109644
 21
-28.592854926139129
  0
LINE
  8
0
  6
CONTINUOUS
 62
     7
 10
 148.7031356910183
 20
-29.369312061446692
 11
 145.80535821215111
 21
-28.592854926139129
  0
LINE
  8
0
  6
CONTINUOUS
 62
     7
 10
 148.7031356910183
 20
-29.369312061446692
 11
 145.80535821215111
 21
-30.145769196754255
  0
TEXT
  8
0
  6
CONTINUOUS
 62
     7
 10
 140.85312500986595
 20
-28.409312976974036
 11
 144.55312500986594
 21
-28.409312976974036
 40
 2
 41
 0.8
  1
12
 50
 0
 72
  5
  0
LINE
  8
0
  6
CONTINUOUS
 62
     7
 10
 141.90314789804955
 20
 16.630695567947839
 11
 101.90315552744408
 21
 16.630695567947839
  0
LINE
  8
0
  6
CONTINUOUS
 62
     7
 10
 141.90314789804955
 20
 16.630695567947839
 11
 139.00537041918236
 21
 17.407152703255402
  0
LINE
  8
0
  6
CONTINUOUS
 62
     7
 10
 141.90314789804955
 20
 16.630695567947839
 11
 139.00537041918236
 21
 15.854238432640276
  0
LINE
  8
0
  6
CONTINUOUS
 62
     7
 10
 101.90315552744408
 20
 16.630695567947839
 11
 104.80093300631128
 21
 15.854238432640276
  0
LINE
  8
0
  6
CONTINUOUS
 62
     7
 10
 101.90315552744408
 20
 16.630695567947839
 11
 104.80093300631128
 21
 17.407152703255402
  0
TEXT
  8
0
  6
CONTINUOUS
 62
     7
 10
 120.05315247568628
 20
 17.590694652420495
 11
 123.75315247568628
 21
 17.590694652420495
 40
 2
 41
 0.8
  1
40
 50
 0
 72
  5
  0
LINE
  8
0
  6
CONTINUOUS
 62
     7
 10
 66.903147898049554
 20
 16.630695567947839
 11
 101.90315552744408
 21
 16.630695567947839
  0
LINE
  8
0
  6
CONTINUOUS
 62
     7
 10
 66.903147898049554
 20
 16.630695567947839
 11
 69.800925376916751
 21
 15.854238432640276
  0
LINE
  8
0
  6
CONTINUOUS
 62
     7
 10
 66.903147898049554
 20
 16.630695567947839
 11
 69.800925376916751
 21
 17.407152703255402
  0
LINE
  8
0
  6
CONTINUOUS
 62
     7
 10
 101.90315552744408
 20
 16.630695567947839
 11
 99.005378048576887
 21
 17.407152703255402
  0
LINE
  8
0
  6
CONTINUOUS
 62
     7
 10
 101.90315552744408
 20
 16.630695567947839
 11
 99.005378048576887
 21
 15.854238432640276
  0
TEXT
  8
0
  6
CONTINUOUS
 62
     7
 10
 82.553144846291744
 20
 17.590694652420495
 11
 86.253144846291747
 21
 17.590694652420495
 40
 2
 41
 0.8
  1
35
 50
 0
 72
  5
  0
LINE
  8
0
  6
CONTINUOUS
 62
     7
 10
 42.203166208596429
 20
 18.03069327912948
 11
 36.743159494729241
 21
 18.03069327912948
  0
LINE
  8
0
  6
CONTINUOUS
 62
     7
 10
 42.203166208596429
 20
-14.369304432052161
 11
 36.743159494729241
 21
-14.369304432052161
  0
LINE
  8
0
  6
CONTINUOUS
 62
     7
 10
 37.703166208596429
 20
 18.03069327912948
 11
 37.703166208596429
 21
-14.369304432052161
  0
LINE
  8
0
  6
CONTINUOUS
 62
     7
 10
 37.703166208596429
 20
 18.03069327912948
 11
 36.926709073288869
 21
 15.132915800262275
  0
LINE
  8
0
  6
CONTINUOUS
 62
     7
 10
 37.703166208596429
 20
 18.03069327912948
 11
 38.479623343903988
 21
 15.132915800262275
  0
LINE
  8
0
  6
CONTINUOUS
 62
     7
 10
 37.703166208596429
 20
-14.369304432052161
 11
 38.479623343903988
 21
-11.471526953184956
  0
LINE
  8
0
  6
CONTINUOUS
 62
     7
 10
 37.703166208596429
 20
-14.369304432052161
 11
 36.926709073288869
 21
-11.471526953184956
  0
TEXT
  8
0
  6
CONTINUOUS
 62
     7
 10
 36.743159529698353
 20
-2.1193013365829545
 11
 36.743159184378371
 21
 5.7806986634170361
 40
 2
 41
 0.8
  1
32.4
 50
 90.000004039712721
 72
  5
  0
LINE
  8
0
  6
CONTINUOUS
 62
     7
 10
 71.203120432229241
 20
-15.54269768156388
 11
 71.203120432229241
 21
-30.329303516524817
  0
LINE
  8
0
  6
CONTINUOUS
 62
     7
 10
 55.703135691018304
 20
-29.369312061446692
 11
 71.203120432229241
 21
-29.369312061446692
  0
LINE
  8
0
  6
CONTINUOUS
 62
     7
 10
 55.703135691018304
 20
-29.369312061446692
 11
 58.600913169885509
 21
-30.145769196754255
  0
LINE
  8
0
  6
CONTINUOUS
 62
     7
 10
 55.703135691018304
 20
-29.369312061446692
 11
 58.600913169885509
 21
-28.592854926139129
  0
LINE
  8
0
  6
CONTINUOUS
 62
     7
 10
 71.203120432229241
 20
-29.369312061446692
 11
 68.305342953362043
 21
-28.592854926139129
  0
LINE
  8
0
  6
CONTINUOUS
 62
     7
 10
 71.203120432229241
 20
-29.369312061446692
 11
 68.305342953362043
 21
-30.145769196754255
  0
TEXT
  8
0
  6
CONTINUOUS
 62
     7
 10
 59.503126535744869
 20
-28.409312976974036
 11
 67.403126535744875
 21
-28.409312976974036
 40
 2
 41
 0.8
  1
15.5
 50
 0
 72
  5
  0
LINE
  8
0
  6
DASHDOT
 62
     7
 10
 101.90315552744408
 20
 32.590700374466394
 11
 101.90315552744408
 21
-25.582721485274817
  0
LINE
  8
0
  6
CONTINUOUS
 62
     7
 10
-156.27371215820312
 20
 103.94516754150391
 11
-173.23371887207031
 21
 103.94516754150391
  0
LINE
  8
0
  6
CONTINUOUS
 62
     7
 10
-156.27371215820312
 20
-93.054832458496094
 11
-173.23371887207031
 21
-93.054832458496094
  0
LINE
  8
0
  6
CONTINUOUS
 62
     7
 10
-172.27374267578125
 20
 103.94516754150391
 11
-172.27374267578125
 21
-93.054832458496094
  0
LINE
  8
0
  6
CONTINUOUS
 62
     7
 10
-172.27374267578125
 20
 103.94516754150391
 11
-173.05019981108882
 21
 101.04739006263671
  0
LINE
  8
0
  6
CONTINUOUS
 62
     7
 10
-172.27374267578125
 20
 103.94516754150391
 11
-171.49728554047368
 21
 101.04739006263671
  0
LINE
  8
0
  6
CONTINUOUS
 62
     7
 10
-172.27374267578125
 20
-93.054832458496094
 11
-171.49728554047368
 21
-90.157054979628896
  0
LINE
  8
0
  6
CONTINUOUS
 62
     7
 10
-172.27374267578125
 20
-93.054832458496094
 11
-173.05019981108882
 21
-90.157054979628896
  0
TEXT
  8
0
  6
CONTINUOUS
 62
     7
 10
-173.23373409589027
 20
 2.5451691110941921
 11
-173.23373434941632
 21
 8.3451691110941972
 40
 2
 41
 0.8
  1
197
 50
 90.000004039712721
 72
  5
  0
LINE
  8
0
  6
CONTINUOUS
 62
     7
 10
-45.273727416992188
 20
 80.445167541503906
 11
-45.273727416992188
 21
 103.94516754150391
  0
LINE
  8
0
  6
CONTINUOUS
 62
     7
 10
-45.273727416992188
 20
 80.445167541503906
 11
-44.497270281684628
 21
 83.342945020371104
  0
LINE
  8
0
  6
CONTINUOUS
 62
     7
 10
-45.273727416992188
 20
 80.445167541503906
 11
-46.050184552299747
 21
 83.342945020371104
  0
LINE
  8
0
  6
CONTINUOUS
 62
     7
 10
-45.273727416992188
 20
 103.94516754150391
 11
-46.050184552299747
 21
 101.04739006263671
  0
LINE
  8
0
  6
CONTINUOUS
 62
     7
 10
-45.273727416992188
 20
 103.94516754150391
 11
-44.497270281684628
 21
 101.04739006263671
  0
TEXT
  8
0
  6
CONTINUOUS
 62
     7
 10
-46.233726466495732
 20
 88.245166059336384
 11
-46.233726811815714
 21
 96.14516605933639
 40
 2
 41
 0.8
  1
23.5
 50
 90.000004039712721
 72
  5
  0
LINE
  8
0
  6
CONTINUOUS
 62
     7
 10
-59.07373046875
 20
-93.054855346679688
 11
-44.313728332519531
 21
-93.054855346679688
  0
LINE
  8
0
  6
CONTINUOUS
 62
     7
 10
-45.273727416992188
 20
-93.054855346679688
 11
-45.273727416992188
 21
-69.554847717285156
  0
LINE
  8
0
  6
CONTINUOUS
 62
     7
 10
-45.273727416992188
 20
-93.054855346679688
 11
-44.497270281684628
 21
-90.15707786781249
  0
LINE
  8
0
  6
CONTINUOUS
 62
     7
 10
-45.273727416992188
 20
-93.054855346679688
 11
-46.050184552299747
 21
-90.15707786781249
  0
LINE
  8
0
  6
CONTINUOUS
 62
     7
 10
-45.273727416992188
 20
-69.554847717285156
 11
-46.050184552299747
 21
-72.452625196152354
  0
LINE
  8
0
  6
CONTINUOUS
 62
     7
 10
-45.273727416992188
 20
-69.554847717285156
 11
-44.497270281684628
 21
-72.452625196152354
  0
TEXT
  8
0
  6
CONTINUOUS
 62
     7
 10
-46.233726466495732
 20
-85.254849199452678
 11
-46.233726811815714
 21
-77.354849199452673
 40
 2
 41
 0.8
  1
23.5
 50
 90.000004039712721
 72
  5
  0
LINE
  8
0
  6
CONTINUOUS
 62
     7
 10
-154.27371215820312
 20
-114.05483245849609
 11
-108.07372283935547
 21
-114.05483245849609
  0
LINE
  8
0
  6
CONTINUOUS
 62
     7
 10
-154.27371215820312
 20
-114.05483245849609
 11
-151.37593467933593
 21
-114.83128959380366
  0
LINE
  8
0
  6
CONTINUOUS
 62
     7
 10
-154.27371215820312
 20
-114.05483245849609
 11
-151.37593467933593
 21
-113.27837532318853
  0
LINE
  8
0
  6
CONTINUOUS
 62
     7
 10
-108.07372283935547
 20
-114.05483245849609
 11
-110.97150031822267
 21
-113.27837532318853
  0
LINE
  8
0
  6
CONTINUOUS
 62
     7
 10
-108.07372283935547
 20
-114.05483245849609
 11
-110.97150031822267
 21
-114.83128959380366
  0
TEXT
  8
0
  6
CONTINUOUS
 62
     7
 10
-135.12373046875001
 20
-113.09483337402344
 11
-127.22373046874999
 21
-113.09483337402344
 40
 2
 41
 0.8
  1
46.2
 50
 0
 72
  5
  0
LINE
  8
0
  6
CONTINUOUS
 62
     7
 10
-108.07372283935547
 20
-114.05483245849609
 11
-61.273731231689453
 21
-114.05483245849609
  0
LINE
  8
0
  6
CONTINUOUS
 62
     7
 10
-108.07372283935547
 20
-114.05483245849609
 11
-105.17594536048827
 21
-114.83128959380366
  0
LINE
  8
0
  6
CONTINUOUS
 62
     7
 10
-108.07372283935547
 20
-114.05483245849609
 11
-105.17594536048827
 21
-113.27837532318853
  0
LINE
  8
0
  6
CONTINUOUS
 62
     7
 10
-61.273731231689453
 20
-114.05483245849609
 11
-64.171508710556651
 21
-113.27837532318853
  0
LINE
  8
0
  6
CONTINUOUS
 62
     7
 10
-61.273731231689453
 20
-114.05483245849609
 11
-64.171508710556651
 21
-114.83128959380366
  0
TEXT
  8
0
  6
CONTINUOUS
 62
     7
 10
-88.623730468749997
 20
-113.09483337402344
 11
-80.723730468749991
 21
-113.09483337402344
 40
 2
 41
 0.8
  1
46.8
 50
 0
 72
  5
  0
LINE
  8
0
  6
CONTINUOUS
 62
     7
 10
-167.77374267578125
 20
 92.945167541503906
 11
-168.23373413085937
 21
 92.945167541503906
  0
LINE
  8
0
  6
CONTINUOUS
 62
     7
 10
-167.27374267578125
 20
 103.94516754150391
 11
-167.27374267578125
 21
 92.945167541503906
  0
LINE
  8
0
  6
CONTINUOUS
 62
     7
 10
-167.27374267578125
 20
 103.94516754150391
 11
-168.05019981108882
 21
 101.04739006263671
  0
LINE
  8
0
  6
CONTINUOUS
 62
     7
 10
-167.27374267578125
 20
 103.94516754150391
 11
-166.49728554047368
 21
 101.04739006263671
  0
LINE
  8
0
  6
CONTINUOUS
 62
     7
 10
-167.27374267578125
 20
 92.945167541503906
 11
-166.49728554047368
 21
 95.842945020371104
  0
LINE
  8
0
  6
CONTINUOUS
 62
     7
 10
-167.27374267578125
 20
 92.945167541503906
 11
-168.05019981108882
 21
 95.842945020371104
  0
TEXT
  8
0
  6
CONTINUOUS
 62
     7
 10
-168.23373409589027
 20
 96.595164533457464
 11
-168.23373425762242
 21
 100.29516453345745
 40
 2
 41
 0.8
  1
11
 50
 90.000004039712721
 72
  5
  0
LINE
  8
0
  6
CONTINUOUS
 62
     7
 10
-167.27374267578125
 20
 92.945167541503906
 11
-167.27374267578125
 21
 67.945159912109375
  0
LINE
  8
0
  6
CONTINUOUS
 62
     7
 10
-167.27374267578125
 20
 92.945167541503906
 11
-168.05019981108882
 21
 90.047390062636708
  0
LINE
  8
0
  6
CONTINUOUS
 62
     7
 10
-167.27374267578125
 20
 92.945167541503906
 11
-166.49728554047368
 21
 90.047390062636708
  0
LINE
  8
0
  6
CONTINUOUS
 62
     7
 10
-167.27374267578125
 20
 67.945159912109375
 11
-166.49728554047368
 21
 70.842937390976573
  0
LINE
  8
0
  6
CONTINUOUS
 62
     7
 10
-167.27374267578125
 20
 67.945159912109375
 11
-168.05019981108882
 21
 70.842937390976573
  0
TEXT
  8
0
  6
CONTINUOUS
 62
     7
 10
-168.23373409589027
 20
 78.595164533457464
 11
-168.23373425762242
 21
 82.295164533457452
 40
 2
 41
 0.8
  1
25
 50
 90.000004039712721
 72
  5
  0
LINE
  8
0
  6
CONTINUOUS
 62
     7
 10
-167.27374267578125
 20
-82.054832458496094
 11
-167.27374267578125
 21
-93.054832458496094
  0
LINE
  8
0
  6
CONTINUOUS
 62
     7
 10
-167.27374267578125
 20
-82.054832458496094
 11
-168.05019981108882
 21
-84.952609937363292
  0
LINE
  8
0
  6
CONTINUOUS
 62
     7
 10
-167.27374267578125
 20
-82.054832458496094
 11
-166.49728554047368
 21
-84.952609937363292
  0
LINE
  8
0
  6
CONTINUOUS
 62
     7
 10
-167.27374267578125
 20
-93.054832458496094
 11
-166.49728554047368
 21
-90.157054979628896
  0
LINE
  8
0
  6
CONTINUOUS
 62
     7
 10
-167.27374267578125
 20
-93.054832458496094
 11
-168.05019981108882
 21
-90.157054979628896
  0
TEXT
  8
0
  6
CONTINUOUS
 62
     7
 10
-168.23373409589027
 20
-89.404827837148005
 11
-168.23373425762242
 21
-85.704827837148017
 40
 2
 41
 0.8
  1
11
 50
 90.000004039712721
 72
  5
  0
LINE
  8
0
  6
CONTINUOUS
 62
     7
 10
-154.27371215820312
 20
-119.05484008789063
 11
-61.273731231689453
 21
-119.05484008789063
  0
LINE
  8
0
  6
CONTINUOUS
 62
     7
 10
-154.27371215820312
 20
-119.05484008789063
 11
-151.37593467933593
 21
-119.83129722319819
  0
LINE
  8
0
  6
CONTINUOUS
 62
     7
 10
-154.27371215820312
 20
-119.05484008789063
 11
-151.37593467933593
 21
-118.27838295258306
  0
LINE
  8
0
  6
CONTINUOUS
 62
     7
 10
-61.273731231689453
 20
-119.05484008789063
 11
-64.171508710556651
 21
-118.27838295258306
  0
LINE
  8
0
  6
CONTINUOUS
 62
     7
 10
-61.273731231689453
 20
-119.05484008789063
 11
-64.171508710556651
 21
-119.83129722319819
  0
TEXT
  8
0
  6
CONTINUOUS
 62
     7
 10
-109.62372283935547
 20
-118.09483337402344
 11
-105.92372283935546
 21
-118.09483337402344
 40
 2
 41
 0.8
  1
93
 50
 0
 72
  5
  0
LINE
  8
0
  6
CONTINUOUS
 62
     7
 10
-74.839447021484375
 20
 82.445152282714844
 11
-89.233734130859375
 21
 82.445152282714844
  0
LINE
  8
0
  6
CONTINUOUS
 62
     7
 10
-74.839447021484375
 20
 78.445167541503906
 11
-89.233734130859375
 21
 78.445167541503906
  0
LINE
  8
0
  6
CONTINUOUS
 62
     7
 10
-88.273727416992188
 20
 82.445152282714844
 11
-88.273727416992188
 21
 78.445167541503906
  0
LINE
  8
0
  6
CONTINUOUS
 62
     7
 10
-88.273727416992188
 20
 82.445152282714844
 11
-89.050184552299754
 21
 79.547374803847646
  0
LINE
  8
0
  6
CONTINUOUS
 62
     7
 10
-88.273727416992188
 20
 82.445152282714844
 11
-87.497270281684621
 21
 79.547374803847646
  0
LINE
  8
0
  6
CONTINUOUS
 62
     7
 10
-88.273727416992188
 20
 78.445167541503906
 11
-87.497270281684621
 21
 81.342945020371104
  0
LINE
  8
0
  6
CONTINUOUS
 62
     7
 10
-88.273727416992188
 20
 78.445167541503906
 11
-89.050184552299754
 21
 81.342945020371104
  0
TEXT
  8
0
  6
CONTINUOUS
 62
     7
 10
-89.233734095890256
 20
 79.645159955820759
 11
-89.233734165828494
 21
 81.245159955820768
 40
 2
 41
 0.8
  1
4
 50
 90.000004039712721
 72
  5
  0
LINE
  8
0
  6
CONTINUOUS
 62
     7
 10
-68.073715209960938
 20
-78.54229736328125
 11
-68.073715209960938
 21
-105.01483154296875
  0
LINE
  8
0
  6
CONTINUOUS
 62
     7
 10
-61.273731231689453
 20
-104.05483245849609
 11
-68.073715209960938
 21
-104.05483245849609
  0
LINE
  8
0
  6
CONTINUOUS
 62
     7
 10
-61.273731231689453
 20
-104.05483245849609
 11
-64.171508710556651
 21
-103.27837532318853
  0
LINE
  8
0
  6
CONTINUOUS
 62
     7
 10
-61.273731231689453
 20
-104.05483245849609
 11
-64.171508710556651
 21
-104.83128959380366
  0
LINE
  8
0
  6
CONTINUOUS
 62
     7
 10
-68.073715209960938
 20
-104.05483245849609
 11
-65.17593773109374
 21
-104.83128959380366
  0
LINE
  8
0
  6
CONTINUOUS
 62
     7
 10
-68.073715209960938
 20
-104.05483245849609
 11
-65.17593773109374
 21
-103.27837532318853
  0
TEXT
  8
0
  6
CONTINUOUS
 62
     7
 10
-67.573727416992185
 20
-103.09482574462891
 11
-61.773727416992188
 21
-103.09482574462891
 40
 2
 41
 0.8
  1
6.8
 50
 0
 72
  5
  0
LINE
  8
0
  6
CONTINUOUS
 62
     7
 10
-143.07373046875
 20
-85.860992431640625
 11
-143.07373046875
 21
-105.01483154296875
  0
LINE
  8
0
  6
CONTINUOUS
 62
     7
 10
-154.27371215820312
 20
-104.05483245849609
 11
-143.07373046875
 21
-104.05483245849609
  0
LINE
  8
0
  6
CONTINUOUS
 62
     7
 10
-154.27371215820312
 20
-104.05483245849609
 11
-151.37593467933593
 21
-104.83128959380366
  0
LINE
  8
0
  6
CONTINUOUS
 62
     7
 10
-154.27371215820312
 20
-104.05483245849609
 11
-151.37593467933593
 21
-103.27837532318853
  0
LINE
  8
0
  6
CONTINUOUS
 62
     7
 10
-143.07373046875
 20
-104.05483245849609
 11
-145.9715079476172
 21
-103.27837532318853
  0
LINE
  8
0
  6
CONTINUOUS
 62
     7
 10
-143.07373046875
 20
-104.05483245849609
 11
-145.9715079476172
 21
-104.83128959380366
  0
TEXT
  8
0
  6
CONTINUOUS
 62
     7
 10
-152.62371520996095
 20
-103.09482574462891
 11
-144.72371520996094
 21
-103.09482574462891
 40
 2
 41
 0.8
  1
11.2
 50
 0
 72
  5
  0
LINE
  8
0
  6
CONTINUOUS
 62
     7
 10
-57.06884765625
 20
-69.554836273193359
 11
-44.313728332519531
 21
-69.554836273193359
  0
LINE
  8
0
  6
CONTINUOUS
 62
     7
 10
-45.273727416992188
 20
-69.554836273193359
 11
-45.273727416992188
 21
 80.445167541503906
  0
LINE
  8
0
  6
CONTINUOUS
 62
     7
 10
-45.273727416992188
 20
-69.554836273193359
 11
-44.497270281684628
 21
-66.657058794326161
  0
LINE
  8
0
  6
CONTINUOUS
 62
     7
 10
-45.273727416992188
 20
-69.554836273193359
 11
-46.050184552299747
 21
-66.657058794326161
  0
LINE
  8
0
  6
CONTINUOUS
 62
     7
 10
-45.273727416992188
 20
 80.445167541503906
 11
-46.050184552299747
 21
 77.547390062636708
  0
LINE
  8
0
  6
CONTINUOUS
 62
     7
 10
-45.273727416992188
 20
 80.445167541503906
 11
-44.497270281684628
 21
 77.547390062636708
  0
TEXT
  8
0
  6
CONTINUOUS
 62
     7
 10
-46.233726466495732
 20
 2.5451672037455735
 11
-46.233726720021792
 21
 8.3451672037455644
 40
 2
 41
 0.8
  1
150
 50
 90.000004039712721
 72
  5
  0
LINE
  8
0
  6
CONTINUOUS
 62
     7
 10
-167.27374267578125
 20
 67.945159912109375
 11
-167.27374267578125
 21
 42.945159912109375
  0
LINE
  8
0
  6
CONTINUOUS
 62
     7
 10
-167.27374267578125
 20
 67.945159912109375
 11
-168.05019981108882
 21
 65.047382433242177
  0
LINE
  8
0
  6
CONTINUOUS
 62
     7
 10
-167.27374267578125
 20
 67.945159912109375
 11
-166.49728554047368
 21
 65.047382433242177
  0
LINE
  8
0
  6
CONTINUOUS
 62
     7
 10
-167.27374267578125
 20
 42.945159912109375
 11
-166.49728554047368
 21
 45.84293739097658
  0
LINE
  8
0
  6
CONTINUOUS
 62
     7
 10
-167.27374267578125
 20
 42.945159912109375
 11
-168.05019981108882
 21
 45.84293739097658
  0
TEXT
  8
0
  6
CONTINUOUS
 62
     7
 10
-168.23374935467933
 20
 53.595156904062939
 11
-168.23374951641148
 21
 57.295156904062928
 40
 2
 41
 0.8
  1
25
 50
 90.000004039712721
 72
  5
  0
LINE
  8
0
  6
CONTINUOUS
 62
     7
 10
-167.27374267578125
 20
-57.054836273193359
 11
-167.27374267578125
 21
-82.054832458496094
  0
LINE
  8
0
  6
CONTINUOUS
 62
     7
 10
-167.27374267578125
 20
-57.054836273193359
 11
-168.05019981108882
 21
-59.952613752060564
  0
LINE
  8
0
  6
CONTINUOUS
 62
     7
 10
-167.27374267578125
 20
-57.054836273193359
 11
-166.49728554047368
 21
-59.952613752060564
  0
LINE
  8
0
  6
CONTINUOUS
 62
     7
 10
-167.27374267578125
 20
-82.054832458496094
 11
-166.49728554047368
 21
-79.157054979628896
  0
LINE
  8
0
  6
CONTINUOUS
 62
     7
 10
-167.27374267578125
 20
-82.054832458496094
 11
-168.05019981108882
 21
-79.157054979628896
  0
TEXT
  8
0
  6
CONTINUOUS
 62
     7
 10
-168.23374935467933
 20
-71.404835466542536
 11
-168.23374951641148
 21
-67.704835466542548
 40
 2
 41
 0.8
  1
25
 50
 90.000004039712721
 72
  5
  0
LINE
  8
0
  6
CONTINUOUS
 62
     7
 10
-157.23077392578125
 20
 42.945159912109375
 11
-168.23374938964844
 21
 42.945159912109375
  0
LINE
  8
0
  6
CONTINUOUS
 62
     7
 10
-157.23077392578125
 20
 17.945159912109375
 11
-168.23374938964844
 21
 17.945159912109375
  0
LINE
  8
0
  6
CONTINUOUS
 62
     7
 10
-167.27374267578125
 20
 42.945159912109375
 11
-167.27374267578125
 21
 17.945159912109375
  0
LINE
  8
0
  6
CONTINUOUS
 62
     7
 10
-167.27374267578125
 20
 42.945159912109375
 11
-168.05019981108882
 21
 40.04738243324217
  0
LINE
  8
0
  6
CONTINUOUS
 62
     7
 10
-167.27374267578125
 20
 42.945159912109375
 11
-166.49728554047368
 21
 40.04738243324217
  0
LINE
  8
0
  6
CONTINUOUS
 62
     7
 10
-167.27374267578125
 20
 17.945159912109375
 11
-166.49728554047368
 21
 20.84293739097658
  0
LINE
  8
0
  6
CONTINUOUS
 62
     7
 10
-167.27374267578125
 20
 17.945159912109375
 11
-168.05019981108882
 21
 20.84293739097658
  0
TEXT
  8
0
  6
CONTINUOUS
 62
     7
 10
-168.23374935467933
 20
 28.595160718760209
 11
-168.23374951641148
 21
 32.295160718760194
 40
 2
 41
 0.8
  1
25
 50
 90.000004039712721
 72
  5
  0
LINE
  8
0
  6
CONTINUOUS
 62
     7
 10
-157.23077392578125
 20
-7.0548391342163086
 11
-168.23374938964844
 21
-7.0548391342163086
  0
LINE
  8
0
  6
CONTINUOUS
 62
     7
 10
-167.27374267578125
 20
 17.945159912109375
 11
-167.27374267578125
 21
-7.0548391342163086
  0
LINE
  8
0
  6
CONTINUOUS
 62
     7
 10
-167.27374267578125
 20
 17.945159912109375
 11
-168.05019981108882
 21
 15.04738243324217
  0
LINE
  8
0
  6
CONTINUOUS
 62
     7
 10
-167.27374267578125
 20
 17.945159912109375
 11
-166.49728554047368
 21
 15.04738243324217
  0
LINE
  8
0
  6
CONTINUOUS
 62
     7
 10
-167.27374267578125
 20
-7.0548391342163086
 11
-166.49728554047368
 21
-4.1570616553491035
  0
LINE
  8
0
  6
CONTINUOUS
 62
     7
 10
-167.27374267578125
 20
-7.0548391342163086
 11
-168.05019981108882
 21
-4.1570616553491035
  0
TEXT
  8
0
  6
CONTINUOUS
 62
     7
 10
-168.23374935467933
 20
 3.5951607187602077
 11
-168.23374951641148
 21
 7.2951607187601919
 40
 2
 41
 0.8
  1
25
 50
 90.000004039712721
 72
  5
  0
LINE
  8
0
  6
CONTINUOUS
 62
     7
 10
-157.23077392578125
 20
-32.054840087890625
 11
-168.23374938964844
 21
-32.054840087890625
  0
LINE
  8
0
  6
CONTINUOUS
 62
     7
 10
-167.27374267578125
 20
-7.0548391342163086
 11
-167.27374267578125
 21
-32.054840087890625
  0
LINE
  8
0
  6
CONTINUOUS
 62
     7
 10
-167.27374267578125
 20
-7.0548391342163086
 11
-168.05019981108882
 21
-9.9526166130835136
  0
LINE
  8
0
  6
CONTINUOUS
 62
     7
 10
-167.27374267578125
 20
-7.0548391342163086
 11
-166.49728554047368
 21
-9.9526166130835136
  0
LINE
  8
0
  6
CONTINUOUS
 62
     7
 10
-167.27374267578125
 20
-32.054840087890625
 11
-166.49728554047368
 21
-29.15706260902342
  0
LINE
  8
0
  6
CONTINUOUS
 62
     7
 10
-167.27374267578125
 20
-32.054840087890625
 11
-168.05019981108882
 21
-29.15706260902342
  0
TEXT
  8
0
  6
CONTINUOUS
 62
     7
 10
-168.23374935467933
 20
-21.404840711751266
 11
-168.23374951641148
 21
-17.704840711751281
 40
 2
 41
 0.8
  1
25
 50
 90.000004039712721
 72
  5
  0
LINE
  8
0
  6
CONTINUOUS
 62
     7
 10
-167.27374267578125
 20
-32.054840087890625
 11
-167.27374267578125
 21
-57.054836273193359
  0
LINE
  8
0
  6
CONTINUOUS
 62
     7
 10
-167.27374267578125
 20
-32.054840087890625
 11
-168.05019981108882
 21
-34.95261756675783
  0
LINE
  8
0
  6
CONTINUOUS
 62
     7
 10
-167.27374267578125
 20
-32.054840087890625
 11
-166.49728554047368
 21
-34.95261756675783
  0
LINE
  8
0
  6
CONTINUOUS
 62
     7
 10
-167.27374267578125
 20
-57.054836273193359
 11
-166.49728554047368
 21
-54.157058794326154
  0
LINE
  8
0
  6
CONTINUOUS
 62
     7
 10
-167.27374267578125
 20
-57.054836273193359
 11
-168.05019981108882
 21
-54.157058794326154
  0
TEXT
  8
0
  6
CONTINUOUS
 62
     7
 10
-168.23374935467933
 20
-46.404839281239795
 11
-168.23374951641148
 21
-42.704839281239806
 40
 2
 41
 0.8
  1
25
 50
 90.000004039712721
 72
  5
  0
LINE
  8
0
  6
CONTINUOUS
 62
     7
 10
-143.07373046875
 20
-104.05483245849609
 11
-68.073715209960938
 21
-104.05483245849609
  0
LINE
  8
0
  6
CONTINUOUS
 62
     7
 10
-143.07373046875
 20
-104.05483245849609
 11
-140.1759529898828
 21
-104.83128959380366
  0
LINE
  8
0
  6
CONTINUOUS
 62
     7
 10
-143.07373046875
 20
-104.05483245849609
 11
-140.1759529898828
 21
-103.27837532318853
  0
LINE
  8
0
  6
CONTINUOUS
 62
     7
 10
-68.073715209960938
 20
-104.05483245849609
 11
-70.971492688828135
 21
-103.27837532318853
  0
LINE
  8
0
  6
CONTINUOUS
 62
     7
 10
-68.073715209960938
 20
-104.05483245849609
 11
-70.971492688828135
 21
-104.83128959380366
  0
TEXT
  8
0
  6
CONTINUOUS
 62
     7
 10
-107.42372589111328
 20
-103.09484100341797
 11
-103.72372589111328
 21
-103.09484100341797
 40
 2
 41
 0.8
  1
75
 50
 0
 72
  5
  0
ENDSEC
  0
EOF
