  0
SECTION
  2
HEADER
  9
$INSBASE
 10
0.0
20
0.0
  9
$REGENMODE
 70
     1
  9
$DRAGMODE
 70
     1
  9
$DIMTAD
 70
     1
  9
$EXTMIN
 10
-210.000000
 20
-148.500000
 30
 0.0
  9
$EXTMAX
 10
210.000000
 20
148.500000
 30
 0.0
  9
$LUPREC
 70
    3
  9
$AUPREC
 70
    3
  9
$LTSCALE
 40
26.250000
  0
ENDSEC
  0
SECTION
  2
TABLES
  0
TABLE
  2
LTYPE
 70
     6
  0
LTYPE
  2
CONTINUOUS
 70
    64
  3
SOLID
 72
    65
 73
     0
 40
0.0
  0
LTYPE
  2
DASHED2
 70
    64
  3
_ _ _ _ _ _ _ _ _ _ _ _ _ _ _ _ _ _ _ _ _ _ 
 72
    65
 73
     2
 40
0.5
 49
0.25
 49
-0.25
  0
LTYPE
  2
DASHED
 70
    64
  3
__ __ __ __ __ __ __ __ __ __ __ __ __ __ __
 72
    65
 73
     2
 40
0.75
 49
0.5
 49
-0.25
  0
LTYPE
  2
DASHEDX2
 70
    64
  3
____  ____  ____  ____  ____  ____  ____  __
 72
    65
 73
     2
 40
1.5
 49
1.0
 49
-0.5
  0
LTYPE
  2
DOT
 70
    64
  3
............................................
 72
    65
 73
     2
 40
0.25
 49
0
 49
-0.25
  0
LTYPE
  2
DASHDOT
 70
    64
  3
__ . __ . __ . __ . __ . __ . __ . __ . __ .
 72
    65
 73
     4
 40
1.0
 49
0.5
 49
-0.25
 49
0.0
 49
-0.25
  0
LTYPE
  2
CENTER
 70
    64
  3
____ _ ____ _ ____ _ ____ _ ____ _ ____ _ __
 72
    65
 73
     4
 40
2.0
 49
1.25
 49
-0.25
 49
0.25
 49
-0.25
  0
LTYPE
  2
DIVIDE
 70
    64
  3
__ . . __ . . __ . . __ . . __ . . __ . . __
 72
    65
 73
     6
 40
1.25
 49
0.5
 49
-0.25
 49
0.0
 49
-0.25
 49
0.0
 49
-0.25
  0
LTYPE
  2
PHANTOM2
 70
    64
  3
___ _ _ ___ _ _ ___ _ _ ___ _ _ ___ _ _ ___ 
 72
    65
 73
     6
 40
1.25
 49
0.625
 49
-0.125
 49
0.125
 49
-0.125
 49
0.125
 49
-0.125
  0
LTYPE
  2
DOTX2
 70
    64
  3
. . . . . . . . . . . . . . . . . . . . . . 
 72
    65
 73
     2
 40
0.5
 49
0
 49
-0.5
  0
ENDTAB
  0
TABLE
  2
LAYER
 70
   255
  0
LAYER
  2
0
 70
    64
 62
     7
  6
CONTINUOUS
  0
LAYER
  2
1
 70
    64
 62
     7
  6
CONTINUOUS
  0
LAYER
  2
2
 70
    64
 62
     7
  6
CONTINUOUS
  0
LAYER
  2
3
 70
    64
 62
     7
  6
CONTINUOUS
  0
LAYER
  2
4
 70
    64
 62
     7
  6
CONTINUOUS
  0
LAYER
  2
5
 70
    64
 62
     7
  6
CONTINUOUS
  0
LAYER
  2
6
 70
    64
 62
     7
  6
CONTINUOUS
  0
LAYER
  2
7
 70
    64
 62
     7
  6
CONTINUOUS
  0
LAYER
  2
8
 70
    64
 62
     7
  6
CONTINUOUS
  0
LAYER
  2
9
 70
    64
 62
     7
  6
CONTINUOUS
  0
LAYER
  2
10
 70
    64
 62
     7
  6
CONTINUOUS
  0
LAYER
  2
11
 70
    64
 62
     7
  6
CONTINUOUS
  0
LAYER
  2
12
 70
    64
 62
     7
  6
CONTINUOUS
  0
LAYER
  2
13
 70
    64
 62
     7
  6
CONTINUOUS
  0
LAYER
  2
14
 70
    64
 62
     7
  6
CONTINUOUS
  0
LAYER
  2
15
 70
    64
 62
     7
  6
CONTINUOUS
  0
LAYER
  2
16
 70
    64
 62
     7
  6
CONTINUOUS
  0
LAYER
  2
17
 70
    64
 62
     7
  6
CONTINUOUS
  0
LAYER
  2
18
 70
    64
 62
     7
  6
CONTINUOUS
  0
LAYER
  2
19
 70
    64
 62
     7
  6
CONTINUOUS
  0
LAYER
  2
20
 70
    64
 62
     7
  6
CONTINUOUS
  0
LAYER
  2
21
 70
    64
 62
     7
  6
CONTINUOUS
  0
LAYER
  2
22
 70
    64
 62
     7
  6
CONTINUOUS
  0
LAYER
  2
23
 70
    64
 62
     7
  6
CONTINUOUS
  0
LAYER
  2
24
 70
    64
 62
     7
  6
CONTINUOUS
  0
LAYER
  2
25
 70
    64
 62
     7
  6
CONTINUOUS
  0
LAYER
  2
26
 70
    64
 62
     7
  6
CONTINUOUS
  0
LAYER
  2
27
 70
    64
 62
     7
  6
CONTINUOUS
  0
LAYER
  2
28
 70
    64
 62
     7
  6
CONTINUOUS
  0
LAYER
  2
29
 70
    64
 62
     7
  6
CONTINUOUS
  0
LAYER
  2
30
 70
    64
 62
     7
  6
CONTINUOUS
  0
LAYER
  2
31
 70
    64
 62
     7
  6
CONTINUOUS
  0
LAYER
  2
32
 70
    64
 62
     7
  6
CONTINUOUS
  0
LAYER
  2
33
 70
    64
 62
     7
  6
CONTINUOUS
  0
LAYER
  2
34
 70
    64
 62
     7
  6
CONTINUOUS
  0
LAYER
  2
35
 70
    64
 62
     7
  6
CONTINUOUS
  0
LAYER
  2
36
 70
    64
 62
     7
  6
CONTINUOUS
  0
LAYER
  2
37
 70
    64
 62
     7
  6
CONTINUOUS
  0
LAYER
  2
38
 70
    64
 62
     7
  6
CONTINUOUS
  0
LAYER
  2
39
 70
    64
 62
     7
  6
CONTINUOUS
  0
LAYER
  2
40
 70
    64
 62
     7
  6
CONTINUOUS
  0
LAYER
  2
41
 70
    64
 62
     7
  6
CONTINUOUS
  0
LAYER
  2
42
 70
    64
 62
     7
  6
CONTINUOUS
  0
LAYER
  2
43
 70
    64
 62
     7
  6
CONTINUOUS
  0
LAYER
  2
44
 70
    64
 62
     7
  6
CONTINUOUS
  0
LAYER
  2
45
 70
    64
 62
     7
  6
CONTINUOUS
  0
LAYER
  2
46
 70
    64
 62
     7
  6
CONTINUOUS
  0
LAYER
  2
47
 70
    64
 62
     7
  6
CONTINUOUS
  0
LAYER
  2
48
 70
    64
 62
     7
  6
CONTINUOUS
  0
LAYER
  2
49
 70
    64
 62
     7
  6
CONTINUOUS
  0
LAYER
  2
50
 70
    64
 62
     7
  6
CONTINUOUS
  0
LAYER
  2
51
 70
    64
 62
     7
  6
CONTINUOUS
  0
LAYER
  2
52
 70
    64
 62
     7
  6
CONTINUOUS
  0
LAYER
  2
53
 70
    64
 62
     7
  6
CONTINUOUS
  0
LAYER
  2
54
 70
    64
 62
     7
  6
CONTINUOUS
  0
LAYER
  2
55
 70
    64
 62
     7
  6
CONTINUOUS
  0
LAYER
  2
56
 70
    64
 62
     7
  6
CONTINUOUS
  0
LAYER
  2
57
 70
    64
 62
     7
  6
CONTINUOUS
  0
LAYER
  2
58
 70
    64
 62
     7
  6
CONTINUOUS
  0
LAYER
  2
59
 70
    64
 62
     7
  6
CONTINUOUS
  0
LAYER
  2
60
 70
    64
 62
     7
  6
CONTINUOUS
  0
LAYER
  2
61
 70
    64
 62
     7
  6
CONTINUOUS
  0
LAYER
  2
62
 70
    64
 62
     7
  6
CONTINUOUS
  0
LAYER
  2
63
 70
    64
 62
     7
  6
CONTINUOUS
  0
LAYER
  2
64
 70
    64
 62
     7
  6
CONTINUOUS
  0
LAYER
  2
65
 70
    64
 62
     7
  6
CONTINUOUS
  0
LAYER
  2
66
 70
    64
 62
     7
  6
CONTINUOUS
  0
LAYER
  2
67
 70
    64
 62
     7
  6
CONTINUOUS
  0
LAYER
  2
68
 70
    64
 62
     7
  6
CONTINUOUS
  0
LAYER
  2
69
 70
    64
 62
     7
  6
CONTINUOUS
  0
LAYER
  2
70
 70
    64
 62
     7
  6
CONTINUOUS
  0
LAYER
  2
71
 70
    64
 62
     7
  6
CONTINUOUS
  0
LAYER
  2
72
 70
    64
 62
     7
  6
CONTINUOUS
  0
LAYER
  2
73
 70
    64
 62
     7
  6
CONTINUOUS
  0
LAYER
  2
74
 70
    64
 62
     7
  6
CONTINUOUS
  0
LAYER
  2
75
 70
    64
 62
     7
  6
CONTINUOUS
  0
LAYER
  2
76
 70
    64
 62
     7
  6
CONTINUOUS
  0
LAYER
  2
77
 70
    64
 62
     7
  6
CONTINUOUS
  0
LAYER
  2
78
 70
    64
 62
     7
  6
CONTINUOUS
  0
LAYER
  2
79
 70
    64
 62
     7
  6
CONTINUOUS
  0
LAYER
  2
80
 70
    64
 62
     7
  6
CONTINUOUS
  0
LAYER
  2
81
 70
    64
 62
     7
  6
CONTINUOUS
  0
LAYER
  2
82
 70
    64
 62
     7
  6
CONTINUOUS
  0
LAYER
  2
83
 70
    64
 62
     7
  6
CONTINUOUS
  0
LAYER
  2
84
 70
    64
 62
     7
  6
CONTINUOUS
  0
LAYER
  2
85
 70
    64
 62
     7
  6
CONTINUOUS
  0
LAYER
  2
86
 70
    64
 62
     7
  6
CONTINUOUS
  0
LAYER
  2
87
 70
    64
 62
     7
  6
CONTINUOUS
  0
LAYER
  2
88
 70
    64
 62
     7
  6
CONTINUOUS
  0
LAYER
  2
89
 70
    64
 62
     7
  6
CONTINUOUS
  0
LAYER
  2
90
 70
    64
 62
     7
  6
CONTINUOUS
  0
LAYER
  2
91
 70
    64
 62
     7
  6
CONTINUOUS
  0
LAYER
  2
92
 70
    64
 62
     7
  6
CONTINUOUS
  0
LAYER
  2
93
 70
    64
 62
     7
  6
CONTINUOUS
  0
LAYER
  2
94
 70
    64
 62
     7
  6
CONTINUOUS
  0
LAYER
  2
95
 70
    64
 62
     7
  6
CONTINUOUS
  0
LAYER
  2
96
 70
    64
 62
     7
  6
CONTINUOUS
  0
LAYER
  2
97
 70
    64
 62
     7
  6
CONTINUOUS
  0
LAYER
  2
98
 70
    64
 62
     7
  6
CONTINUOUS
  0
LAYER
  2
99
 70
    64
 62
     7
  6
CONTINUOUS
  0
LAYER
  2
100
 70
    64
 62
     7
  6
CONTINUOUS
  0
LAYER
  2
101
 70
    64
 62
     7
  6
CONTINUOUS
  0
LAYER
  2
102
 70
    64
 62
     7
  6
CONTINUOUS
  0
LAYER
  2
103
 70
    64
 62
     7
  6
CONTINUOUS
  0
LAYER
  2
104
 70
    64
 62
     7
  6
CONTINUOUS
  0
LAYER
  2
105
 70
    64
 62
     7
  6
CONTINUOUS
  0
LAYER
  2
106
 70
    64
 62
     7
  6
CONTINUOUS
  0
LAYER
  2
107
 70
    64
 62
     7
  6
CONTINUOUS
  0
LAYER
  2
108
 70
    64
 62
     7
  6
CONTINUOUS
  0
LAYER
  2
109
 70
    64
 62
     7
  6
CONTINUOUS
  0
LAYER
  2
110
 70
    64
 62
     7
  6
CONTINUOUS
  0
LAYER
  2
111
 70
    64
 62
     7
  6
CONTINUOUS
  0
LAYER
  2
112
 70
    64
 62
     7
  6
CONTINUOUS
  0
LAYER
  2
113
 70
    64
 62
     7
  6
CONTINUOUS
  0
LAYER
  2
114
 70
    64
 62
     7
  6
CONTINUOUS
  0
LAYER
  2
115
 70
    64
 62
     7
  6
CONTINUOUS
  0
LAYER
  2
116
 70
    64
 62
     7
  6
CONTINUOUS
  0
LAYER
  2
117
 70
    64
 62
     7
  6
CONTINUOUS
  0
LAYER
  2
118
 70
    64
 62
     7
  6
CONTINUOUS
  0
LAYER
  2
119
 70
    64
 62
     7
  6
CONTINUOUS
  0
LAYER
  2
120
 70
    64
 62
     7
  6
CONTINUOUS
  0
LAYER
  2
121
 70
    64
 62
     7
  6
CONTINUOUS
  0
LAYER
  2
122
 70
    64
 62
     7
  6
CONTINUOUS
  0
LAYER
  2
123
 70
    64
 62
     7
  6
CONTINUOUS
  0
LAYER
  2
124
 70
    64
 62
     7
  6
CONTINUOUS
  0
LAYER
  2
125
 70
    64
 62
     7
  6
CONTINUOUS
  0
LAYER
  2
126
 70
    64
 62
     7
  6
CONTINUOUS
  0
LAYER
  2
127
 70
    64
 62
     7
  6
CONTINUOUS
  0
LAYER
  2
128
 70
    64
 62
     7
  6
CONTINUOUS
  0
LAYER
  2
129
 70
    64
 62
     7
  6
CONTINUOUS
  0
LAYER
  2
130
 70
    64
 62
     7
  6
CONTINUOUS
  0
LAYER
  2
131
 70
    64
 62
     7
  6
CONTINUOUS
  0
LAYER
  2
132
 70
    64
 62
     7
  6
CONTINUOUS
  0
LAYER
  2
133
 70
    64
 62
     7
  6
CONTINUOUS
  0
LAYER
  2
134
 70
    64
 62
     7
  6
CONTINUOUS
  0
LAYER
  2
135
 70
    64
 62
     7
  6
CONTINUOUS
  0
LAYER
  2
136
 70
    64
 62
     7
  6
CONTINUOUS
  0
LAYER
  2
137
 70
    64
 62
     7
  6
CONTINUOUS
  0
LAYER
  2
138
 70
    64
 62
     7
  6
CONTINUOUS
  0
LAYER
  2
139
 70
    64
 62
     7
  6
CONTINUOUS
  0
LAYER
  2
140
 70
    64
 62
     7
  6
CONTINUOUS
  0
LAYER
  2
141
 70
    64
 62
     7
  6
CONTINUOUS
  0
LAYER
  2
142
 70
    64
 62
     7
  6
CONTINUOUS
  0
LAYER
  2
143
 70
    64
 62
     7
  6
CONTINUOUS
  0
LAYER
  2
144
 70
    64
 62
     7
  6
CONTINUOUS
  0
LAYER
  2
145
 70
    64
 62
     7
  6
CONTINUOUS
  0
LAYER
  2
146
 70
    64
 62
     7
  6
CONTINUOUS
  0
LAYER
  2
147
 70
    64
 62
     7
  6
CONTINUOUS
  0
LAYER
  2
148
 70
    64
 62
     7
  6
CONTINUOUS
  0
LAYER
  2
149
 70
    64
 62
     7
  6
CONTINUOUS
  0
LAYER
  2
150
 70
    64
 62
     7
  6
CONTINUOUS
  0
LAYER
  2
151
 70
    64
 62
     7
  6
CONTINUOUS
  0
LAYER
  2
152
 70
    64
 62
     7
  6
CONTINUOUS
  0
LAYER
  2
153
 70
    64
 62
     7
  6
CONTINUOUS
  0
LAYER
  2
154
 70
    64
 62
     7
  6
CONTINUOUS
  0
LAYER
  2
155
 70
    64
 62
     7
  6
CONTINUOUS
  0
LAYER
  2
156
 70
    64
 62
     7
  6
CONTINUOUS
  0
LAYER
  2
157
 70
    64
 62
     7
  6
CONTINUOUS
  0
LAYER
  2
158
 70
    64
 62
     7
  6
CONTINUOUS
  0
LAYER
  2
159
 70
    64
 62
     7
  6
CONTINUOUS
  0
LAYER
  2
160
 70
    64
 62
     7
  6
CONTINUOUS
  0
LAYER
  2
161
 70
    64
 62
     7
  6
CONTINUOUS
  0
LAYER
  2
162
 70
    64
 62
     7
  6
CONTINUOUS
  0
LAYER
  2
163
 70
    64
 62
     7
  6
CONTINUOUS
  0
LAYER
  2
164
 70
    64
 62
     7
  6
CONTINUOUS
  0
LAYER
  2
165
 70
    64
 62
     7
  6
CONTINUOUS
  0
LAYER
  2
166
 70
    64
 62
     7
  6
CONTINUOUS
  0
LAYER
  2
167
 70
    64
 62
     7
  6
CONTINUOUS
  0
LAYER
  2
168
 70
    64
 62
     7
  6
CONTINUOUS
  0
LAYER
  2
169
 70
    64
 62
     7
  6
CONTINUOUS
  0
LAYER
  2
170
 70
    64
 62
     7
  6
CONTINUOUS
  0
LAYER
  2
171
 70
    64
 62
     7
  6
CONTINUOUS
  0
LAYER
  2
172
 70
    64
 62
     7
  6
CONTINUOUS
  0
LAYER
  2
173
 70
    64
 62
     7
  6
CONTINUOUS
  0
LAYER
  2
174
 70
    64
 62
     7
  6
CONTINUOUS
  0
LAYER
  2
175
 70
    64
 62
     7
  6
CONTINUOUS
  0
LAYER
  2
176
 70
    64
 62
     7
  6
CONTINUOUS
  0
LAYER
  2
177
 70
    64
 62
     7
  6
CONTINUOUS
  0
LAYER
  2
178
 70
    64
 62
     7
  6
CONTINUOUS
  0
LAYER
  2
179
 70
    64
 62
     7
  6
CONTINUOUS
  0
LAYER
  2
180
 70
    64
 62
     7
  6
CONTINUOUS
  0
LAYER
  2
181
 70
    64
 62
     7
  6
CONTINUOUS
  0
LAYER
  2
182
 70
    64
 62
     7
  6
CONTINUOUS
  0
LAYER
  2
183
 70
    64
 62
     7
  6
CONTINUOUS
  0
LAYER
  2
184
 70
    64
 62
     7
  6
CONTINUOUS
  0
LAYER
  2
185
 70
    64
 62
     7
  6
CONTINUOUS
  0
LAYER
  2
186
 70
    64
 62
     7
  6
CONTINUOUS
  0
LAYER
  2
187
 70
    64
 62
     7
  6
CONTINUOUS
  0
LAYER
  2
188
 70
    64
 62
     7
  6
CONTINUOUS
  0
LAYER
  2
189
 70
    64
 62
     7
  6
CONTINUOUS
  0
LAYER
  2
190
 70
    64
 62
     7
  6
CONTINUOUS
  0
LAYER
  2
191
 70
    64
 62
     7
  6
CONTINUOUS
  0
LAYER
  2
192
 70
    64
 62
     7
  6
CONTINUOUS
  0
LAYER
  2
193
 70
    64
 62
     7
  6
CONTINUOUS
  0
LAYER
  2
194
 70
    64
 62
     7
  6
CONTINUOUS
  0
LAYER
  2
195
 70
    64
 62
     7
  6
CONTINUOUS
  0
LAYER
  2
196
 70
    64
 62
     7
  6
CONTINUOUS
  0
LAYER
  2
197
 70
    64
 62
     7
  6
CONTINUOUS
  0
LAYER
  2
198
 70
    64
 62
     7
  6
CONTINUOUS
  0
LAYER
  2
199
 70
    64
 62
     7
  6
CONTINUOUS
  0
LAYER
  2
200
 70
    64
 62
     7
  6
CONTINUOUS
  0
LAYER
  2
201
 70
    64
 62
     7
  6
CONTINUOUS
  0
LAYER
  2
202
 70
    64
 62
     7
  6
CONTINUOUS
  0
LAYER
  2
203
 70
    64
 62
     7
  6
CONTINUOUS
  0
LAYER
  2
204
 70
    64
 62
     7
  6
CONTINUOUS
  0
LAYER
  2
205
 70
    64
 62
     7
  6
CONTINUOUS
  0
LAYER
  2
206
 70
    64
 62
     7
  6
CONTINUOUS
  0
LAYER
  2
207
 70
    64
 62
     7
  6
CONTINUOUS
  0
LAYER
  2
208
 70
    64
 62
     7
  6
CONTINUOUS
  0
LAYER
  2
209
 70
    64
 62
     7
  6
CONTINUOUS
  0
LAYER
  2
210
 70
    64
 62
     7
  6
CONTINUOUS
  0
LAYER
  2
211
 70
    64
 62
     7
  6
CONTINUOUS
  0
LAYER
  2
212
 70
    64
 62
     7
  6
CONTINUOUS
  0
LAYER
  2
213
 70
    64
 62
     7
  6
CONTINUOUS
  0
LAYER
  2
214
 70
    64
 62
     7
  6
CONTINUOUS
  0
LAYER
  2
215
 70
    64
 62
     7
  6
CONTINUOUS
  0
LAYER
  2
216
 70
    64
 62
     7
  6
CONTINUOUS
  0
LAYER
  2
217
 70
    64
 62
     7
  6
CONTINUOUS
  0
LAYER
  2
218
 70
    64
 62
     7
  6
CONTINUOUS
  0
LAYER
  2
219
 70
    64
 62
     7
  6
CONTINUOUS
  0
LAYER
  2
220
 70
    64
 62
     7
  6
CONTINUOUS
  0
LAYER
  2
221
 70
    64
 62
     7
  6
CONTINUOUS
  0
LAYER
  2
222
 70
    64
 62
     7
  6
CONTINUOUS
  0
LAYER
  2
223
 70
    64
 62
     7
  6
CONTINUOUS
  0
LAYER
  2
224
 70
    64
 62
     7
  6
CONTINUOUS
  0
LAYER
  2
225
 70
    64
 62
     7
  6
CONTINUOUS
  0
LAYER
  2
226
 70
    64
 62
     7
  6
CONTINUOUS
  0
LAYER
  2
227
 70
    64
 62
     7
  6
CONTINUOUS
  0
LAYER
  2
228
 70
    64
 62
     7
  6
CONTINUOUS
  0
LAYER
  2
229
 70
    64
 62
     7
  6
CONTINUOUS
  0
LAYER
  2
230
 70
    64
 62
     7
  6
CONTINUOUS
  0
LAYER
  2
231
 70
    64
 62
     7
  6
CONTINUOUS
  0
LAYER
  2
232
 70
    64
 62
     7
  6
CONTINUOUS
  0
LAYER
  2
233
 70
    64
 62
     7
  6
CONTINUOUS
  0
LAYER
  2
234
 70
    64
 62
     7
  6
CONTINUOUS
  0
LAYER
  2
235
 70
    64
 62
     7
  6
CONTINUOUS
  0
LAYER
  2
236
 70
    64
 62
     7
  6
CONTINUOUS
  0
LAYER
  2
237
 70
    64
 62
     7
  6
CONTINUOUS
  0
LAYER
  2
238
 70
    64
 62
     7
  6
CONTINUOUS
  0
LAYER
  2
239
 70
    64
 62
     7
  6
CONTINUOUS
  0
LAYER
  2
240
 70
    64
 62
     7
  6
CONTINUOUS
  0
LAYER
  2
241
 70
    64
 62
     7
  6
CONTINUOUS
  0
LAYER
  2
242
 70
    64
 62
     7
  6
CONTINUOUS
  0
LAYER
  2
243
 70
    64
 62
     7
  6
CONTINUOUS
  0
LAYER
  2
244
 70
    64
 62
     7
  6
CONTINUOUS
  0
LAYER
  2
245
 70
    64
 62
     7
  6
CONTINUOUS
  0
LAYER
  2
246
 70
    64
 62
     7
  6
CONTINUOUS
  0
LAYER
  2
247
 70
    64
 62
     7
  6
CONTINUOUS
  0
LAYER
  2
248
 70
    64
 62
     7
  6
CONTINUOUS
  0
LAYER
  2
249
 70
    64
 62
     7
  6
CONTINUOUS
  0
LAYER
  2
250
 70
    64
 62
     7
  6
CONTINUOUS
  0
LAYER
  2
251
 70
    64
 62
     7
  6
CONTINUOUS
  0
LAYER
  2
252
 70
    64
 62
     7
  6
CONTINUOUS
  0
LAYER
  2
253
 70
    64
 62
     7
  6
CONTINUOUS
  0
LAYER
  2
254
 70
    64
 62
     7
  6
CONTINUOUS
  0
LAYER
  2
255
 70
    64
 62
     7
  6
CONTINUOUS
  0
ENDTAB
  0
TABLE
  2
STYLE
 70
     2
  0
STYLE
  2
STANDARD
 70
    64
 40
0.0
 41
1.0
 50
0.0
 71
     0
 42
3.000000
  3
TXT
  4
BIGFONT
  0
ENDTAB
  0
ENDSEC
  0
SECTION
  2
ENTITIES
  0
LINE
  8
0
  6
DASHDOT
 62
     3
 10
 40
 20
-6.4422855377197266
 11
 40
 21
 87.68792724609375
  0
LINE
  8
0
  6
CONTINUOUS
 62
     3
 10
-46.199996948242187
 20
 101.04517364501953
 11
 46.79998779296875
 21
 101.04517364501953
  0
LINE
  8
0
  6
CONTINUOUS
 62
     3
 10
 46.79998779296875
 20
 101.04517364501953
 11
 46.79998779296875
 21
-20.954824447631836
  0
LINE
  8
0
  6
CONTINUOUS
 62
     3
 10
 46.79998779296875
 20
-20.954824447631836
 11
-46.199996948242187
 21
-20.954824447631836
  0
LINE
  8
0
  6
CONTINUOUS
 62
     3
 10
-46.199996948242187
 20
-20.954824447631836
 11
-46.199996948242187
 21
 101.04517364501953
  0
LINE
  8
0
  6
DASHDOT
 62
     3
 10
-48.657047271728516
 20
 90.045166015625
 11
 49.875
 21
 90.045166015625
  0
LINE
  8
0
  6
DASHDOT
 62
     3
 10
-50.403823852539063
 20
-9.9548311233520508
 11
 49.875
 21
-9.9548311233520508
  0
LINE
  8
0
  6
DOT
 62
     3
 10
-45
 20
-20.954824447631836
 11
-45
 21
-17.95482063293457
  0
LINE
  8
0
  6
CONTINUOUS
 62
     3
 10
-45
 20
-17.95482063293457
 11
-45
 21
-15.954828262329102
  0
LINE
  8
0
  6
DOT
 62
     3
 10
-45
 20
-15.954828262329102
 11
-45
 21
-3.9548349380493164
  0
LINE
  8
0
  6
CONTINUOUS
 62
     3
 10
-45
 20
-3.9548349380493164
 11
-45
 21
-1.95482337474823
  0
LINE
  8
0
  6
DOT
 62
     3
 10
-45
 20
-1.95482337474823
 11
-45
 21
 32.045166015625
  0
LINE
  8
0
  6
DOT
 62
     3
 10
-45
 20
 48.045166015625
 11
-45
 21
 57.045166015625
  0
LINE
  8
0
  6
DOT
 62
     3
 10
-45
 20
 73.045166015625
 11
-45
 21
 82.295166015625
  0
LINE
  8
0
  6
DOT
 62
     3
 10
-45
 20
 98.045166015625
 11
-45
 21
 101.04517364501953
  0
LINE
  8
0
  6
CONTINUOUS
 62
     3
 10
-46.199996948242187
 20
-3.9548349380493164
 11
-42.199996948242187
 21
-3.9548349380493164
  0
LINE
  8
0
  6
CONTINUOUS
 62
     3
 10
-41.199981689453125
 20
-4.9548406600952148
 11
-41.199981689453125
 21
-14.954828262329102
  0
ARC
  8
0
  6
CONTINUOUS
 62
     3
 10
-42.199996948242187
 20
-4.9548406600952148
 40
 1
 50
 0
 51
 90.000004039712721
  0
LINE
  8
0
  6
CONTINUOUS
 62
     3
 10
-42.199996948242187
 20
-15.954828262329102
 11
-46.199996948242187
 21
-15.954828262329102
  0
ARC
  8
0
  6
CONTINUOUS
 62
     3
 10
-42.199996948242187
 20
-14.954828262329102
 40
 1
 50
-90.000000851989171
 51
 0
  0
LINE
  8
0
  6
CONTINUOUS
 62
     3
 10
-46.199996948242187
 20
-1.95482337474823
 11
-31.699966430664063
 21
-1.95482337474823
  0
LINE
  8
0
  6
CONTINUOUS
 62
     3
 10
-28.699966430664063
 20
-4.9548282623291016
 11
-28.699966430664063
 21
-14.954821586608887
  0
ARC
  8
0
  6
CONTINUOUS
 62
     3
 10
-31.699966430664063
 20
-4.9548282623291016
 40
 3
 50
 0
 51
 90.000004039712721
  0
LINE
  8
0
  6
CONTINUOUS
 62
     3
 10
-31.699966430664063
 20
-17.95482063293457
 11
-46.199996948242187
 21
-17.95482063293457
  0
ARC
  8
0
  6
CONTINUOUS
 62
     3
 10
-31.699966430664063
 20
-14.954821586608887
 40
 3
 50
-89.99997353123203
 51
 0
  0
LINE
  8
0
  6
DOT
 62
     3
 10
 45.599990844726562
 20
 101.04517364501953
 11
 45.599990844726562
 21
 94.645164489746094
  0
LINE
  8
0
  6
DOT
 62
     3
 10
 45.599990844726562
 20
 85.445175170898438
 11
 45.599990844726562
 21
 69.645164489746094
  0
LINE
  8
0
  6
DOT
 62
     3
 10
 45.599990844726562
 20
 60.445175170898438
 11
 45.599990844726562
 21
 44.645164489746094
  0
LINE
  8
0
  6
DOT
 62
     3
 10
 45.599990844726562
 20
 35.445175170898437
 11
 45.599990844726562
 21
 19.645168304443359
  0
LINE
  8
0
  6
DOT
 62
     3
 10
 45.599990844726562
 20
 10.445174217224121
 11
 45.599990844726562
 21
-5.3548331260681152
  0
LINE
  8
0
  6
CONTINUOUS
 62
     3
 10
 45.599990844726562
 20
-5.3548331260681152
 11
 45.599990844726562
 21
-14.554823875427246
  0
LINE
  8
0
  6
DOT
 62
     3
 10
 45.599990844726562
 20
-14.554823875427246
 11
 45.599990844726562
 21
-20.954824447631836
  0
LINE
  8
0
  6
CONTINUOUS
 62
     3
 10
 29.29998779296875
 20
-4.9548282623291016
 11
 34.29998779296875
 21
-4.9548282623291016
  0
LINE
  8
0
  6
CONTINUOUS
 62
     3
 10
 34.29998779296875
 20
-3.7548325061798096
 11
 34.29998779296875
 21
-16.154836654663086
  0
LINE
  8
0
  6
CONTINUOUS
 62
     3
 10
 34.29998779296875
 20
-14.954834938049316
 11
 29.29998779296875
 21
-14.954834938049316
  0
LINE
  8
0
  6
CONTINUOUS
 62
     3
 10
 29.29998779296875
 20
-16.154836654663086
 11
 29.29998779296875
 21
-3.7548325061798096
  0
LINE
  8
0
  6
CONTINUOUS
 62
     3
 10
 46.79998779296875
 20
-5.3548331260681152
 11
 44.79998779296875
 21
-5.3548331260681152
  0
LINE
  8
0
  6
CONTINUOUS
 62
     3
 10
 44.79998779296875
 20
-5.3548331260681152
 11
 44.79998779296875
 21
-14.554823875427246
  0
LINE
  8
0
  6
CONTINUOUS
 62
     3
 10
 44.79998779296875
 20
-14.554823875427246
 11
 46.79998779296875
 21
-14.554823875427246
  0
LINE
  8
0
  6
DOT
 62
     3
 10
 34.29998779296875
 20
-3.4548354148864746
 11
 29.29998779296875
 21
-3.4548354148864746
  0
LINE
  8
0
  6
DOT
 62
     3
 10
 29.29998779296875
 20
-3.4548354148864746
 11
 29.29998779296875
 21
-3.7548325061798096
  0
LINE
  8
0
  6
DOT
 62
     3
 10
 29.29998779296875
 20
-16.154836654663086
 11
 29.29998779296875
 21
-16.454839706420898
  0
LINE
  8
0
  6
DOT
 62
     3
 10
 29.29998779296875
 20
-16.454839706420898
 11
 34.29998779296875
 21
-16.454839706420898
  0
LINE
  8
0
  6
DOT
 62
     3
 10
 34.29998779296875
 20
-16.454839706420898
 11
 34.29998779296875
 21
-16.154836654663086
  0
LINE
  8
0
  6
DOT
 62
     3
 10
 34.29998779296875
 20
-3.7548325061798096
 11
 29.29998779296875
 21
-3.7548325061798096
  0
LINE
  8
0
  6
DOT
 62
     3
 10
 29.29998779296875
 20
-16.154836654663086
 11
 34.29998779296875
 21
-16.154836654663086
  0
LINE
  8
0
  6
DASHDOT
 62
     7
 10
 0
 20
 103.66355895996094
 11
 0
 21
-42.914829254150391
  0
LINE
  8
0
  6
CONTINUOUS
 62
     7
 10
-48.657047271728516
 20
 90.045173645019531
 11
-60.160003662109375
 21
 90.045173645019531
  0
LINE
  8
0
  6
CONTINUOUS
 62
     7
 10
-48.657047271728516
 20
-9.9548311233520508
 11
-60.160003662109375
 21
-9.9548311233520508
  0
LINE
  8
0
  6
CONTINUOUS
 62
     7
 10
-46.199996948242187
 20
-23.954822540283203
 11
-46.199996948242187
 21
-47.914817810058594
  0
LINE
  8
0
  6
CONTINUOUS
 62
     7
 10
 46.79998779296875
 20
-22.502466201782227
 11
 46.79998779296875
 21
-47.914817810058594
  0
LINE
  8
0
  6
CONTINUOUS
 62
     7
 10
 51.004867553710938
 20
 77.545166015625
 11
 63.759979248046875
 21
 77.545166015625
  0
LINE
  8
0
  6
CONTINUOUS
 62
     7
 10
 48.79998779296875
 20
 101.04517364501953
 11
 63.759979248046875
 21
 101.04517364501953
  0
LINE
  8
0
  6
CONTINUOUS
 62
     7
 10
-59.70001220703125
 20
-9.9548311233520508
 11
-60.160011291503906
 21
-9.9548311233520508
  0
CIRCLE
  8
0
  6
CONTINUOUS
 62
     3
 10
 40
 20
 77.545166015625
 40
 4.5
  0
LINE
  8
0
  6
DOT
 62
     6
 10
 34.79998779296875
 20
 101.04517364501953
 11
 34.79998779296875
 21
 80.545166015625
  0
LINE
  8
0
  6
DOT
 62
     6
 10
 34.79998779296875
 20
 80.545166015625
 11
 35.79998779296875
 21
 79.545158386230469
  0
LINE
  8
0
  6
DOT
 62
     6
 10
 34.79998779296875
 20
-20.954824447631836
 11
 34.79998779296875
 21
-0.4548307359218597
  0
LINE
  8
0
  6
DOT
 62
     6
 10
 34.79998779296875
 20
 5.5451722145080566
 11
 34.79998779296875
 21
 74.545166015625
  0
LINE
  8
0
  6
DOT
 62
     6
 10
 34.79998779296875
 20
 74.545166015625
 11
 35.79998779296875
 21
 75.545166015625
  0
LINE
  8
0
  6
DASHDOT
 62
     3
 10
-35.000015258789063
 20
 93.803192138671875
 11
-35.000015258789063
 21
-13.510988235473633
  0
LINE
  8
0
  6
CONTINUOUS
 62
     7
 10
 44.892807006835938
 20
 112.43869018554687
 11
 58.326950073242188
 21
 112.43869018554687
  0
TEXT
  8
0
  6
CONTINUOUS
 62
     7
 10
 47.274246215820313
 20
 113.18869018554687
 11
 56.774246215820312
 21
 113.18869018554687
 40
 2.5
 41
 0.8
  1
２－φ９
 50
 0
 72
  5
  0
LINE
  8
0
  6
CONTINUOUS
 62
     7
 10
 44.892807006835938
 20
 112.43869018554687
 11
 40.6248779296875
 21
 82.001564025878906
  0
LINE
  8
0
  6
CONTINUOUS
 62
     7
 10
 40.6248779296875
 20
 82.001564025878906
 11
 41.796205526590668
 21
 84.763445931524586
  0
LINE
  8
0
  6
CONTINUOUS
 62
     7
 10
 40.6248779296875
 20
 82.001564025878906
 11
 40.258336431936584
 21
 84.979087716872229
  0
LINE
  8
0
  6
CONTINUOUS
 62
     6
 10
 40
 20
 79.545158386230469
 11
 35.79998779296875
 21
 79.545158386230469
  0
LINE
  8
0
  6
CONTINUOUS
 62
     6
 10
 40
 20
 75.545166015625
 11
 35.79998779296875
 21
 75.545166015625
  0
LINE
  8
0
  6
CONTINUOUS
 62
     7
 10
-30.1634521484375
 20
 107.43869018554687
 11
-15.9569091796875
 21
 107.43869018554687
  0
TEXT
  8
0
  6
CONTINUOUS
 62
     7
 10
-27.782012939453125
 20
 108.18869018554687
 11
-18.282012939453125
 21
 108.18869018554687
 40
 2.5
 41
 0.8
  1
２－φ４
 50
 0
 72
  5
  0
TEXT
  8
0
  6
CONTINUOUS
 62
     7
 10
-33.458300781250003
 20
 112.93869018554687
 11
-19.458300781249999
 21
 112.93869018554687
 40
 3
 41
 0.8
  1
５－切抜き
 50
 0
 72
  5
  0
LINE
  8
0
  6
CONTINUOUS
 62
     7
 10
-35.370254516601563
 20
 112.43869781494141
 11
-18.95037841796875
 21
 112.43869781494141
  0
LINE
  8
0
  6
CONTINUOUS
 62
     7
 10
-35.370254516601563
 20
 112.43869781494141
 11
-37.982177734375
 21
 92.289344787597656
  0
LINE
  8
0
  6
CONTINUOUS
 62
     7
 10
-37.982177734375
 20
 92.289344787597656
 11
-36.839646333302078
 21
 95.063262954660686
  0
LINE
  8
0
  6
CONTINUOUS
 62
     7
 10
-37.982177734375
 20
 92.289344787597656
 11
-38.379675599955945
 21
 95.262894088829867
  0
LINE
  8
0
  6
DASHDOT
 62
     7
 10
-49.955108642578125
 20
 77.545166015625
 11
 51.004867553710938
 21
 77.545166015625
  0
LINE
  8
0
  6
DOT
 62
     3
 10
 34.29998779296875
 20
-3.4548354148864746
 11
 34.29998779296875
 21
-3.7548325061798096
  0
LINE
  8
0
  6
CONTINUOUS
 62
     3
 10
 45.599990844726562
 20
 94.645164489746094
 11
 45.599990844726562
 21
 85.445175170898438
  0
LINE
  8
0
  6
CONTINUOUS
 62
     3
 10
 29.29998779296875
 20
 95.045166015625
 11
 34.29998779296875
 21
 95.045166015625
  0
LINE
  8
0
  6
CONTINUOUS
 62
     3
 10
 34.29998779296875
 20
 96.245162963867188
 11
 34.29998779296875
 21
 83.845161437988281
  0
LINE
  8
0
  6
CONTINUOUS
 62
     3
 10
 34.29998779296875
 20
 85.045166015625
 11
 29.29998779296875
 21
 85.045166015625
  0
LINE
  8
0
  6
CONTINUOUS
 62
     3
 10
 29.29998779296875
 20
 83.845161437988281
 11
 29.29998779296875
 21
 96.245162963867188
  0
LINE
  8
0
  6
CONTINUOUS
 62
     3
 10
 46.79998779296875
 20
 94.645164489746094
 11
 44.79998779296875
 21
 94.645164489746094
  0
LINE
  8
0
  6
CONTINUOUS
 62
     3
 10
 44.79998779296875
 20
 94.645164489746094
 11
 44.79998779296875
 21
 85.445175170898438
  0
LINE
  8
0
  6
CONTINUOUS
 62
     3
 10
 44.79998779296875
 20
 85.445175170898438
 11
 46.79998779296875
 21
 85.445175170898438
  0
LINE
  8
0
  6
DOT
 62
     3
 10
 34.29998779296875
 20
 96.545166015625
 11
 29.29998779296875
 21
 96.545166015625
  0
LINE
  8
0
  6
DOT
 62
     3
 10
 29.29998779296875
 20
 96.545166015625
 11
 29.29998779296875
 21
 96.245162963867188
  0
LINE
  8
0
  6
DOT
 62
     3
 10
 29.29998779296875
 20
 83.845161437988281
 11
 29.29998779296875
 21
 83.545166015625
  0
LINE
  8
0
  6
DOT
 62
     3
 10
 29.29998779296875
 20
 83.545166015625
 11
 34.29998779296875
 21
 83.545166015625
  0
LINE
  8
0
  6
DOT
 62
     3
 10
 34.29998779296875
 20
 83.545166015625
 11
 34.29998779296875
 21
 83.845161437988281
  0
LINE
  8
0
  6
DOT
 62
     3
 10
 34.29998779296875
 20
 96.245162963867188
 11
 29.29998779296875
 21
 96.245162963867188
  0
LINE
  8
0
  6
DOT
 62
     3
 10
 29.29998779296875
 20
 83.845161437988281
 11
 34.29998779296875
 21
 83.845161437988281
  0
LINE
  8
0
  6
DOT
 62
     3
 10
 34.29998779296875
 20
 96.545166015625
 11
 34.29998779296875
 21
 96.245162963867188
  0
CIRCLE
  8
0
  6
CONTINUOUS
 62
     6
 10
-35.000015258789063
 20
 90.045166015625
 40
 2
  0
ARC
  8
0
  6
CONTINUOUS
 62
     6
 10
 40
 20
 77.545166015625
 40
 2
 50
-90.000000851989171
 51
 90.000004039712721
  0
LINE
  8
0
  6
CONTINUOUS
 62
     3
 10
-45
 20
 82.045166015625
 11
-45
 21
 84.045166015625
  0
LINE
  8
0
  6
DOT
 62
     3
 10
-45
 20
 84.045166015625
 11
-45
 21
 96.045166015625
  0
LINE
  8
0
  6
CONTINUOUS
 62
     3
 10
-45
 20
 96.045166015625
 11
-45
 21
 98.045166015625
  0
LINE
  8
0
  6
CONTINUOUS
 62
     3
 10
-46.199996948242187
 20
 96.045166015625
 11
-42.199996948242187
 21
 96.045166015625
  0
LINE
  8
0
  6
CONTINUOUS
 62
     3
 10
-41.199981689453125
 20
 95.045158386230469
 11
-41.199981689453125
 21
 85.045166015625
  0
ARC
  8
0
  6
CONTINUOUS
 62
     3
 10
-42.199996948242187
 20
 95.045158386230469
 40
 1
 50
 0
 51
 90.000004039712721
  0
LINE
  8
0
  6
CONTINUOUS
 62
     3
 10
-42.199996948242187
 20
 84.045166015625
 11
-46.199996948242187
 21
 84.045166015625
  0
ARC
  8
0
  6
CONTINUOUS
 62
     3
 10
-42.199996948242187
 20
 85.045166015625
 40
 1
 50
-90.000000851989171
 51
 0
  0
LINE
  8
0
  6
CONTINUOUS
 62
     3
 10
-46.199996948242187
 20
 98.045166015625
 11
-31.699966430664063
 21
 98.045166015625
  0
LINE
  8
0
  6
CONTINUOUS
 62
     3
 10
-28.699966430664063
 20
 95.045166015625
 11
-28.699966430664063
 21
 85.045166015625
  0
ARC
  8
0
  6
CONTINUOUS
 62
     3
 10
-31.699966430664063
 20
 95.045166015625
 40
 3
 50
 0
 51
 90.000004039712721
  0
LINE
  8
0
  6
CONTINUOUS
 62
     3
 10
-31.699966430664063
 20
 82.045166015625
 11
-46.199996948242187
 21
 82.045166015625
  0
ARC
  8
0
  6
CONTINUOUS
 62
     3
 10
-31.699966430664063
 20
 85.045166015625
 40
 3
 50
-89.99997353123203
 51
 0
  0
LINE
  8
0
  6
CONTINUOUS
 62
     6
 10
-30.699996948242188
 20
-17.783260345458984
 11
-30.699996948242188
 21
-2.1263904571533203
  0
LINE
  8
0
  6
DOT
 62
     6
 10
-30.699996948242188
 20
-20.954824447631836
 11
-30.699996948242188
 21
-17.783260345458984
  0
LINE
  8
0
  6
DOT
 62
     6
 10
-30.699996948242188
 20
-2.1263904571533203
 11
-30.699996948242188
 21
 7.2167444229125977
  0
LINE
  8
0
  6
DOT
 62
     6
 10
-30.699996948242188
 20
 7.2167444229125977
 11
-30.699996948242188
 21
 22.873617172241211
  0
LINE
  8
0
  6
DOT
 62
     6
 10
-30.699996948242188
 20
 22.873617172241211
 11
-30.699996948242188
 21
 32.216728210449219
  0
LINE
  8
0
  6
CONTINUOUS
 62
     6
 10
-30.699996948242188
 20
 32.216728210449219
 11
-30.699996948242188
 21
 47.873603820800781
  0
LINE
  8
0
  6
DOT
 62
     6
 10
-30.699996948242188
 20
 47.873603820800781
 11
-30.699996948242188
 21
 57.216728210449219
  0
LINE
  8
0
  6
CONTINUOUS
 62
     6
 10
-30.699996948242188
 20
 57.216728210449219
 11
-30.699996948242188
 21
 72.873603820800781
  0
LINE
  8
0
  6
DOT
 62
     6
 10
-30.699996948242188
 20
 72.873603820800781
 11
-30.699996948242188
 21
 82.21673583984375
  0
LINE
  8
0
  6
CONTINUOUS
 62
     6
 10
-30.699996948242188
 20
 82.21673583984375
 11
-30.699996948242188
 21
 97.873603820800781
  0
LINE
  8
0
  6
DOT
 62
     6
 10
-30.699996948242188
 20
 97.873603820800781
 11
-30.699996948242188
 21
 101.04517364501953
  0
CIRCLE
  8
0
  6
CONTINUOUS
 62
     6
 10
-35.000015258789063
 20
-9.9548311233520508
 40
 2
  0
LINE
  8
0
  6
CONTINUOUS
 62
     7
 10
-30.1634521484375
 20
 107.43869018554687
 11
-34.464202880859375
 21
 91.972061157226563
  0
LINE
  8
0
  6
CONTINUOUS
 62
     7
 10
-34.464202880859375
 20
 91.972061157226563
 11
-32.939807692315313
 21
 94.555899253768928
  0
LINE
  8
0
  6
CONTINUOUS
 62
     7
 10
-34.464202880859375
 20
 91.972061157226563
 11
-34.435956970444636
 21
 94.97192818237032
  0
LINE
  8
0
  6
CONTINUOUS
 62
     3
 10
-45
 20
 7.0451774597167969
 11
-45
 21
 9.0451726913452148
  0
LINE
  8
0
  6
DOT
 62
     3
 10
-45
 20
 9.0451726913452148
 11
-45
 21
 21.045169830322266
  0
LINE
  8
0
  6
CONTINUOUS
 62
     3
 10
-45
 20
 21.045169830322266
 11
-45
 21
 23.045171737670898
  0
LINE
  8
0
  6
CONTINUOUS
 62
     3
 10
-46.199996948242187
 20
 21.045169830322266
 11
-42.199996948242187
 21
 21.045169830322266
  0
LINE
  8
0
  6
CONTINUOUS
 62
     3
 10
-41.199981689453125
 20
 20.045169830322266
 11
-41.199981689453125
 21
 10.045172691345215
  0
ARC
  8
0
  6
CONTINUOUS
 62
     3
 10
-42.199996948242187
 20
 20.045169830322266
 40
 1
 50
 0
 51
 90.000004039712721
  0
LINE
  8
0
  6
CONTINUOUS
 62
     3
 10
-42.199996948242187
 20
 9.0451726913452148
 11
-46.199996948242187
 21
 9.0451726913452148
  0
ARC
  8
0
  6
CONTINUOUS
 62
     3
 10
-42.199996948242187
 20
 10.045172691345215
 40
 1
 50
-90.000000851989171
 51
 0
  0
LINE
  8
0
  6
CONTINUOUS
 62
     3
 10
-46.199996948242187
 20
 23.045171737670898
 11
-31.699966430664063
 21
 23.045171737670898
  0
LINE
  8
0
  6
CONTINUOUS
 62
     3
 10
-28.699966430664063
 20
 20.045169830322266
 11
-28.699966430664063
 21
 10.04517936706543
  0
ARC
  8
0
  6
CONTINUOUS
 62
     3
 10
-31.699966430664063
 20
 20.045169830322266
 40
 3
 50
 0
 51
 90.000004039712721
  0
LINE
  8
0
  6
CONTINUOUS
 62
     3
 10
-31.699966430664063
 20
 7.0451774597167969
 11
-46.199996948242187
 21
 7.0451774597167969
  0
ARC
  8
0
  6
CONTINUOUS
 62
     3
 10
-31.699966430664063
 20
 10.04517936706543
 40
 3
 50
-89.99997353123203
 51
 0
  0
LINE
  8
0
  6
CONTINUOUS
 62
     6
 10
-30.699996948242188
 20
 7.2167444229125977
 11
-30.699996948242188
 21
 22.873617172241211
  0
CIRCLE
  8
0
  6
CONTINUOUS
 62
     3
 10
 40
 20
 2.5451674461364746
 40
 4.5
  0
LINE
  8
0
  6
DOT
 62
     6
 10
 34.79998779296875
 20
 5.5451722145080566
 11
 35.79998779296875
 21
 4.5451598167419434
  0
LINE
  8
0
  6
DOT
 62
     6
 10
 34.79998779296875
 20
-0.4548307359218597
 11
 35.79998779296875
 21
 0.5451686382293701
  0
LINE
  8
0
  6
CONTINUOUS
 62
     6
 10
 40
 20
 4.5451598167419434
 11
 35.79998779296875
 21
 4.5451598167419434
  0
LINE
  8
0
  6
CONTINUOUS
 62
     6
 10
 40
 20
 0.5451686382293701
 11
 35.79998779296875
 21
 0.5451686382293701
  0
ARC
  8
0
  6
CONTINUOUS
 62
     6
 10
 40
 20
 2.5451674461364746
 40
 2
 50
-90.000000851989171
 51
 90.000004039712721
  0
LINE
  8
0
  6
CONTINUOUS
 62
     3
 10
 45.599990844726562
 20
 19.645168304443359
 11
 45.599990844726562
 21
 10.445174217224121
  0
LINE
  8
0
  6
CONTINUOUS
 62
     3
 10
 29.29998779296875
 20
 20.045169830322266
 11
 34.29998779296875
 21
 20.045169830322266
  0
LINE
  8
0
  6
CONTINUOUS
 62
     3
 10
 34.29998779296875
 20
 21.24516487121582
 11
 34.29998779296875
 21
 8.8451642990112305
  0
LINE
  8
0
  6
CONTINUOUS
 62
     3
 10
 34.29998779296875
 20
 10.045166015625
 11
 29.29998779296875
 21
 10.045166015625
  0
LINE
  8
0
  6
CONTINUOUS
 62
     3
 10
 29.29998779296875
 20
 8.8451642990112305
 11
 29.29998779296875
 21
 21.24516487121582
  0
LINE
  8
0
  6
CONTINUOUS
 62
     3
 10
 46.79998779296875
 20
 19.645168304443359
 11
 44.79998779296875
 21
 19.645168304443359
  0
LINE
  8
0
  6
CONTINUOUS
 62
     3
 10
 44.79998779296875
 20
 19.645168304443359
 11
 44.79998779296875
 21
 10.445174217224121
  0
LINE
  8
0
  6
CONTINUOUS
 62
     3
 10
 44.79998779296875
 20
 10.445174217224121
 11
 46.79998779296875
 21
 10.445174217224121
  0
LINE
  8
0
  6
DOT
 62
     3
 10
 34.29998779296875
 20
 21.545167922973633
 11
 29.29998779296875
 21
 21.545167922973633
  0
LINE
  8
0
  6
DOT
 62
     3
 10
 29.29998779296875
 20
 21.545167922973633
 11
 29.29998779296875
 21
 21.24516487121582
  0
LINE
  8
0
  6
DOT
 62
     3
 10
 29.29998779296875
 20
 8.8451642990112305
 11
 29.29998779296875
 21
 8.5451669692993164
  0
LINE
  8
0
  6
DOT
 62
     3
 10
 29.29998779296875
 20
 8.5451669692993164
 11
 34.29998779296875
 21
 8.5451669692993164
  0
LINE
  8
0
  6
DOT
 62
     3
 10
 34.29998779296875
 20
 8.5451669692993164
 11
 34.29998779296875
 21
 8.8451642990112305
  0
LINE
  8
0
  6
DOT
 62
     3
 10
 34.29998779296875
 20
 21.24516487121582
 11
 29.29998779296875
 21
 21.24516487121582
  0
LINE
  8
0
  6
DOT
 62
     3
 10
 29.29998779296875
 20
 8.8451642990112305
 11
 34.29998779296875
 21
 8.8451642990112305
  0
LINE
  8
0
  6
DOT
 62
     3
 10
 34.29998779296875
 20
 21.545167922973633
 11
 34.29998779296875
 21
 21.24516487121582
  0
LINE
  8
0
  6
DASHDOT
 62
     7
 10
-49.955108642578125
 20
 2.5451674461364746
 11
 51.004867553710938
 21
 2.5451674461364746
  0
LINE
  8
0
  6
DASHDOT
 62
     3
 10
-48.657047271728516
 20
 15.045169830322266
 11
 49.875
 21
 15.045169830322266
  0
LINE
  8
0
  6
DASHDOT
 62
     3
 10
-48.657047271728516
 20
 65.045166015625
 11
 49.875
 21
 65.045166015625
  0
LINE
  8
0
  6
CONTINUOUS
 62
     3
 10
 45.599990844726562
 20
 69.645164489746094
 11
 45.599990844726562
 21
 60.445175170898438
  0
LINE
  8
0
  6
CONTINUOUS
 62
     3
 10
 29.29998779296875
 20
 70.045166015625
 11
 34.29998779296875
 21
 70.045166015625
  0
LINE
  8
0
  6
CONTINUOUS
 62
     3
 10
 34.29998779296875
 20
 71.245162963867188
 11
 34.29998779296875
 21
 58.845161437988281
  0
LINE
  8
0
  6
CONTINUOUS
 62
     3
 10
 34.29998779296875
 20
 60.045166015625
 11
 29.29998779296875
 21
 60.045166015625
  0
LINE
  8
0
  6
CONTINUOUS
 62
     3
 10
 29.29998779296875
 20
 58.845161437988281
 11
 29.29998779296875
 21
 71.245162963867188
  0
LINE
  8
0
  6
CONTINUOUS
 62
     3
 10
 46.79998779296875
 20
 69.645164489746094
 11
 44.79998779296875
 21
 69.645164489746094
  0
LINE
  8
0
  6
CONTINUOUS
 62
     3
 10
 44.79998779296875
 20
 69.645164489746094
 11
 44.79998779296875
 21
 60.445175170898438
  0
LINE
  8
0
  6
CONTINUOUS
 62
     3
 10
 44.79998779296875
 20
 60.445175170898438
 11
 46.79998779296875
 21
 60.445175170898438
  0
LINE
  8
0
  6
DOT
 62
     3
 10
 34.29998779296875
 20
 71.545166015625
 11
 29.29998779296875
 21
 71.545166015625
  0
LINE
  8
0
  6
DOT
 62
     3
 10
 29.29998779296875
 20
 71.545166015625
 11
 29.29998779296875
 21
 71.245162963867188
  0
LINE
  8
0
  6
DOT
 62
     3
 10
 29.29998779296875
 20
 58.845161437988281
 11
 29.29998779296875
 21
 58.545166015625
  0
LINE
  8
0
  6
DOT
 62
     3
 10
 29.29998779296875
 20
 58.545166015625
 11
 34.29998779296875
 21
 58.545166015625
  0
LINE
  8
0
  6
DOT
 62
     3
 10
 34.29998779296875
 20
 58.545166015625
 11
 34.29998779296875
 21
 58.845161437988281
  0
LINE
  8
0
  6
DOT
 62
     3
 10
 34.29998779296875
 20
 71.245162963867188
 11
 29.29998779296875
 21
 71.245162963867188
  0
LINE
  8
0
  6
DOT
 62
     3
 10
 29.29998779296875
 20
 58.845161437988281
 11
 34.29998779296875
 21
 58.845161437988281
  0
LINE
  8
0
  6
DOT
 62
     3
 10
 34.29998779296875
 20
 71.545166015625
 11
 34.29998779296875
 21
 71.245162963867188
  0
LINE
  8
0
  6
CONTINUOUS
 62
     3
 10
-45
 20
 57.045166015625
 11
-45
 21
 59.045166015625
  0
LINE
  8
0
  6
DOT
 62
     3
 10
-45
 20
 59.045166015625
 11
-45
 21
 71.045166015625
  0
LINE
  8
0
  6
CONTINUOUS
 62
     3
 10
-45
 20
 71.045166015625
 11
-45
 21
 73.045166015625
  0
LINE
  8
0
  6
CONTINUOUS
 62
     3
 10
-46.199996948242187
 20
 71.045166015625
 11
-42.199996948242187
 21
 71.045166015625
  0
LINE
  8
0
  6
CONTINUOUS
 62
     3
 10
-41.199981689453125
 20
 70.045158386230469
 11
-41.199981689453125
 21
 60.045166015625
  0
ARC
  8
0
  6
CONTINUOUS
 62
     3
 10
-42.199996948242187
 20
 70.045158386230469
 40
 1
 50
 0
 51
 90.000004039712721
  0
LINE
  8
0
  6
CONTINUOUS
 62
     3
 10
-42.199996948242187
 20
 59.045166015625
 11
-46.199996948242187
 21
 59.045166015625
  0
ARC
  8
0
  6
CONTINUOUS
 62
     3
 10
-42.199996948242187
 20
 60.045166015625
 40
 1
 50
-90.000000851989171
 51
 0
  0
LINE
  8
0
  6
CONTINUOUS
 62
     3
 10
-46.199996948242187
 20
 73.045166015625
 11
-31.699966430664063
 21
 73.045166015625
  0
LINE
  8
0
  6
CONTINUOUS
 62
     3
 10
-28.699966430664063
 20
 70.045166015625
 11
-28.699966430664063
 21
 60.045166015625
  0
ARC
  8
0
  6
CONTINUOUS
 62
     3
 10
-31.699966430664063
 20
 70.045166015625
 40
 3
 50
 0
 51
 90.000004039712721
  0
LINE
  8
0
  6
CONTINUOUS
 62
     3
 10
-31.699966430664063
 20
 57.045166015625
 11
-46.199996948242187
 21
 57.045166015625
  0
ARC
  8
0
  6
CONTINUOUS
 62
     3
 10
-31.699966430664063
 20
 60.045166015625
 40
 3
 50
-89.99997353123203
 51
 0
  0
LINE
  8
0
  6
DASHDOT
 62
     3
 10
-48.657047271728516
 20
 40.045166015625
 11
 49.875
 21
 40.045166015625
  0
LINE
  8
0
  6
CONTINUOUS
 62
     3
 10
 45.599990844726562
 20
 44.645164489746094
 11
 45.599990844726562
 21
 35.445175170898437
  0
LINE
  8
0
  6
CONTINUOUS
 62
     3
 10
 29.29998779296875
 20
 45.045166015625
 11
 34.29998779296875
 21
 45.045166015625
  0
LINE
  8
0
  6
CONTINUOUS
 62
     3
 10
 34.29998779296875
 20
 46.245162963867188
 11
 34.29998779296875
 21
 33.845161437988281
  0
LINE
  8
0
  6
CONTINUOUS
 62
     3
 10
 34.29998779296875
 20
 35.045166015625
 11
 29.29998779296875
 21
 35.045166015625
  0
LINE
  8
0
  6
CONTINUOUS
 62
     3
 10
 29.29998779296875
 20
 33.845161437988281
 11
 29.29998779296875
 21
 46.245162963867188
  0
LINE
  8
0
  6
CONTINUOUS
 62
     3
 10
 46.79998779296875
 20
 44.645164489746094
 11
 44.79998779296875
 21
 44.645164489746094
  0
LINE
  8
0
  6
CONTINUOUS
 62
     3
 10
 44.79998779296875
 20
 44.645164489746094
 11
 44.79998779296875
 21
 35.445175170898437
  0
LINE
  8
0
  6
CONTINUOUS
 62
     3
 10
 44.79998779296875
 20
 35.445175170898437
 11
 46.79998779296875
 21
 35.445175170898437
  0
LINE
  8
0
  6
DOT
 62
     3
 10
 34.29998779296875
 20
 46.545166015625
 11
 29.29998779296875
 21
 46.545166015625
  0
LINE
  8
0
  6
DOT
 62
     3
 10
 29.29998779296875
 20
 46.545166015625
 11
 29.29998779296875
 21
 46.245162963867188
  0
LINE
  8
0
  6
DOT
 62
     3
 10
 29.29998779296875
 20
 33.845161437988281
 11
 29.29998779296875
 21
 33.545166015625
  0
LINE
  8
0
  6
DOT
 62
     3
 10
 29.29998779296875
 20
 33.545166015625
 11
 34.29998779296875
 21
 33.545166015625
  0
LINE
  8
0
  6
DOT
 62
     3
 10
 34.29998779296875
 20
 33.545166015625
 11
 34.29998779296875
 21
 33.845161437988281
  0
LINE
  8
0
  6
DOT
 62
     3
 10
 34.29998779296875
 20
 46.245162963867188
 11
 29.29998779296875
 21
 46.245162963867188
  0
LINE
  8
0
  6
DOT
 62
     3
 10
 29.29998779296875
 20
 33.845161437988281
 11
 34.29998779296875
 21
 33.845161437988281
  0
LINE
  8
0
  6
DOT
 62
     3
 10
 34.29998779296875
 20
 46.545166015625
 11
 34.29998779296875
 21
 46.245162963867188
  0
LINE
  8
0
  6
CONTINUOUS
 62
     3
 10
-45
 20
 32.045166015625
 11
-45
 21
 34.045166015625
  0
LINE
  8
0
  6
DOT
 62
     3
 10
-45
 20
 34.045166015625
 11
-45
 21
 46.045166015625
  0
LINE
  8
0
  6
CONTINUOUS
 62
     3
 10
-45
 20
 46.045166015625
 11
-45
 21
 48.045166015625
  0
LINE
  8
0
  6
CONTINUOUS
 62
     3
 10
-46.199996948242187
 20
 46.045166015625
 11
-42.199996948242187
 21
 46.045166015625
  0
LINE
  8
0
  6
CONTINUOUS
 62
     3
 10
-41.199981689453125
 20
 45.045158386230469
 11
-41.199981689453125
 21
 35.045166015625
  0
ARC
  8
0
  6
CONTINUOUS
 62
     3
 10
-42.199996948242187
 20
 45.045158386230469
 40
 1
 50
 0
 51
 90.000004039712721
  0
LINE
  8
0
  6
CONTINUOUS
 62
     3
 10
-42.199996948242187
 20
 34.045166015625
 11
-46.199996948242187
 21
 34.045166015625
  0
ARC
  8
0
  6
CONTINUOUS
 62
     3
 10
-42.199996948242187
 20
 35.045166015625
 40
 1
 50
-90.000000851989171
 51
 0
  0
LINE
  8
0
  6
CONTINUOUS
 62
     3
 10
-46.199996948242187
 20
 48.045166015625
 11
-31.699966430664063
 21
 48.045166015625
  0
LINE
  8
0
  6
CONTINUOUS
 62
     3
 10
-28.699966430664063
 20
 45.045166015625
 11
-28.699966430664063
 21
 35.045166015625
  0
ARC
  8
0
  6
CONTINUOUS
 62
     3
 10
-31.699966430664063
 20
 45.045166015625
 40
 3
 50
 0
 51
 90.000004039712721
  0
LINE
  8
0
  6
CONTINUOUS
 62
     3
 10
-31.699966430664063
 20
 32.045166015625
 11
-46.199996948242187
 21
 32.045166015625
  0
ARC
  8
0
  6
CONTINUOUS
 62
     3
 10
-31.699966430664063
 20
 35.045166015625
 40
 3
 50
-89.99997353123203
 51
 0
  0
LINE
  8
0
  6
CONTINUOUS
 62
     3
 10
 78.791011810302734
 20
-5.3548431396484375
 11
 78.791011810302734
 21
-14.554834365844727
  0
LINE
  8
0
  6
CONTINUOUS
 62
     3
 10
 78.791011810302734
 20
-5.3548431396484375
 11
 75.591012954711914
 21
-5.3548431396484375
  0
LINE
  8
0
  6
CONTINUOUS
 62
     3
 10
 75.591012954711914
 20
-14.554834365844727
 11
 78.791011810302734
 21
-14.554834365844727
  0
LINE
  8
0
  6
DASHDOT
 62
     7
 10
 107.8914999961853
 20
 77.545158386230469
 11
 67.955598831176758
 21
 77.545158386230469
  0
LINE
  8
0
  6
CONTINUOUS
 62
     3
 10
 101.5910120010376
 20
 101.045166015625
 11
 75.591012954711914
 21
 101.045166015625
  0
LINE
  8
0
  6
CONTINUOUS
 62
     3
 10
 75.591012954711914
 20
 101.045166015625
 11
 75.591012954711914
 21
-20.954835414886475
  0
LINE
  8
0
  6
CONTINUOUS
 62
     3
 10
 75.591012954711914
 20
-20.954835414886475
 11
 101.5910120010376
 21
-20.954835414886475
  0
LINE
  8
0
  6
CONTINUOUS
 62
     3
 10
 101.5910120010376
 20
-20.954835414886475
 11
 101.5910120010376
 21
 101.045166015625
  0
LINE
  8
0
  6
DASHDOT
 62
     3
 10
 71.994062423706055
 20
 90.045158386230469
 11
 104.75047373771667
 21
 90.045158386230469
  0
LINE
  8
0
  6
DASHDOT
 62
     3
 10
 71.994062423706055
 20
-9.9548416137695313
 11
 104.75047373771667
 21
-9.9548416137695313
  0
LINE
  8
0
  6
DOT
 62
     3
 10
 76.791009902954102
 20
 101.045166015625
 11
 76.791009902954102
 21
 94.645156860351563
  0
LINE
  8
0
  6
DOT
 62
     3
 10
 76.791009902954102
 20
 85.445159912109375
 11
 76.791009902954102
 21
-5.3548431396484375
  0
LINE
  8
0
  6
CONTINUOUS
 62
     3
 10
 76.791009902954102
 20
-5.3548431396484375
 11
 76.791009902954102
 21
-14.554834365844727
  0
LINE
  8
0
  6
DOT
 62
     3
 10
 76.791009902954102
 20
-14.554834365844727
 11
 76.791009902954102
 21
-20.954835414886475
  0
LINE
  8
0
  6
CONTINUOUS
 62
     3
 10
 101.5910120010376
 20
 95.145156860351563
 11
 96.291011810302734
 21
 95.145156860351563
  0
LINE
  8
0
  6
CONTINUOUS
 62
     3
 10
 96.291011810302734
 20
 95.145156860351563
 11
 96.291011810302734
 21
 84.945159912109375
  0
LINE
  8
0
  6
CONTINUOUS
 62
     3
 10
 96.291011810302734
 20
 84.945159912109375
 11
 101.5910120010376
 21
 84.945159912109375
  0
LINE
  8
0
  6
DOT
 62
     3
 10
 100.39100122451782
 20
-20.954835414886475
 11
 100.39100122451782
 21
-15.05483341217041
  0
LINE
  8
0
  6
DOT
 62
     3
 10
 100.39100122451782
 20
-4.8548431396484375
 11
 100.39100122451782
 21
 84.945159912109375
  0
LINE
  8
0
  6
CONTINUOUS
 62
     3
 10
 100.39100122451782
 20
 84.945159912109375
 11
 100.39100122451782
 21
 95.145156860351563
  0
LINE
  8
0
  6
DOT
 62
     3
 10
 100.39100122451782
 20
 95.145156860351563
 11
 100.39100122451782
 21
 101.045166015625
  0
LINE
  8
0
  6
CONTINUOUS
 62
     3
 10
 101.5910120010376
 20
-4.8548431396484375
 11
 96.291011810302734
 21
-4.8548431396484375
  0
LINE
  8
0
  6
CONTINUOUS
 62
     3
 10
 96.291011810302734
 20
-4.8548431396484375
 11
 96.291011810302734
 21
-15.05483341217041
  0
LINE
  8
0
  6
CONTINUOUS
 62
     3
 10
 96.291011810302734
 20
-15.05483341217041
 11
 101.5910120010376
 21
-15.05483341217041
  0
LINE
  8
0
  6
CONTINUOUS
 62
     3
 10
 100.39100122451782
 20
-15.05483341217041
 11
 100.39100122451782
 21
-4.8548431396484375
  0
LINE
  8
0
  6
CONTINUOUS
 62
     3
 10
 78.791011810302734
 20
 94.645156860351563
 11
 78.791011810302734
 21
 85.445159912109375
  0
LINE
  8
0
  6
CONTINUOUS
 62
     3
 10
 78.791011810302734
 20
 94.645156860351563
 11
 75.591012954711914
 21
 94.645156860351563
  0
LINE
  8
0
  6
CONTINUOUS
 62
     3
 10
 75.591012954711914
 20
 85.445159912109375
 11
 78.791011810302734
 21
 85.445159912109375
  0
LINE
  8
0
  6
CONTINUOUS
 62
     3
 10
 76.791009902954102
 20
 94.645156860351563
 11
 76.791009902954102
 21
 85.445159912109375
  0
LINE
  8
0
  6
DASHDOT
 62
     3
 10
 71.994062423706055
 20
 65.045158386230469
 11
 104.75047373771667
 21
 65.045158386230469
  0
LINE
  8
0
  6
CONTINUOUS
 62
     3
 10
 101.5910120010376
 20
 70.145156860351563
 11
 96.291011810302734
 21
 70.145156860351563
  0
LINE
  8
0
  6
CONTINUOUS
 62
     3
 10
 96.291011810302734
 20
 70.145156860351563
 11
 96.291011810302734
 21
 59.945159912109375
  0
LINE
  8
0
  6
CONTINUOUS
 62
     3
 10
 96.291011810302734
 20
 59.945159912109375
 11
 101.5910120010376
 21
 59.945159912109375
  0
LINE
  8
0
  6
CONTINUOUS
 62
     3
 10
 100.39100122451782
 20
 59.945159912109375
 11
 100.39100122451782
 21
 70.145156860351563
  0
LINE
  8
0
  6
CONTINUOUS
 62
     3
 10
 78.791011810302734
 20
 69.645156860351563
 11
 78.791011810302734
 21
 60.445159912109375
  0
LINE
  8
0
  6
CONTINUOUS
 62
     3
 10
 78.791011810302734
 20
 69.645156860351563
 11
 75.591012954711914
 21
 69.645156860351563
  0
LINE
  8
0
  6
CONTINUOUS
 62
     3
 10
 75.591012954711914
 20
 60.445159912109375
 11
 78.791011810302734
 21
 60.445159912109375
  0
LINE
  8
0
  6
CONTINUOUS
 62
     3
 10
 76.791009902954102
 20
 69.645156860351563
 11
 76.791009902954102
 21
 60.445159912109375
  0
LINE
  8
0
  6
DASHDOT
 62
     7
 10
 107.8914999961853
 20
 2.5451674461364746
 11
 67.955598831176758
 21
 2.5451674461364746
  0
LINE
  8
0
  6
DASHDOT
 62
     3
 10
 71.994062423706055
 20
 40.045162200927734
 11
 104.75047373771667
 21
 40.045162200927734
  0
LINE
  8
0
  6
CONTINUOUS
 62
     3
 10
 101.5910120010376
 20
 45.145160675048828
 11
 96.291011810302734
 21
 45.145160675048828
  0
LINE
  8
0
  6
CONTINUOUS
 62
     3
 10
 96.291011810302734
 20
 45.145160675048828
 11
 96.291011810302734
 21
 34.945163726806641
  0
LINE
  8
0
  6
CONTINUOUS
 62
     3
 10
 96.291011810302734
 20
 34.945163726806641
 11
 101.5910120010376
 21
 34.945163726806641
  0
LINE
  8
0
  6
CONTINUOUS
 62
     3
 10
 100.39100122451782
 20
 34.945163726806641
 11
 100.39100122451782
 21
 45.145160675048828
  0
LINE
  8
0
  6
CONTINUOUS
 62
     3
 10
 78.791011810302734
 20
 44.645160675048828
 11
 78.791011810302734
 21
 35.445163726806641
  0
LINE
  8
0
  6
CONTINUOUS
 62
     3
 10
 78.791011810302734
 20
 44.645160675048828
 11
 75.591012954711914
 21
 44.645160675048828
  0
LINE
  8
0
  6
CONTINUOUS
 62
     3
 10
 75.591012954711914
 20
 35.445163726806641
 11
 78.791011810302734
 21
 35.445163726806641
  0
LINE
  8
0
  6
CONTINUOUS
 62
     3
 10
 76.791009902954102
 20
 44.645160675048828
 11
 76.791009902954102
 21
 35.445163726806641
  0
LINE
  8
0
  6
DASHDOT
 62
     3
 10
 39.999992370605469
 20
-103.44599151611328
 11
 39.999992370605469
 21
-98.309280395507813
  0
LINE
  8
0
  6
DASHDOT
 62
     7
 10
 0
 20
-54.494829177856445
 11
 0
 21
-112.66825103759766
  0
LINE
  8
0
  6
CONTINUOUS
 62
     7
 10
-47.235588073730469
 20
-75.454826354980469
 11
-60.159980773925781
 21
-75.454826354980469
  0
LINE
  8
0
  6
CONTINUOUS
 62
     7
 10
-48.596977233886719
 20
-101.454833984375
 11
-60.159980773925781
 21
-101.454833984375
  0
LINE
  8
0
  6
CONTINUOUS
 62
     3
 10
-45.000038146972656
 20
-77.454837799072266
 11
-45.000038146972656
 21
-70.554824829101563
  0
ARC
  8
0
  6
CONTINUOUS
 62
     3
 10
-44.700035095214844
 20
-70.554824829101563
 40
 0.300000011920929
 50
 90.000004039712721
 51
-179.9999980615126
  0
LINE
  8
0
  6
CONTINUOUS
 62
     3
 10
-44.700035095214844
 20
-70.254840850830078
 11
-41.200019836425781
 21
-70.254840850830078
  0
LINE
  8
0
  6
CONTINUOUS
 62
     3
 10
-41.200019836425781
 20
-69.054832458496094
 11
-44.700035095214844
 21
-69.054832458496094
  0
LINE
  8
0
  6
CONTINUOUS
 62
     3
 10
-46.200035095214844
 20
-70.554824829101563
 11
-46.200035095214844
 21
-77.454837799072266
  0
LINE
  8
0
  6
CONTINUOUS
 62
     3
 10
-46.200035095214844
 20
-77.454837799072266
 11
-46.200019836425781
 21
-99.954841613769531
  0
ARC
  8
0
  6
CONTINUOUS
 62
     3
 10
-44.699989318847656
 20
-99.954841613769531
 40
 0.300000011920929
 50
-179.9999980615126
 51
-90.000000851989171
  0
ARC
  8
0
  6
CONTINUOUS
 62
     3
 10
-44.700035095214844
 20
-70.554824829101563
 40
 1.5
 50
 90.000004039712721
 51
-179.9999980615126
  0
ARC
  8
0
  6
CONTINUOUS
 62
     3
 10
-44.700035095214844
 20
-76.954830169677734
 40
 1.5
 50
 90.000004039712721
 51
 101.537375367397
  0
ARC
  8
0
  6
DOT
 62
     3
 10
-44.700035095214844
 20
-76.954830169677734
 40
 1.5
 50
 101.537375367397
 51
-179.9999980615126
  0
LINE
  8
0
  6
CONTINUOUS
 62
     3
 10
-44.700035095214844
 20
-75.454837799072266
 11
 45.299980163574219
 21
-75.454837799072266
  0
LINE
  8
0
  6
CONTINUOUS
 62
     3
 10
 46.799980163574219
 20
-76.954830169677734
 11
 46.799980163574219
 21
-99.954841613769531
  0
ARC
  8
0
  6
CONTINUOUS
 62
     3
 10
 45.299980163574219
 20
-99.954841613769531
 40
 1.5
 50
-90.000000851989171
 51
 0
  0
ARC
  8
0
  6
CONTINUOUS
 62
     3
 10
 45.299980163574219
 20
-76.954830169677734
 40
 1.5
 50
 0
 51
 90.000004039712721
  0
LINE
  8
0
  6
CONTINUOUS
 62
     3
 10
 45.599983215332031
 20
-99.954841613769531
 11
 45.599983215332031
 21
-76.954830169677734
  0
ARC
  8
0
  6
CONTINUOUS
 62
     3
 10
 45.299980163574219
 20
-99.954841613769531
 40
 0.300000011920929
 50
-90.000000851989171
 51
 0
  0
ARC
  8
0
  6
CONTINUOUS
 62
     3
 10
 45.299980163574219
 20
-76.954830169677734
 40
 0.300000011920929
 50
 0
 51
 90.000004039712721
  0
LINE
  8
0
  6
CONTINUOUS
 62
     3
 10
-44.700035095214844
 20
-76.654827117919922
 11
 29.299980163574219
 21
-76.654827117919922
  0
LINE
  8
0
  6
DOT
 62
     3
 10
 29.299980163574219
 20
-76.654827117919922
 11
 34.299995422363281
 21
-76.654827117919922
  0
LINE
  8
0
  6
CONTINUOUS
 62
     3
 10
 34.299995422363281
 20
-76.654827117919922
 11
 45.299980163574219
 21
-76.654827117919922
  0
ARC
  8
0
  6
CONTINUOUS
 62
     3
 10
-44.700035095214844
 20
-76.954830169677734
 40
 0.300000011920929
 50
 90.000004039712721
 51
-179.9999980615126
  0
LINE
  8
0
  6
CONTINUOUS
 62
     3
 10
-44.699989318847656
 20
-101.454833984375
 11
-30.700035095214844
 21
-101.454833984375
  0
ARC
  8
0
  6
CONTINUOUS
 62
     3
 10
-44.699989318847656
 20
-99.954841613769531
 40
 1.5
 50
-179.9999980615126
 51
-90.000000851989171
  0
LINE
  8
0
  6
CONTINUOUS
 62
     3
 10
-30.700035095214844
 20
-101.454833984375
 11
-30.700035095214844
 21
-100.25484466552734
  0
LINE
  8
0
  6
CONTINUOUS
 62
     3
 10
-44.699989318847656
 20
-100.25484466552734
 11
-30.700035095214844
 21
-100.25484466552734
  0
LINE
  8
0
  6
DASHDOT
 62
     3
 10
-35.000022888183594
 20
-103.94732666015625
 11
-35.000022888183594
 21
-97.972747802734375
  0
LINE
  8
0
  6
DOT
 62
     3
 10
-37.099998474121094
 20
-100.25484466552734
 11
-37.099998474121094
 21
-101.454833984375
  0
LINE
  8
0
  6
DOT
 62
     3
 10
-32.899986267089844
 20
-100.25484466552734
 11
-32.899986267089844
 21
-101.454833984375
  0
LINE
  8
0
  6
CONTINUOUS
 62
     3
 10
 34.299995422363281
 20
-75.454837799072266
 11
 34.299995422363281
 21
-78.854854583740234
  0
LINE
  8
0
  6
CONTINUOUS
 62
     3
 10
 29.299980163574219
 20
-78.854854583740234
 11
 29.299980163574219
 21
-75.454837799072266
  0
LINE
  8
0
  6
CONTINUOUS
 62
     3
 10
 29.299980163574219
 20
-77.654838562011719
 11
 34.299995422363281
 21
-77.654838562011719
  0
LINE
  8
0
  6
CONTINUOUS
 62
     3
 10
 29.299980163574219
 20
-78.854854583740234
 11
 34.299995422363281
 21
-78.854854583740234
  0
LINE
  8
0
  6
CONTINUOUS
 62
     3
 10
-28.700004577636719
 20
-75.454837799072266
 11
-28.700004577636719
 21
-76.654827117919922
  0
LINE
  8
0
  6
CONTINUOUS
 62
     3
 10
-45.000038146972656
 20
-77.454837799072266
 11
-46.200035095214844
 21
-77.454837799072266
  0
LINE
  8
0
  6
CONTINUOUS
 62
     3
 10
 44.299995422363281
 20
-76.654804229736328
 11
 44.299995422363281
 21
-75.454814910888672
  0
LINE
  8
0
  6
CONTINUOUS
 62
     3
 10
 45.599983215332031
 20
-78.654853820800781
 11
 46.799980163574219
 21
-78.654853820800781
  0
LINE
  8
0
  6
CONTINUOUS
 62
     3
 10
-41.200019836425781
 20
-69.054832458496094
 11
-41.200019836425781
 21
-70.254840850830078
  0
LINE
  8
0
  6
CONTINUOUS
 62
     3
 10
 45.299980163574219
 20
-100.25484466552734
 11
 34.799964904785156
 21
-100.25484466552734
  0
LINE
  8
0
  6
CONTINUOUS
 62
     3
 10
 45.299980163574219
 20
-101.454833984375
 11
 34.799964904785156
 21
-101.454833984375
  0
LINE
  8
0
  6
DOT
 62
     3
 10
 41.999984741210938
 20
-100.25484466552734
 11
 41.999984741210938
 21
-101.454833984375
  0
LINE
  8
0
  6
CONTINUOUS
 62
     3
 10
-45.000038146972656
 20
-76.954830169677734
 11
-45.000007629394531
 21
-99.954841613769531
  0
LINE
  8
0
  6
CONTINUOUS
 62
     3
 10
 34.799964904785156
 20
-100.25484466552734
 11
 34.799964904785156
 21
-101.454833984375
  0
LINE
  8
0
  6
CONTINUOUS
 62
     7
 10
-46.200019836425781
 20
-102.62822723388672
 11
-46.200019836425781
 21
-117.41483306884766
  0
LINE
  8
0
  6
CONTINUOUS
 62
     7
 10
 39.999992370605469
 20
-98.309280395507813
 11
 39.999992370605469
 21
-69.494831085205078
  0
TEXT
  8
0
  6
CONTINUOUS
 62
     7
 10
-9.0000213623046879
 20
-119.69069671630859
 11
 8.9999786376953139
 21
-119.69069671630859
 40
 3.5
 41
 0.8
  1
（断面図）
 50
 0
 72
  5
  0
LINE
  8
0
  6
CONTINUOUS
 62
     7
 10
-35.000007629394531
 20
-69.494831085205078
 11
-35.000022888183594
 21
-97.972747802734375
  0
LINE
  8
0
  6
CONTINUOUS
 62
     7
 10
-35.000022888183594
 20
-103.94732666015625
 11
-35.000022888183594
 21
-112.41484069824219
  0
LINE
  8
0
  6
CONTINUOUS
 62
     7
 10
-46.200019836425781
 20
-111.45484161376953
 11
-35.000022888183594
 21
-111.45484161376953
  0
LINE
  8
0
  6
CONTINUOUS
 62
     7
 10
-46.200019836425781
 20
-111.45484161376953
 11
-43.302242357558576
 21
-112.2312987490771
  0
LINE
  8
0
  6
CONTINUOUS
 62
     7
 10
-46.200019836425781
 20
-111.45484161376953
 11
-43.302242357558576
 21
-110.67838447846196
  0
LINE
  8
0
  6
CONTINUOUS
 62
     7
 10
-35.000022888183594
 20
-111.45484161376953
 11
-37.897800367050799
 21
-110.67838447846196
  0
LINE
  8
0
  6
CONTINUOUS
 62
     7
 10
-35.000022888183594
 20
-111.45484161376953
 11
-37.897800367050799
 21
-112.2312987490771
  0
TEXT
  8
0
  6
CONTINUOUS
 62
     7
 10
-44.550007629394528
 20
-110.49485015869141
 11
-36.65000762939453
 21
-110.49485015869141
 40
 2
 41
 0.8
  1
１１．２
 50
 0
 72
  5
  0
LINE
  8
0
  6
CONTINUOUS
 62
     7
 10
-45.180015563964844
 20
-111.45484161376953
 11
-35.000022888183594
 21
-111.45484161376953
  0
LINE
  8
0
  6
CONTINUOUS
 62
     7
 10
-35.000022888183594
 20
-111.45484161376953
 11
-37.897800367050799
 21
-110.67838447846196
  0
LINE
  8
0
  6
CONTINUOUS
 62
     7
 10
-35.000022888183594
 20
-111.45484161376953
 11
-37.897800367050799
 21
-112.2312987490771
  0
LINE
  8
0
  6
CONTINUOUS
 62
     7
 10
-35.000022888183594
 20
-111.45484161376953
 11
-30.700035095214844
 21
-111.45484161376953
  0
TEXT
  8
0
  6
CONTINUOUS
 62
     7
 10
-29.100010681152344
 20
-110.49485015869141
 11
-23.300010681152344
 21
-110.49485015869141
 40
 2
 41
 0.8
  1
４．３
 50
 0
 72
  5
  0
LINE
  8
0
  6
CONTINUOUS
 62
     7
 10
-21.700019836425781
 20
-111.45484161376953
 11
-30.700035095214844
 21
-111.45484161376953
  0
LINE
  8
0
  6
CONTINUOUS
 62
     7
 10
-30.700035095214844
 20
-111.45484161376953
 11
-27.802257616347639
 21
-112.2312987490771
  0
LINE
  8
0
  6
CONTINUOUS
 62
     7
 10
-30.700035095214844
 20
-111.45484161376953
 11
-27.802257616347639
 21
-110.67838447846196
  0
LINE
  8
0
  6
CONTINUOUS
 62
     3
 10
 46.799980163574219
 20
-96.154838562011719
 11
 45.599979400634766
 21
-96.154838562011719
  0
LINE
  8
0
  6
CONTINUOUS
 62
     3
 10
 44.299980163574219
 20
-101.454833984375
 11
 44.299980163574219
 21
-100.25483703613281
  0
LINE
  8
0
  6
DOT
 62
     3
 10
 35.499992370605469
 20
-75.454837799072266
 11
 35.499992370605469
 21
-76.654842376708984
  0
LINE
  8
0
  6
DOT
 62
     3
 10
 44.499992370605469
 20
-75.454837799072266
 11
 44.499992370605469
 21
-76.654842376708984
  0
LINE
  8
256
  6
CONTINUOUS
 62
     7
 10
 104.99998474121094
 20
-121.5
 11
 200
 21
-121.5
  0
LINE
  8
256
  6
CONTINUOUS
 62
     7
 10
 170.99998474121094
 20
-109.5
 11
 170.99998474121094
 21
-121.5
  0
TEXT
  8
256
  6
CONTINUOUS
 62
     7
 10
 112.5
 20
-134.25
 11
 160.5
 21
-134.25
 40
 6
 41
 1
  1
ＢＨ２６ＳＰ－５
 50
 0
 72
  5
  0
TEXT
  8
256
  6
CONTINUOUS
 62
     7
 10
 117.99998474121094
 20
-119.75
 11
 157.99998474121094
 21
-119.75
 40
 5
 41
 0.8
  1
分岐ＭＣＣＢ取付金具
 50
 0
 72
  5
  0
TEXT
  8
256
  6
CONTINUOUS
 62
     7
 10
 106.29998779296875
 20
-112.4499633789062
 11
 111.29998779296875
 21
-112.4499633789062
 40
 2.5
 41
 0.8
  1
品名
 50
 0
 72
  5
  0
TEXT
  8
256
  6
CONTINUOUS
 62
     7
 10
 106.29998779296875
 20
-124.45003051757811
 11
 111.29998779296875
 21
-124.45003051757811
 40
 2.5
 41
 0.8
  1
品番
 50
 0
 72
  5
  0
TEXT
  8
256
  6
CONTINUOUS
 62
     7
 10
 180.55000000000001
 20
-117.25
 11
 189.94999999999999
 21
-117.25
 40
 3.5
 41
 0.8
  1
５個用
 50
 0
 72
  5
  0
LINE
  8
256
  6
CONTINUOUS
 62
     7
 10
 104.99998474121094
 20
-139.5
 11
 104.99998474121094
 21
-109.5
  0
LINE
  8
256
  6
CONTINUOUS
 62
     7
 10
 104.99998474121094
 20
-109.5
 11
 200
 21
-109.5
  0
LINE
  8
256
  6
CONTINUOUS
 62
     7
 10
 200
 20
-139.5
 11
-193.30000000000001
 21
-139.49999999999994
  0
LINE
  8
0
  6
CONTINUOUS
 62
     7
 10
-59.199974060058594
 20
-75.454826354980469
 11
-59.199974060058594
 21
-101.454833984375
  0
LINE
  8
0
  6
CONTINUOUS
 62
     7
 10
-59.199974060058594
 20
-75.454826354980469
 11
-59.976431195366153
 21
-78.352603833847667
  0
LINE
  8
0
  6
CONTINUOUS
 62
     7
 10
-59.199974060058594
 20
-75.454826354980469
 11
-58.423516924751034
 21
-78.352603833847667
  0
LINE
  8
0
  6
CONTINUOUS
 62
     7
 10
-59.199974060058594
 20
-101.454833984375
 11
-58.423516924751034
 21
-98.557056505507802
  0
LINE
  8
0
  6
CONTINUOUS
 62
     7
 10
-59.199974060058594
 20
-101.454833984375
 11
-59.976431195366153
 21
-98.557056505507802
  0
TEXT
  8
0
  6
CONTINUOUS
 62
     7
 10
-60.159980738956669
 20
-90.554836992421428
 11
-60.159980900688815
 21
-86.854836992421426
 40
 2
 41
 0.8
  1
26
 50
 90.000004039712721
 72
  5
  0
LINE
  8
0
  6
CONTINUOUS
 62
     7
 10
-47.095359802246094
 20
-69.054836273193359
 11
-60.159980773925781
 21
-69.054836273193359
  0
LINE
  8
0
  6
CONTINUOUS
 62
     7
 10
-59.199974060058594
 20
-75.454826354980469
 11
-59.199974060058594
 21
-69.054836273193359
  0
LINE
  8
0
  6
CONTINUOUS
 62
     7
 10
-59.199974060058594
 20
-75.454826354980469
 11
-58.423516924751034
 21
-72.557048876113271
  0
LINE
  8
0
  6
CONTINUOUS
 62
     7
 10
-59.199974060058594
 20
-75.454826354980469
 11
-59.976431195366153
 21
-72.557048876113271
  0
LINE
  8
0
  6
CONTINUOUS
 62
     7
 10
-59.199974060058594
 20
-69.054836273193359
 11
-59.976431195366153
 21
-71.952613752060557
  0
LINE
  8
0
  6
CONTINUOUS
 62
     7
 10
-59.199974060058594
 20
-69.054836273193359
 11
-58.423516924751034
 21
-71.952613752060557
  0
TEXT
  8
0
  6
CONTINUOUS
 62
     7
 10
-60.159980738956669
 20
-75.154824022450725
 11
-60.15998099248273
 21
-69.354824022450728
 40
 2
 41
 0.8
  1
6.4
 50
 90.000004039712721
 72
  5
  0
LINE
  8
0
  6
CONTINUOUS
 62
     7
 10
 34.799964904785156
 20
-103.454833984375
 11
 34.799964904785156
 21
-112.41484069824219
  0
LINE
  8
0
  6
CONTINUOUS
 62
     7
 10
 39.999992370605469
 20
-103.44599151611328
 11
 39.999992370605469
 21
-112.41484069824219
  0
LINE
  8
0
  6
CONTINUOUS
 62
     7
 10
 34.799964904785156
 20
-111.45484161376953
 11
 39.999992370605469
 21
-111.45484161376953
  0
LINE
  8
0
  6
CONTINUOUS
 62
     7
 10
 34.799964904785156
 20
-111.45484161376953
 11
 37.697742383652361
 21
-112.2312987490771
  0
LINE
  8
0
  6
CONTINUOUS
 62
     7
 10
 34.799964904785156
 20
-111.45484161376953
 11
 37.697742383652361
 21
-110.67838447846196
  0
LINE
  8
0
  6
CONTINUOUS
 62
     7
 10
 39.999992370605469
 20
-111.45484161376953
 11
 37.102214891738264
 21
-110.67838447846196
  0
LINE
  8
0
  6
CONTINUOUS
 62
     7
 10
 39.999992370605469
 20
-111.45484161376953
 11
 37.102214891738264
 21
-112.2312987490771
  0
TEXT
  8
0
  6
CONTINUOUS
 62
     7
 10
 34.749980163574222
 20
-110.49485015869141
 11
 39.549980163574219
 21
-110.49485015869141
 40
 2
 41
 0.8
  1
5.2
 50
 0
 72
  5
  0
LINE
  8
0
  6
CONTINUOUS
 62
     7
 10
 46.799980163574219
 20
-103.454833984375
 11
 46.799980163574219
 21
-112.41484069824219
  0
LINE
  8
0
  6
CONTINUOUS
 62
     7
 10
 39.999992370605469
 20
-111.45484161376953
 11
 46.799980163574219
 21
-111.45484161376953
  0
LINE
  8
0
  6
CONTINUOUS
 62
     7
 10
 39.999992370605469
 20
-111.45484161376953
 11
 42.897769849472674
 21
-112.2312987490771
  0
LINE
  8
0
  6
CONTINUOUS
 62
     7
 10
 39.999992370605469
 20
-111.45484161376953
 11
 42.897769849472674
 21
-110.67838447846196
  0
LINE
  8
0
  6
CONTINUOUS
 62
     7
 10
 46.799980163574219
 20
-111.45484161376953
 11
 43.902202684707014
 21
-110.67838447846196
  0
LINE
  8
0
  6
CONTINUOUS
 62
     7
 10
 46.799980163574219
 20
-111.45484161376953
 11
 43.902202684707014
 21
-112.2312987490771
  0
TEXT
  8
0
  6
CONTINUOUS
 62
     7
 10
 40.749995422363284
 20
-110.49485015869141
 11
 45.549995422363281
 21
-110.49485015869141
 40
 2
 41
 0.8
  1
6.8
 50
 0
 72
  5
  0
LINE
  8
0
  6
CONTINUOUS
 62
     7
 10
 34.799964904785156
 20
-111.954833984375
 11
 34.799964904785156
 21
-117.41483306884766
  0
LINE
  8
0
  6
CONTINUOUS
 62
     7
 10
 46.799980163574219
 20
-111.954833984375
 11
 46.799980163574219
 21
-117.41483306884766
  0
LINE
  8
0
  6
CONTINUOUS
 62
     7
 10
 34.799964904785156
 20
-116.45484161376953
 11
 46.799980163574219
 21
-116.45484161376953
  0
LINE
  8
0
  6
CONTINUOUS
 62
     7
 10
 34.799964904785156
 20
-116.45484161376953
 11
 37.697742383652361
 21
-117.2312987490771
  0
LINE
  8
0
  6
CONTINUOUS
 62
     7
 10
 34.799964904785156
 20
-116.45484161376953
 11
 37.697742383652361
 21
-115.67838447846196
  0
LINE
  8
0
  6
CONTINUOUS
 62
     7
 10
 46.799980163574219
 20
-116.45484161376953
 11
 43.902202684707014
 21
-115.67838447846196
  0
LINE
  8
0
  6
CONTINUOUS
 62
     7
 10
 46.799980163574219
 20
-116.45484161376953
 11
 43.902202684707014
 21
-117.2312987490771
  0
TEXT
  8
0
  6
CONTINUOUS
 62
     7
 10
 38.949969482421878
 20
-115.49484252929687
 11
 42.649969482421881
 21
-115.49484252929687
 40
 2
 41
 0.8
  1
12
 50
 0
 72
  5
  0
LINE
  8
0
  6
CONTINUOUS
 62
     7
 10
 39.999992370605469
 20
-70.454833984375
 11
 0
 21
-70.454833984375
  0
LINE
  8
0
  6
CONTINUOUS
 62
     7
 10
 39.999992370605469
 20
-70.454833984375
 11
 37.102214891738264
 21
-69.678376849067433
  0
LINE
  8
0
  6
CONTINUOUS
 62
     7
 10
 39.999992370605469
 20
-70.454833984375
 11
 37.102214891738264
 21
-71.231291119682567
  0
LINE
  8
0
  6
CONTINUOUS
 62
     7
 10
 0
 20
-70.454833984375
 11
 2.897777478867205
 21
-71.231291119682567
  0
LINE
  8
0
  6
CONTINUOUS
 62
     7
 10
 0
 20
-70.454833984375
 11
 2.897777478867205
 21
-69.678376849067433
  0
TEXT
  8
0
  6
CONTINUOUS
 62
     7
 10
 18.149996948242187
 20
-69.494834899902344
 11
 21.849996948242186
 21
-69.494834899902344
 40
 2
 41
 0.8
  1
40
 50
 0
 72
  5
  0
LINE
  8
0
  6
CONTINUOUS
 62
     7
 10
-35.000007629394531
 20
-70.454833984375
 11
 0
 21
-70.454833984375
  0
LINE
  8
0
  6
CONTINUOUS
 62
     7
 10
-35.000007629394531
 20
-70.454833984375
 11
-32.102230150527326
 21
-71.231291119682567
  0
LINE
  8
0
  6
CONTINUOUS
 62
     7
 10
-35.000007629394531
 20
-70.454833984375
 11
-32.102230150527326
 21
-69.678376849067433
  0
LINE
  8
0
  6
CONTINUOUS
 62
     7
 10
 0
 20
-70.454833984375
 11
-2.897777478867205
 21
-69.678376849067433
  0
LINE
  8
0
  6
CONTINUOUS
 62
     7
 10
 0
 20
-70.454833984375
 11
-2.897777478867205
 21
-71.231291119682567
  0
TEXT
  8
0
  6
CONTINUOUS
 62
     7
 10
-19.350010681152344
 20
-69.494834899902344
 11
-15.650010681152345
 21
-69.494834899902344
 40
 2
 41
 0.8
  1
35
 50
 0
 72
  5
  0
LINE
  8
0
  6
CONTINUOUS
 62
     7
 10
-59.699989318847656
 20
-69.054836273193359
 11
-65.159996032714844
 21
-69.054836273193359
  0
LINE
  8
0
  6
CONTINUOUS
 62
     7
 10
-59.699989318847656
 20
-101.454833984375
 11
-65.159996032714844
 21
-101.454833984375
  0
LINE
  8
0
  6
CONTINUOUS
 62
     7
 10
-64.199989318847656
 20
-69.054836273193359
 11
-64.199989318847656
 21
-101.454833984375
  0
LINE
  8
0
  6
CONTINUOUS
 62
     7
 10
-64.199989318847656
 20
-69.054836273193359
 11
-64.976446454155223
 21
-71.952613752060557
  0
LINE
  8
0
  6
CONTINUOUS
 62
     7
 10
-64.199989318847656
 20
-69.054836273193359
 11
-63.423532183540097
 21
-71.952613752060557
  0
LINE
  8
0
  6
CONTINUOUS
 62
     7
 10
-64.199989318847656
 20
-101.454833984375
 11
-63.423532183540097
 21
-98.557056505507802
  0
LINE
  8
0
  6
CONTINUOUS
 62
     7
 10
-64.199989318847656
 20
-101.454833984375
 11
-64.976446454155223
 21
-98.557056505507802
  0
TEXT
  8
0
  6
CONTINUOUS
 62
     7
 10
-65.159995997745725
 20
-89.204830888905803
 11
-65.159996343065714
 21
-81.304830888905798
 40
 2
 41
 0.8
  1
32.4
 50
 90.000004039712721
 72
  5
  0
LINE
  8
0
  6
CONTINUOUS
 62
     7
 10
-30.700035095214844
 20
-102.62822723388672
 11
-30.700035095214844
 21
-117.41483306884766
  0
LINE
  8
0
  6
CONTINUOUS
 62
     7
 10
-46.200019836425781
 20
-116.45484161376953
 11
-30.700035095214844
 21
-116.45484161376953
  0
LINE
  8
0
  6
CONTINUOUS
 62
     7
 10
-46.200019836425781
 20
-116.45484161376953
 11
-43.302242357558576
 21
-117.2312987490771
  0
LINE
  8
0
  6
CONTINUOUS
 62
     7
 10
-46.200019836425781
 20
-116.45484161376953
 11
-43.302242357558576
 21
-115.67838447846196
  0
LINE
  8
0
  6
CONTINUOUS
 62
     7
 10
-30.700035095214844
 20
-116.45484161376953
 11
-33.597812574082049
 21
-115.67838447846196
  0
LINE
  8
0
  6
CONTINUOUS
 62
     7
 10
-30.700035095214844
 20
-116.45484161376953
 11
-33.597812574082049
 21
-117.2312987490771
  0
TEXT
  8
0
  6
CONTINUOUS
 62
     7
 10
-42.400028991699216
 20
-115.49484252929687
 11
-34.500028991699217
 21
-115.49484252929687
 40
 2
 41
 0.8
  1
15.5
 50
 0
 72
  5
  0
LINE
  8
256
  6
CONTINUOUS
 62
     7
 10
-193.30000000000001
 20
 124.99999645625348
 11
-93.300000000000011
 21
 124.99999645625348
  0
LINE
  8
256
  6
CONTINUOUS
 62
     7
 10
-93.300000000000011
 20
 124.9999964562535
 11
-93.300000000000011
 21
 136.99999721136808
  0
TEXT
  8
256
  6
CONTINUOUS
 62
     7
 10
-188.30000000000001
 20
 127.99999604817611
 11
-140.30000000000001
 21
 127.99999604817611
 40
 6
 41
 1
  1
ＬＢ－Ｄ７１２０
 50
 0
 72
  5
  0
LINE
  8
256
  6
CONTINUOUS
 62
     7
 10
-193.30000000000001
 20
 136.99999721136808
 11
-193.30000000000001
 21
-139.49999999999994
  0
LINE
  8
256
  6
CONTINUOUS
 62
     7
 10
 200
 20
 136.99999721136808
 11
 200
 21
-139.5
  0
LINE
  8
256
  6
CONTINUOUS
 62
     7
 10
-193.30000000000001
 20
 136.99999721136808
 11
 200
 21
 136.99999721136808
  0
LINE
  8
0
  6
DASHDOT
 62
     3
 10
 71.994062423706055
 20
 15.045166015625
 11
 104.75047373771667
 21
 15.045166015625
  0
LINE
  8
0
  6
CONTINUOUS
 62
     3
 10
 101.5910120010376
 20
 20.145164489746094
 11
 96.291011810302734
 21
 20.145164489746094
  0
LINE
  8
0
  6
CONTINUOUS
 62
     3
 10
 96.291011810302734
 20
 20.145164489746094
 11
 96.291011810302734
 21
 9.9451675415039062
  0
LINE
  8
0
  6
CONTINUOUS
 62
     3
 10
 96.291011810302734
 20
 9.9451675415039062
 11
 101.5910120010376
 21
 9.9451675415039062
  0
LINE
  8
0
  6
CONTINUOUS
 62
     3
 10
 100.39100122451782
 20
 9.9451675415039062
 11
 100.39100122451782
 21
 20.145164489746094
  0
LINE
  8
0
  6
CONTINUOUS
 62
     3
 10
 78.791011810302734
 20
 19.645164489746094
 11
 78.791011810302734
 21
 10.445167541503906
  0
LINE
  8
0
  6
CONTINUOUS
 62
     3
 10
 78.791011810302734
 20
 19.645164489746094
 11
 75.591012954711914
 21
 19.645164489746094
  0
LINE
  8
0
  6
CONTINUOUS
 62
     3
 10
 75.591012954711914
 20
 10.445167541503906
 11
 78.791011810302734
 21
 10.445167541503906
  0
LINE
  8
0
  6
CONTINUOUS
 62
     3
 10
 76.791009902954102
 20
 19.645164489746094
 11
 76.791009902954102
 21
 10.445167541503906
  0
LINE
  8
0
  6
CONTINUOUS
 62
     7
 10
-48.199996948242187
 20
 101.04517364501953
 11
-65.159996032714844
 21
 101.04517364501953
  0
LINE
  8
0
  6
CONTINUOUS
 62
     7
 10
-48.199996948242187
 20
-20.954824447631836
 11
-65.159996032714844
 21
-20.954824447631836
  0
LINE
  8
0
  6
CONTINUOUS
 62
     7
 10
-64.20001220703125
 20
 101.04517364501953
 11
-64.20001220703125
 21
-20.954824447631836
  0
LINE
  8
0
  6
CONTINUOUS
 62
     7
 10
-64.20001220703125
 20
 101.04517364501953
 11
-64.976469342338817
 21
 98.147396166152333
  0
LINE
  8
0
  6
CONTINUOUS
 62
     7
 10
-64.20001220703125
 20
 101.04517364501953
 11
-63.42355507172369
 21
 98.147396166152333
  0
LINE
  8
0
  6
CONTINUOUS
 62
     7
 10
-64.20001220703125
 20
-20.954824447631836
 11
-63.42355507172369
 21
-18.057046968764631
  0
LINE
  8
0
  6
CONTINUOUS
 62
     7
 10
-64.20001220703125
 20
-20.954824447631836
 11
-64.976469342338817
 21
-18.057046968764631
  0
TEXT
  8
0
  6
CONTINUOUS
 62
     7
 10
-65.160011256534787
 20
 37.145175214609829
 11
-65.160011510060855
 21
 42.945175214609819
 40
 2
 41
 0.8
  1
122
 50
 90.000004039712721
 72
  5
  0
LINE
  8
0
  6
CONTINUOUS
 62
     7
 10
 62.799972534179688
 20
 77.545166015625
 11
 62.799972534179688
 21
 101.04517364501953
  0
LINE
  8
0
  6
CONTINUOUS
 62
     7
 10
 62.799972534179688
 20
 77.545166015625
 11
 63.576429669487247
 21
 80.442943494492198
  0
LINE
  8
0
  6
CONTINUOUS
 62
     7
 10
 62.799972534179688
 20
 77.545166015625
 11
 62.023515398872128
 21
 80.442943494492198
  0
LINE
  8
0
  6
CONTINUOUS
 62
     7
 10
 62.799972534179688
 20
 101.04517364501953
 11
 62.023515398872128
 21
 98.147396166152333
  0
LINE
  8
0
  6
CONTINUOUS
 62
     7
 10
 62.799972534179688
 20
 101.04517364501953
 11
 63.576429669487247
 21
 98.147396166152333
  0
TEXT
  8
0
  6
CONTINUOUS
 62
     7
 10
 61.839981114070675
 20
 85.345172162852009
 11
 61.839980768750692
 21
 93.245172162852015
 40
 2
 41
 0.8
  1
23.5
 50
 90.000004039712721
 72
  5
  0
LINE
  8
0
  6
CONTINUOUS
 62
     7
 10
 48.999984741210937
 20
-20.954832077026367
 11
 63.759979248046875
 21
-20.954832077026367
  0
LINE
  8
0
  6
CONTINUOUS
 62
     7
 10
 62.799972534179688
 20
-20.954832077026367
 11
 62.799972534179688
 21
 2.5451610088348389
  0
LINE
  8
0
  6
CONTINUOUS
 62
     7
 10
 62.799972534179688
 20
-20.954832077026367
 11
 63.576429669487247
 21
-18.057054598159162
  0
LINE
  8
0
  6
CONTINUOUS
 62
     7
 10
 62.799972534179688
 20
-20.954832077026367
 11
 62.023515398872128
 21
-18.057054598159162
  0
LINE
  8
0
  6
CONTINUOUS
 62
     7
 10
 62.799972534179688
 20
 2.5451610088348389
 11
 62.023515398872128
 21
-0.3526164700323662
  0
LINE
  8
0
  6
CONTINUOUS
 62
     7
 10
 62.799972534179688
 20
 2.5451610088348389
 11
 63.576429669487247
 21
-0.3526164700323662
  0
TEXT
  8
0
  6
CONTINUOUS
 62
     7
 10
 61.839981114070675
 20
-13.154835466542512
 11
 61.839980768750692
 21
-5.2548354665425148
 40
 2
 41
 0.8
  1
23.5
 50
 90.000004039712721
 72
  5
  0
LINE
  8
0
  6
CONTINUOUS
 62
     7
 10
-46.199996948242187
 20
-41.954826354980469
 11
 0
 21
-41.954826354980469
  0
LINE
  8
0
  6
CONTINUOUS
 62
     7
 10
-46.199996948242187
 20
-41.954826354980469
 11
-43.302219469374982
 21
-42.731283490288028
  0
LINE
  8
0
  6
CONTINUOUS
 62
     7
 10
-46.199996948242187
 20
-41.954826354980469
 11
-43.302219469374982
 21
-41.178369219672909
  0
LINE
  8
0
  6
CONTINUOUS
 62
     7
 10
 0
 20
-41.954826354980469
 11
-2.897777478867205
 21
-41.178369219672909
  0
LINE
  8
0
  6
CONTINUOUS
 62
     7
 10
 0
 20
-41.954826354980469
 11
-2.897777478867205
 21
-42.731283490288028
  0
TEXT
  8
0
  6
CONTINUOUS
 62
     7
 10
-27.050000000000001
 20
-40.994815826416016
 11
-19.150000000000002
 21
-40.994815826416016
 40
 2
 41
 0.8
  1
46.2
 50
 0
 72
  5
  0
LINE
  8
0
  6
CONTINUOUS
 62
     7
 10
 0
 20
-41.954826354980469
 11
 46.79998779296875
 21
-41.954826354980469
  0
LINE
  8
0
  6
CONTINUOUS
 62
     7
 10
 0
 20
-41.954826354980469
 11
 2.897777478867205
 21
-42.731283490288028
  0
LINE
  8
0
  6
CONTINUOUS
 62
     7
 10
 0
 20
-41.954826354980469
 11
 2.897777478867205
 21
-41.178369219672909
  0
LINE
  8
0
  6
CONTINUOUS
 62
     7
 10
 46.79998779296875
 20
-41.954826354980469
 11
 43.902210314101545
 21
-41.178369219672909
  0
LINE
  8
0
  6
CONTINUOUS
 62
     7
 10
 46.79998779296875
 20
-41.954826354980469
 11
 43.902210314101545
 21
-42.731283490288028
  0
TEXT
  8
0
  6
CONTINUOUS
 62
     7
 10
 19.449999999999999
 20
-40.994815826416016
 11
 27.349999999999998
 21
-40.994815826416016
 40
 2
 41
 0.8
  1
46.8
 50
 0
 72
  5
  0
LINE
  8
0
  6
CONTINUOUS
 62
     7
 10
-59.70001220703125
 20
 90.045173645019531
 11
-60.160011291503906
 21
 90.045173645019531
  0
LINE
  8
0
  6
CONTINUOUS
 62
     7
 10
-59.200019836425781
 20
 101.04517364501953
 11
-59.200019836425781
 21
 90.045173645019531
  0
LINE
  8
0
  6
CONTINUOUS
 62
     7
 10
-59.200019836425781
 20
 101.04517364501953
 11
-59.976476971733341
 21
 98.147396166152333
  0
LINE
  8
0
  6
CONTINUOUS
 62
     7
 10
-59.200019836425781
 20
 101.04517364501953
 11
-58.423562701118222
 21
 98.147396166152333
  0
LINE
  8
0
  6
CONTINUOUS
 62
     7
 10
-59.200019836425781
 20
 90.045173645019531
 11
-58.423562701118222
 21
 92.942951123886729
  0
LINE
  8
0
  6
CONTINUOUS
 62
     7
 10
-59.200019836425781
 20
 90.045173645019531
 11
-59.976476971733341
 21
 92.942951123886729
  0
TEXT
  8
0
  6
CONTINUOUS
 62
     7
 10
-60.160011256534794
 20
 93.695170636973103
 11
-60.16001141826694
 21
 97.395170636973106
 40
 2
 41
 0.8
  1
11
 50
 90.000004039712721
 72
  5
  0
LINE
  8
0
  6
CONTINUOUS
 62
     7
 10
-59.200019836425781
 20
 90.045173645019531
 11
-59.200019836425781
 21
 65.045166015625
  0
LINE
  8
0
  6
CONTINUOUS
 62
     7
 10
-59.200019836425781
 20
 90.045173645019531
 11
-59.976476971733341
 21
 87.147396166152333
  0
LINE
  8
0
  6
CONTINUOUS
 62
     7
 10
-59.200019836425781
 20
 90.045173645019531
 11
-58.423562701118222
 21
 87.147396166152333
  0
LINE
  8
0
  6
CONTINUOUS
 62
     7
 10
-59.200019836425781
 20
 65.045166015625
 11
-58.423562701118222
 21
 67.942943494492198
  0
LINE
  8
0
  6
CONTINUOUS
 62
     7
 10
-59.200019836425781
 20
 65.045166015625
 11
-59.976476971733341
 21
 67.942943494492198
  0
TEXT
  8
0
  6
CONTINUOUS
 62
     7
 10
-60.160011256534794
 20
 75.695170636973103
 11
-60.16001141826694
 21
 79.395170636973106
 40
 2
 41
 0.8
  1
25
 50
 90.000004039712721
 72
  5
  0
LINE
  8
0
  6
CONTINUOUS
 62
     7
 10
-59.200019836425781
 20
-9.9548311233520508
 11
-59.200019836425781
 21
-20.954824447631836
  0
LINE
  8
0
  6
CONTINUOUS
 62
     7
 10
-59.200019836425781
 20
-9.9548311233520508
 11
-59.976476971733341
 21
-12.852608602219256
  0
LINE
  8
0
  6
CONTINUOUS
 62
     7
 10
-59.200019836425781
 20
-9.9548311233520508
 11
-58.423562701118222
 21
-12.852608602219256
  0
LINE
  8
0
  6
CONTINUOUS
 62
     7
 10
-59.200019836425781
 20
-20.954824447631836
 11
-58.423562701118222
 21
-18.057046968764631
  0
LINE
  8
0
  6
CONTINUOUS
 62
     7
 10
-59.200019836425781
 20
-20.954824447631836
 11
-59.976476971733341
 21
-18.057046968764631
  0
TEXT
  8
0
  6
CONTINUOUS
 62
     7
 10
-60.160011256534794
 20
-17.304827455678254
 11
-60.16001141826694
 21
-13.604827455678256
 40
 2
 41
 0.8
  1
11
 50
 90.000004039712721
 72
  5
  0
LINE
  8
0
  6
CONTINUOUS
 62
     7
 10
-46.199996948242187
 20
-46.954822540283203
 11
 46.79998779296875
 21
-46.954822540283203
  0
LINE
  8
0
  6
CONTINUOUS
 62
     7
 10
-46.199996948242187
 20
-46.954822540283203
 11
-43.302219469374982
 21
-47.731279675590763
  0
LINE
  8
0
  6
CONTINUOUS
 62
     7
 10
-46.199996948242187
 20
-46.954822540283203
 11
-43.302219469374982
 21
-46.178365404975644
  0
LINE
  8
0
  6
CONTINUOUS
 62
     7
 10
 46.79998779296875
 20
-46.954822540283203
 11
 43.902210314101545
 21
-46.178365404975644
  0
LINE
  8
0
  6
CONTINUOUS
 62
     7
 10
 46.79998779296875
 20
-46.954822540283203
 11
 43.902210314101545
 21
-47.731279675590763
  0
TEXT
  8
0
  6
CONTINUOUS
 62
     7
 10
-1.5499923706054688
 20
-45.994819641113281
 11
 2.1500076293945316
 21
-45.994819641113281
 40
 2
 41
 0.8
  1
93
 50
 0
 72
  5
  0
LINE
  8
0
  6
CONTINUOUS
 62
     7
 10
 33.234268188476562
 20
 79.545158386230469
 11
 18.8399658203125
 21
 79.545158386230469
  0
LINE
  8
0
  6
CONTINUOUS
 62
     7
 10
 33.234268188476562
 20
 75.545166015625
 11
 18.8399658203125
 21
 75.545166015625
  0
LINE
  8
0
  6
CONTINUOUS
 62
     7
 10
 19.79998779296875
 20
 79.545158386230469
 11
 19.79998779296875
 21
 75.545166015625
  0
LINE
  8
0
  6
CONTINUOUS
 62
     7
 10
 19.79998779296875
 20
 79.545158386230469
 11
 19.023530657661187
 21
 76.647380907363271
  0
LINE
  8
0
  6
CONTINUOUS
 62
     7
 10
 19.79998779296875
 20
 79.545158386230469
 11
 20.576444928276313
 21
 76.647380907363271
  0
LINE
  8
0
  6
CONTINUOUS
 62
     7
 10
 19.79998779296875
 20
 75.545166015625
 11
 20.576444928276313
 21
 78.442943494492198
  0
LINE
  8
0
  6
CONTINUOUS
 62
     7
 10
 19.79998779296875
 20
 75.545166015625
 11
 19.023530657661187
 21
 78.442943494492198
  0
TEXT
  8
0
  6
CONTINUOUS
 62
     7
 10
 18.839981114070671
 20
 76.745166059336384
 11
 18.83998104413245
 21
 78.345166059336393
 40
 2
 41
 0.8
  1
4
 50
 90.000004039712721
 72
  5
  0
LINE
  8
0
  6
CONTINUOUS
 62
     7
 10
 40
 20
-6.4422855377197266
 11
 40
 21
-32.914821624755859
  0
LINE
  8
0
  6
CONTINUOUS
 62
     7
 10
 46.79998779296875
 20
-31.954811096191406
 11
 40
 21
-31.954811096191406
  0
LINE
  8
0
  6
CONTINUOUS
 62
     7
 10
 46.79998779296875
 20
-31.954811096191406
 11
 43.902210314101545
 21
-31.178353960883843
  0
LINE
  8
0
  6
CONTINUOUS
 62
     7
 10
 46.79998779296875
 20
-31.954811096191406
 11
 43.902210314101545
 21
-32.731268231498966
  0
LINE
  8
0
  6
CONTINUOUS
 62
     7
 10
 40
 20
-31.954811096191406
 11
 42.897777478867205
 21
-32.731268231498966
  0
LINE
  8
0
  6
CONTINUOUS
 62
     7
 10
 40
 20
-31.954811096191406
 11
 42.897777478867205
 21
-31.178353960883843
  0
TEXT
  8
0
  6
CONTINUOUS
 62
     7
 10
 40.499987792968753
 20
-30.994815826416016
 11
 46.29998779296875
 21
-30.994815826416016
 40
 2
 41
 0.8
  1
6.8
 50
 0
 72
  5
  0
LINE
  8
0
  6
CONTINUOUS
 62
     7
 10
-48.657047271728516
 20
 15.045169830322266
 11
-60.160015106201172
 21
 15.045169830322266
  0
LINE
  8
0
  6
CONTINUOUS
 62
     7
 10
-59.200019836425781
 20
-9.9548311233520508
 11
-59.200019836425781
 21
 15.045169830322266
  0
LINE
  8
0
  6
CONTINUOUS
 62
     7
 10
-59.200019836425781
 20
-9.9548311233520508
 11
-58.423562701118222
 21
-7.0570536444848457
  0
LINE
  8
0
  6
CONTINUOUS
 62
     7
 10
-59.200019836425781
 20
-9.9548311233520508
 11
-59.976476971733341
 21
-7.0570536444848457
  0
LINE
  8
0
  6
CONTINUOUS
 62
     7
 10
-59.200019836425781
 20
 15.045169830322266
 11
-59.976476971733341
 21
 12.147392351455061
  0
LINE
  8
0
  6
CONTINUOUS
 62
     7
 10
-59.200019836425781
 20
 15.045169830322266
 11
-58.423562701118222
 21
 12.147392351455061
  0
TEXT
  8
0
  6
CONTINUOUS
 62
     7
 10
-60.16001507123206
 20
 0.6951675375315841
 11
-60.160015232964206
 21
 4.3951675375315826
 40
 2
 41
 0.8
  1
25
 50
 90.000004039712721
 72
  5
  0
LINE
  8
0
  6
CONTINUOUS
 62
     7
 10
 51.004867553710938
 20
 2.5451674461364746
 11
 63.759979248046875
 21
 2.5451674461364746
  0
LINE
  8
0
  6
CONTINUOUS
 62
     7
 10
 62.799972534179688
 20
 2.5451674461364746
 11
 62.799972534179688
 21
 77.545166015625
  0
LINE
  8
0
  6
CONTINUOUS
 62
     7
 10
 62.799972534179688
 20
 2.5451674461364746
 11
 63.576429669487247
 21
 5.4429449250036797
  0
LINE
  8
0
  6
CONTINUOUS
 62
     7
 10
 62.799972534179688
 20
 2.5451674461364746
 11
 62.023515398872128
 21
 5.4429449250036797
  0
LINE
  8
0
  6
CONTINUOUS
 62
     7
 10
 62.799972534179688
 20
 77.545166015625
 11
 62.023515398872128
 21
 74.647388536757802
  0
LINE
  8
0
  6
CONTINUOUS
 62
     7
 10
 62.799972534179688
 20
 77.545166015625
 11
 63.576429669487247
 21
 74.647388536757802
  0
TEXT
  8
0
  6
CONTINUOUS
 62
     7
 10
 61.839965855281612
 20
 38.195166822275844
 11
 61.839965693549466
 21
 41.895166822275847
 40
 2
 41
 0.8
  1
75
 50
 90.000004039712721
 72
  5
  0
LINE
  8
0
  6
CONTINUOUS
 62
     7
 10
-35.000015258789063
 20
-14.260991096496582
 11
-35.000015258789063
 21
-32.914821624755859
  0
LINE
  8
0
  6
CONTINUOUS
 62
     7
 10
-46.199996948242187
 20
-31.954811096191406
 11
-35.000015258789063
 21
-31.954811096191406
  0
LINE
  8
0
  6
CONTINUOUS
 62
     7
 10
-46.199996948242187
 20
-31.954811096191406
 11
-43.302219469374982
 21
-32.731268231498966
  0
LINE
  8
0
  6
CONTINUOUS
 62
     7
 10
-46.199996948242187
 20
-31.954811096191406
 11
-43.302219469374982
 21
-31.178353960883843
  0
LINE
  8
0
  6
CONTINUOUS
 62
     7
 10
-35.000015258789063
 20
-31.954811096191406
 11
-37.897792737656268
 21
-31.178353960883843
  0
LINE
  8
0
  6
CONTINUOUS
 62
     7
 10
-35.000015258789063
 20
-31.954811096191406
 11
-37.897792737656268
 21
-32.731268231498966
  0
TEXT
  8
0
  6
CONTINUOUS
 62
     7
 10
-44.550007629394528
 20
-30.994815826416016
 11
-36.65000762939453
 21
-30.994815826416016
 40
 2
 41
 0.8
  1
11.2
 50
 0
 72
  5
  0
LINE
  8
0
  6
CONTINUOUS
 62
     7
 10
-48.657047271728516
 20
 65.045166015625
 11
-60.160018920898438
 21
 65.045166015625
  0
LINE
  8
0
  6
CONTINUOUS
 62
     7
 10
-48.657047271728516
 20
 40.045166015625
 11
-60.160018920898438
 21
 40.045166015625
  0
LINE
  8
0
  6
CONTINUOUS
 62
     7
 10
-59.200019836425781
 20
 65.045166015625
 11
-59.200019836425781
 21
 40.045166015625
  0
LINE
  8
0
  6
CONTINUOUS
 62
     7
 10
-59.200019836425781
 20
 65.045166015625
 11
-59.976476971733341
 21
 62.147388536757795
  0
LINE
  8
0
  6
CONTINUOUS
 62
     7
 10
-59.200019836425781
 20
 65.045166015625
 11
-58.423562701118222
 21
 62.147388536757795
  0
LINE
  8
0
  6
CONTINUOUS
 62
     7
 10
-59.200019836425781
 20
 40.045166015625
 11
-58.423562701118222
 21
 42.942943494492205
  0
LINE
  8
0
  6
CONTINUOUS
 62
     7
 10
-59.200019836425781
 20
 40.045166015625
 11
-59.976476971733341
 21
 42.942943494492205
  0
TEXT
  8
0
  6
CONTINUOUS
 62
     7
 10
-60.160018885929325
 20
 50.695166822275844
 11
-60.160019047661471
 21
 54.395166822275847
 40
 2
 41
 0.8
  1
25
 50
 90.000004039712721
 72
  5
  0
LINE
  8
0
  6
CONTINUOUS
 62
     7
 10
-59.200019836425781
 20
 40.045166015625
 11
-59.200019836425781
 21
 15.045169830322266
  0
LINE
  8
0
  6
CONTINUOUS
 62
     7
 10
-59.200019836425781
 20
 40.045166015625
 11
-59.976476971733341
 21
 37.147388536757795
  0
LINE
  8
0
  6
CONTINUOUS
 62
     7
 10
-59.200019836425781
 20
 40.045166015625
 11
-58.423562701118222
 21
 37.147388536757795
  0
LINE
  8
0
  6
CONTINUOUS
 62
     7
 10
-59.200019836425781
 20
 15.045169830322266
 11
-58.423562701118222
 21
 17.942947309189471
  0
LINE
  8
0
  6
CONTINUOUS
 62
     7
 10
-59.200019836425781
 20
 15.045169830322266
 11
-59.976476971733341
 21
 17.942947309189471
  0
TEXT
  8
0
  6
CONTINUOUS
 62
     7
 10
-60.160018885929325
 20
 25.695168729624481
 11
-60.160019047661471
 21
 29.39516872962448
 40
 2
 41
 0.8
  1
25
 50
 90.000004039712721
 72
  5
  0
LINE
  8
0
  6
CONTINUOUS
 62
     7
 10
-35.000015258789063
 20
-31.954811096191406
 11
 40
 21
-31.954811096191406
  0
LINE
  8
0
  6
CONTINUOUS
 62
     7
 10
-35.000015258789063
 20
-31.954811096191406
 11
-32.102237779921857
 21
-32.731268231498966
  0
LINE
  8
0
  6
CONTINUOUS
 62
     7
 10
-35.000015258789063
 20
-31.954811096191406
 11
-32.102237779921857
 21
-31.178353960883843
  0
LINE
  8
0
  6
CONTINUOUS
 62
     7
 10
 40
 20
-31.954811096191406
 11
 37.102222521132795
 21
-31.178353960883843
  0
LINE
  8
0
  6
CONTINUOUS
 62
     7
 10
 40
 20
-31.954811096191406
 11
 37.102222521132795
 21
-32.731268231498966
  0
TEXT
  8
0
  6
CONTINUOUS
 62
     7
 10
 0.6499969482421875
 20
-30.994810104370117
 11
 4.3499969482421879
 21
-30.994810104370117
 40
 2
 41
 0.8
  1
75
 50
 0
 72
  5
  0
ENDSEC
  0
EOF
