  0
SECTION
  2
HEADER
  9
$INSBASE
 10
0.0
20
0.0
  9
$REGENMODE
 70
     1
  9
$DRAGMODE
 70
     1
  9
$DIMTAD
 70
     1
  9
$EXTMIN
 10
-210.000000
 20
-148.500000
 30
 0.0
  9
$EXTMAX
 10
210.000000
 20
148.500000
 30
 0.0
  9
$LUPREC
 70
    3
  9
$AUPREC
 70
    3
  9
$LTSCALE
 40
26.250000
  0
ENDSEC
  0
SECTION
  2
TABLES
  0
TABLE
  2
LTYPE
 70
     6
  0
LTYPE
  2
CONTINUOUS
 70
    64
  3
SOLID
 72
    65
 73
     0
 40
0.0
  0
LTYPE
  2
DASHED2
 70
    64
  3
_ _ _ _ _ _ _ _ _ _ _ _ _ _ _ _ _ _ _ _ _ _ 
 72
    65
 73
     2
 40
0.5
 49
0.25
 49
-0.25
  0
LTYPE
  2
DASHED
 70
    64
  3
__ __ __ __ __ __ __ __ __ __ __ __ __ __ __
 72
    65
 73
     2
 40
0.75
 49
0.5
 49
-0.25
  0
LTYPE
  2
DASHEDX2
 70
    64
  3
____  ____  ____  ____  ____  ____  ____  __
 72
    65
 73
     2
 40
1.5
 49
1.0
 49
-0.5
  0
LTYPE
  2
DOT
 70
    64
  3
............................................
 72
    65
 73
     2
 40
0.25
 49
0
 49
-0.25
  0
LTYPE
  2
DASHDOT
 70
    64
  3
__ . __ . __ . __ . __ . __ . __ . __ . __ .
 72
    65
 73
     4
 40
1.0
 49
0.5
 49
-0.25
 49
0.0
 49
-0.25
  0
LTYPE
  2
CENTER
 70
    64
  3
____ _ ____ _ ____ _ ____ _ ____ _ ____ _ __
 72
    65
 73
     4
 40
2.0
 49
1.25
 49
-0.25
 49
0.25
 49
-0.25
  0
LTYPE
  2
DIVIDE
 70
    64
  3
__ . . __ . . __ . . __ . . __ . . __ . . __
 72
    65
 73
     6
 40
1.25
 49
0.5
 49
-0.25
 49
0.0
 49
-0.25
 49
0.0
 49
-0.25
  0
LTYPE
  2
PHANTOM2
 70
    64
  3
___ _ _ ___ _ _ ___ _ _ ___ _ _ ___ _ _ ___ 
 72
    65
 73
     6
 40
1.25
 49
0.625
 49
-0.125
 49
0.125
 49
-0.125
 49
0.125
 49
-0.125
  0
LTYPE
  2
DOTX2
 70
    64
  3
. . . . . . . . . . . . . . . . . . . . . . 
 72
    65
 73
     2
 40
0.5
 49
0
 49
-0.5
  0
ENDTAB
  0
TABLE
  2
LAYER
 70
   255
  0
LAYER
  2
0
 70
    64
 62
     7
  6
CONTINUOUS
  0
LAYER
  2
1
 70
    64
 62
     7
  6
CONTINUOUS
  0
LAYER
  2
2
 70
    64
 62
     7
  6
CONTINUOUS
  0
LAYER
  2
3
 70
    64
 62
     7
  6
CONTINUOUS
  0
LAYER
  2
4
 70
    64
 62
     7
  6
CONTINUOUS
  0
LAYER
  2
5
 70
    64
 62
     7
  6
CONTINUOUS
  0
LAYER
  2
6
 70
    64
 62
     7
  6
CONTINUOUS
  0
LAYER
  2
7
 70
    64
 62
     7
  6
CONTINUOUS
  0
LAYER
  2
8
 70
    64
 62
     7
  6
CONTINUOUS
  0
LAYER
  2
9
 70
    64
 62
     7
  6
CONTINUOUS
  0
LAYER
  2
10
 70
    64
 62
     7
  6
CONTINUOUS
  0
LAYER
  2
11
 70
    64
 62
     7
  6
CONTINUOUS
  0
LAYER
  2
12
 70
    64
 62
     7
  6
CONTINUOUS
  0
LAYER
  2
13
 70
    64
 62
     7
  6
CONTINUOUS
  0
LAYER
  2
14
 70
    64
 62
     7
  6
CONTINUOUS
  0
LAYER
  2
15
 70
    64
 62
     7
  6
CONTINUOUS
  0
LAYER
  2
16
 70
    64
 62
     7
  6
CONTINUOUS
  0
LAYER
  2
17
 70
    64
 62
     7
  6
CONTINUOUS
  0
LAYER
  2
18
 70
    64
 62
     7
  6
CONTINUOUS
  0
LAYER
  2
19
 70
    64
 62
     7
  6
CONTINUOUS
  0
LAYER
  2
20
 70
    64
 62
     7
  6
CONTINUOUS
  0
LAYER
  2
21
 70
    64
 62
     7
  6
CONTINUOUS
  0
LAYER
  2
22
 70
    64
 62
     7
  6
CONTINUOUS
  0
LAYER
  2
23
 70
    64
 62
     7
  6
CONTINUOUS
  0
LAYER
  2
24
 70
    64
 62
     7
  6
CONTINUOUS
  0
LAYER
  2
25
 70
    64
 62
     7
  6
CONTINUOUS
  0
LAYER
  2
26
 70
    64
 62
     7
  6
CONTINUOUS
  0
LAYER
  2
27
 70
    64
 62
     7
  6
CONTINUOUS
  0
LAYER
  2
28
 70
    64
 62
     7
  6
CONTINUOUS
  0
LAYER
  2
29
 70
    64
 62
     7
  6
CONTINUOUS
  0
LAYER
  2
30
 70
    64
 62
     7
  6
CONTINUOUS
  0
LAYER
  2
31
 70
    64
 62
     7
  6
CONTINUOUS
  0
LAYER
  2
32
 70
    64
 62
     7
  6
CONTINUOUS
  0
LAYER
  2
33
 70
    64
 62
     7
  6
CONTINUOUS
  0
LAYER
  2
34
 70
    64
 62
     7
  6
CONTINUOUS
  0
LAYER
  2
35
 70
    64
 62
     7
  6
CONTINUOUS
  0
LAYER
  2
36
 70
    64
 62
     7
  6
CONTINUOUS
  0
LAYER
  2
37
 70
    64
 62
     7
  6
CONTINUOUS
  0
LAYER
  2
38
 70
    64
 62
     7
  6
CONTINUOUS
  0
LAYER
  2
39
 70
    64
 62
     7
  6
CONTINUOUS
  0
LAYER
  2
40
 70
    64
 62
     7
  6
CONTINUOUS
  0
LAYER
  2
41
 70
    64
 62
     7
  6
CONTINUOUS
  0
LAYER
  2
42
 70
    64
 62
     7
  6
CONTINUOUS
  0
LAYER
  2
43
 70
    64
 62
     7
  6
CONTINUOUS
  0
LAYER
  2
44
 70
    64
 62
     7
  6
CONTINUOUS
  0
LAYER
  2
45
 70
    64
 62
     7
  6
CONTINUOUS
  0
LAYER
  2
46
 70
    64
 62
     7
  6
CONTINUOUS
  0
LAYER
  2
47
 70
    64
 62
     7
  6
CONTINUOUS
  0
LAYER
  2
48
 70
    64
 62
     7
  6
CONTINUOUS
  0
LAYER
  2
49
 70
    64
 62
     7
  6
CONTINUOUS
  0
LAYER
  2
50
 70
    64
 62
     7
  6
CONTINUOUS
  0
LAYER
  2
51
 70
    64
 62
     7
  6
CONTINUOUS
  0
LAYER
  2
52
 70
    64
 62
     7
  6
CONTINUOUS
  0
LAYER
  2
53
 70
    64
 62
     7
  6
CONTINUOUS
  0
LAYER
  2
54
 70
    64
 62
     7
  6
CONTINUOUS
  0
LAYER
  2
55
 70
    64
 62
     7
  6
CONTINUOUS
  0
LAYER
  2
56
 70
    64
 62
     7
  6
CONTINUOUS
  0
LAYER
  2
57
 70
    64
 62
     7
  6
CONTINUOUS
  0
LAYER
  2
58
 70
    64
 62
     7
  6
CONTINUOUS
  0
LAYER
  2
59
 70
    64
 62
     7
  6
CONTINUOUS
  0
LAYER
  2
60
 70
    64
 62
     7
  6
CONTINUOUS
  0
LAYER
  2
61
 70
    64
 62
     7
  6
CONTINUOUS
  0
LAYER
  2
62
 70
    64
 62
     7
  6
CONTINUOUS
  0
LAYER
  2
63
 70
    64
 62
     7
  6
CONTINUOUS
  0
LAYER
  2
64
 70
    64
 62
     7
  6
CONTINUOUS
  0
LAYER
  2
65
 70
    64
 62
     7
  6
CONTINUOUS
  0
LAYER
  2
66
 70
    64
 62
     7
  6
CONTINUOUS
  0
LAYER
  2
67
 70
    64
 62
     7
  6
CONTINUOUS
  0
LAYER
  2
68
 70
    64
 62
     7
  6
CONTINUOUS
  0
LAYER
  2
69
 70
    64
 62
     7
  6
CONTINUOUS
  0
LAYER
  2
70
 70
    64
 62
     7
  6
CONTINUOUS
  0
LAYER
  2
71
 70
    64
 62
     7
  6
CONTINUOUS
  0
LAYER
  2
72
 70
    64
 62
     7
  6
CONTINUOUS
  0
LAYER
  2
73
 70
    64
 62
     7
  6
CONTINUOUS
  0
LAYER
  2
74
 70
    64
 62
     7
  6
CONTINUOUS
  0
LAYER
  2
75
 70
    64
 62
     7
  6
CONTINUOUS
  0
LAYER
  2
76
 70
    64
 62
     7
  6
CONTINUOUS
  0
LAYER
  2
77
 70
    64
 62
     7
  6
CONTINUOUS
  0
LAYER
  2
78
 70
    64
 62
     7
  6
CONTINUOUS
  0
LAYER
  2
79
 70
    64
 62
     7
  6
CONTINUOUS
  0
LAYER
  2
80
 70
    64
 62
     7
  6
CONTINUOUS
  0
LAYER
  2
81
 70
    64
 62
     7
  6
CONTINUOUS
  0
LAYER
  2
82
 70
    64
 62
     7
  6
CONTINUOUS
  0
LAYER
  2
83
 70
    64
 62
     7
  6
CONTINUOUS
  0
LAYER
  2
84
 70
    64
 62
     7
  6
CONTINUOUS
  0
LAYER
  2
85
 70
    64
 62
     7
  6
CONTINUOUS
  0
LAYER
  2
86
 70
    64
 62
     7
  6
CONTINUOUS
  0
LAYER
  2
87
 70
    64
 62
     7
  6
CONTINUOUS
  0
LAYER
  2
88
 70
    64
 62
     7
  6
CONTINUOUS
  0
LAYER
  2
89
 70
    64
 62
     7
  6
CONTINUOUS
  0
LAYER
  2
90
 70
    64
 62
     7
  6
CONTINUOUS
  0
LAYER
  2
91
 70
    64
 62
     7
  6
CONTINUOUS
  0
LAYER
  2
92
 70
    64
 62
     7
  6
CONTINUOUS
  0
LAYER
  2
93
 70
    64
 62
     7
  6
CONTINUOUS
  0
LAYER
  2
94
 70
    64
 62
     7
  6
CONTINUOUS
  0
LAYER
  2
95
 70
    64
 62
     7
  6
CONTINUOUS
  0
LAYER
  2
96
 70
    64
 62
     7
  6
CONTINUOUS
  0
LAYER
  2
97
 70
    64
 62
     7
  6
CONTINUOUS
  0
LAYER
  2
98
 70
    64
 62
     7
  6
CONTINUOUS
  0
LAYER
  2
99
 70
    64
 62
     7
  6
CONTINUOUS
  0
LAYER
  2
100
 70
    64
 62
     7
  6
CONTINUOUS
  0
LAYER
  2
101
 70
    64
 62
     7
  6
CONTINUOUS
  0
LAYER
  2
102
 70
    64
 62
     7
  6
CONTINUOUS
  0
LAYER
  2
103
 70
    64
 62
     7
  6
CONTINUOUS
  0
LAYER
  2
104
 70
    64
 62
     7
  6
CONTINUOUS
  0
LAYER
  2
105
 70
    64
 62
     7
  6
CONTINUOUS
  0
LAYER
  2
106
 70
    64
 62
     7
  6
CONTINUOUS
  0
LAYER
  2
107
 70
    64
 62
     7
  6
CONTINUOUS
  0
LAYER
  2
108
 70
    64
 62
     7
  6
CONTINUOUS
  0
LAYER
  2
109
 70
    64
 62
     7
  6
CONTINUOUS
  0
LAYER
  2
110
 70
    64
 62
     7
  6
CONTINUOUS
  0
LAYER
  2
111
 70
    64
 62
     7
  6
CONTINUOUS
  0
LAYER
  2
112
 70
    64
 62
     7
  6
CONTINUOUS
  0
LAYER
  2
113
 70
    64
 62
     7
  6
CONTINUOUS
  0
LAYER
  2
114
 70
    64
 62
     7
  6
CONTINUOUS
  0
LAYER
  2
115
 70
    64
 62
     7
  6
CONTINUOUS
  0
LAYER
  2
116
 70
    64
 62
     7
  6
CONTINUOUS
  0
LAYER
  2
117
 70
    64
 62
     7
  6
CONTINUOUS
  0
LAYER
  2
118
 70
    64
 62
     7
  6
CONTINUOUS
  0
LAYER
  2
119
 70
    64
 62
     7
  6
CONTINUOUS
  0
LAYER
  2
120
 70
    64
 62
     7
  6
CONTINUOUS
  0
LAYER
  2
121
 70
    64
 62
     7
  6
CONTINUOUS
  0
LAYER
  2
122
 70
    64
 62
     7
  6
CONTINUOUS
  0
LAYER
  2
123
 70
    64
 62
     7
  6
CONTINUOUS
  0
LAYER
  2
124
 70
    64
 62
     7
  6
CONTINUOUS
  0
LAYER
  2
125
 70
    64
 62
     7
  6
CONTINUOUS
  0
LAYER
  2
126
 70
    64
 62
     7
  6
CONTINUOUS
  0
LAYER
  2
127
 70
    64
 62
     7
  6
CONTINUOUS
  0
LAYER
  2
128
 70
    64
 62
     7
  6
CONTINUOUS
  0
LAYER
  2
129
 70
    64
 62
     7
  6
CONTINUOUS
  0
LAYER
  2
130
 70
    64
 62
     7
  6
CONTINUOUS
  0
LAYER
  2
131
 70
    64
 62
     7
  6
CONTINUOUS
  0
LAYER
  2
132
 70
    64
 62
     7
  6
CONTINUOUS
  0
LAYER
  2
133
 70
    64
 62
     7
  6
CONTINUOUS
  0
LAYER
  2
134
 70
    64
 62
     7
  6
CONTINUOUS
  0
LAYER
  2
135
 70
    64
 62
     7
  6
CONTINUOUS
  0
LAYER
  2
136
 70
    64
 62
     7
  6
CONTINUOUS
  0
LAYER
  2
137
 70
    64
 62
     7
  6
CONTINUOUS
  0
LAYER
  2
138
 70
    64
 62
     7
  6
CONTINUOUS
  0
LAYER
  2
139
 70
    64
 62
     7
  6
CONTINUOUS
  0
LAYER
  2
140
 70
    64
 62
     7
  6
CONTINUOUS
  0
LAYER
  2
141
 70
    64
 62
     7
  6
CONTINUOUS
  0
LAYER
  2
142
 70
    64
 62
     7
  6
CONTINUOUS
  0
LAYER
  2
143
 70
    64
 62
     7
  6
CONTINUOUS
  0
LAYER
  2
144
 70
    64
 62
     7
  6
CONTINUOUS
  0
LAYER
  2
145
 70
    64
 62
     7
  6
CONTINUOUS
  0
LAYER
  2
146
 70
    64
 62
     7
  6
CONTINUOUS
  0
LAYER
  2
147
 70
    64
 62
     7
  6
CONTINUOUS
  0
LAYER
  2
148
 70
    64
 62
     7
  6
CONTINUOUS
  0
LAYER
  2
149
 70
    64
 62
     7
  6
CONTINUOUS
  0
LAYER
  2
150
 70
    64
 62
     7
  6
CONTINUOUS
  0
LAYER
  2
151
 70
    64
 62
     7
  6
CONTINUOUS
  0
LAYER
  2
152
 70
    64
 62
     7
  6
CONTINUOUS
  0
LAYER
  2
153
 70
    64
 62
     7
  6
CONTINUOUS
  0
LAYER
  2
154
 70
    64
 62
     7
  6
CONTINUOUS
  0
LAYER
  2
155
 70
    64
 62
     7
  6
CONTINUOUS
  0
LAYER
  2
156
 70
    64
 62
     7
  6
CONTINUOUS
  0
LAYER
  2
157
 70
    64
 62
     7
  6
CONTINUOUS
  0
LAYER
  2
158
 70
    64
 62
     7
  6
CONTINUOUS
  0
LAYER
  2
159
 70
    64
 62
     7
  6
CONTINUOUS
  0
LAYER
  2
160
 70
    64
 62
     7
  6
CONTINUOUS
  0
LAYER
  2
161
 70
    64
 62
     7
  6
CONTINUOUS
  0
LAYER
  2
162
 70
    64
 62
     7
  6
CONTINUOUS
  0
LAYER
  2
163
 70
    64
 62
     7
  6
CONTINUOUS
  0
LAYER
  2
164
 70
    64
 62
     7
  6
CONTINUOUS
  0
LAYER
  2
165
 70
    64
 62
     7
  6
CONTINUOUS
  0
LAYER
  2
166
 70
    64
 62
     7
  6
CONTINUOUS
  0
LAYER
  2
167
 70
    64
 62
     7
  6
CONTINUOUS
  0
LAYER
  2
168
 70
    64
 62
     7
  6
CONTINUOUS
  0
LAYER
  2
169
 70
    64
 62
     7
  6
CONTINUOUS
  0
LAYER
  2
170
 70
    64
 62
     7
  6
CONTINUOUS
  0
LAYER
  2
171
 70
    64
 62
     7
  6
CONTINUOUS
  0
LAYER
  2
172
 70
    64
 62
     7
  6
CONTINUOUS
  0
LAYER
  2
173
 70
    64
 62
     7
  6
CONTINUOUS
  0
LAYER
  2
174
 70
    64
 62
     7
  6
CONTINUOUS
  0
LAYER
  2
175
 70
    64
 62
     7
  6
CONTINUOUS
  0
LAYER
  2
176
 70
    64
 62
     7
  6
CONTINUOUS
  0
LAYER
  2
177
 70
    64
 62
     7
  6
CONTINUOUS
  0
LAYER
  2
178
 70
    64
 62
     7
  6
CONTINUOUS
  0
LAYER
  2
179
 70
    64
 62
     7
  6
CONTINUOUS
  0
LAYER
  2
180
 70
    64
 62
     7
  6
CONTINUOUS
  0
LAYER
  2
181
 70
    64
 62
     7
  6
CONTINUOUS
  0
LAYER
  2
182
 70
    64
 62
     7
  6
CONTINUOUS
  0
LAYER
  2
183
 70
    64
 62
     7
  6
CONTINUOUS
  0
LAYER
  2
184
 70
    64
 62
     7
  6
CONTINUOUS
  0
LAYER
  2
185
 70
    64
 62
     7
  6
CONTINUOUS
  0
LAYER
  2
186
 70
    64
 62
     7
  6
CONTINUOUS
  0
LAYER
  2
187
 70
    64
 62
     7
  6
CONTINUOUS
  0
LAYER
  2
188
 70
    64
 62
     7
  6
CONTINUOUS
  0
LAYER
  2
189
 70
    64
 62
     7
  6
CONTINUOUS
  0
LAYER
  2
190
 70
    64
 62
     7
  6
CONTINUOUS
  0
LAYER
  2
191
 70
    64
 62
     7
  6
CONTINUOUS
  0
LAYER
  2
192
 70
    64
 62
     7
  6
CONTINUOUS
  0
LAYER
  2
193
 70
    64
 62
     7
  6
CONTINUOUS
  0
LAYER
  2
194
 70
    64
 62
     7
  6
CONTINUOUS
  0
LAYER
  2
195
 70
    64
 62
     7
  6
CONTINUOUS
  0
LAYER
  2
196
 70
    64
 62
     7
  6
CONTINUOUS
  0
LAYER
  2
197
 70
    64
 62
     7
  6
CONTINUOUS
  0
LAYER
  2
198
 70
    64
 62
     7
  6
CONTINUOUS
  0
LAYER
  2
199
 70
    64
 62
     7
  6
CONTINUOUS
  0
LAYER
  2
200
 70
    64
 62
     7
  6
CONTINUOUS
  0
LAYER
  2
201
 70
    64
 62
     7
  6
CONTINUOUS
  0
LAYER
  2
202
 70
    64
 62
     7
  6
CONTINUOUS
  0
LAYER
  2
203
 70
    64
 62
     7
  6
CONTINUOUS
  0
LAYER
  2
204
 70
    64
 62
     7
  6
CONTINUOUS
  0
LAYER
  2
205
 70
    64
 62
     7
  6
CONTINUOUS
  0
LAYER
  2
206
 70
    64
 62
     7
  6
CONTINUOUS
  0
LAYER
  2
207
 70
    64
 62
     7
  6
CONTINUOUS
  0
LAYER
  2
208
 70
    64
 62
     7
  6
CONTINUOUS
  0
LAYER
  2
209
 70
    64
 62
     7
  6
CONTINUOUS
  0
LAYER
  2
210
 70
    64
 62
     7
  6
CONTINUOUS
  0
LAYER
  2
211
 70
    64
 62
     7
  6
CONTINUOUS
  0
LAYER
  2
212
 70
    64
 62
     7
  6
CONTINUOUS
  0
LAYER
  2
213
 70
    64
 62
     7
  6
CONTINUOUS
  0
LAYER
  2
214
 70
    64
 62
     7
  6
CONTINUOUS
  0
LAYER
  2
215
 70
    64
 62
     7
  6
CONTINUOUS
  0
LAYER
  2
216
 70
    64
 62
     7
  6
CONTINUOUS
  0
LAYER
  2
217
 70
    64
 62
     7
  6
CONTINUOUS
  0
LAYER
  2
218
 70
    64
 62
     7
  6
CONTINUOUS
  0
LAYER
  2
219
 70
    64
 62
     7
  6
CONTINUOUS
  0
LAYER
  2
220
 70
    64
 62
     7
  6
CONTINUOUS
  0
LAYER
  2
221
 70
    64
 62
     7
  6
CONTINUOUS
  0
LAYER
  2
222
 70
    64
 62
     7
  6
CONTINUOUS
  0
LAYER
  2
223
 70
    64
 62
     7
  6
CONTINUOUS
  0
LAYER
  2
224
 70
    64
 62
     7
  6
CONTINUOUS
  0
LAYER
  2
225
 70
    64
 62
     7
  6
CONTINUOUS
  0
LAYER
  2
226
 70
    64
 62
     7
  6
CONTINUOUS
  0
LAYER
  2
227
 70
    64
 62
     7
  6
CONTINUOUS
  0
LAYER
  2
228
 70
    64
 62
     7
  6
CONTINUOUS
  0
LAYER
  2
229
 70
    64
 62
     7
  6
CONTINUOUS
  0
LAYER
  2
230
 70
    64
 62
     7
  6
CONTINUOUS
  0
LAYER
  2
231
 70
    64
 62
     7
  6
CONTINUOUS
  0
LAYER
  2
232
 70
    64
 62
     7
  6
CONTINUOUS
  0
LAYER
  2
233
 70
    64
 62
     7
  6
CONTINUOUS
  0
LAYER
  2
234
 70
    64
 62
     7
  6
CONTINUOUS
  0
LAYER
  2
235
 70
    64
 62
     7
  6
CONTINUOUS
  0
LAYER
  2
236
 70
    64
 62
     7
  6
CONTINUOUS
  0
LAYER
  2
237
 70
    64
 62
     7
  6
CONTINUOUS
  0
LAYER
  2
238
 70
    64
 62
     7
  6
CONTINUOUS
  0
LAYER
  2
239
 70
    64
 62
     7
  6
CONTINUOUS
  0
LAYER
  2
240
 70
    64
 62
     7
  6
CONTINUOUS
  0
LAYER
  2
241
 70
    64
 62
     7
  6
CONTINUOUS
  0
LAYER
  2
242
 70
    64
 62
     7
  6
CONTINUOUS
  0
LAYER
  2
243
 70
    64
 62
     7
  6
CONTINUOUS
  0
LAYER
  2
244
 70
    64
 62
     7
  6
CONTINUOUS
  0
LAYER
  2
245
 70
    64
 62
     7
  6
CONTINUOUS
  0
LAYER
  2
246
 70
    64
 62
     7
  6
CONTINUOUS
  0
LAYER
  2
247
 70
    64
 62
     7
  6
CONTINUOUS
  0
LAYER
  2
248
 70
    64
 62
     7
  6
CONTINUOUS
  0
LAYER
  2
249
 70
    64
 62
     7
  6
CONTINUOUS
  0
LAYER
  2
250
 70
    64
 62
     7
  6
CONTINUOUS
  0
LAYER
  2
251
 70
    64
 62
     7
  6
CONTINUOUS
  0
LAYER
  2
252
 70
    64
 62
     7
  6
CONTINUOUS
  0
LAYER
  2
253
 70
    64
 62
     7
  6
CONTINUOUS
  0
LAYER
  2
254
 70
    64
 62
     7
  6
CONTINUOUS
  0
LAYER
  2
255
 70
    64
 62
     7
  6
CONTINUOUS
  0
ENDTAB
  0
TABLE
  2
STYLE
 70
     2
  0
STYLE
  2
STANDARD
 70
    64
 40
0.0
 41
1.0
 50
0.0
 71
     0
 42
3.000000
  3
TXT
  4
BIGFONT
  0
ENDTAB
  0
ENDSEC
  0
SECTION
  2
ENTITIES
  0
LINE
  8
0
  6
DASHDOT
 62
     3
 10
 39.391023635864258
 20
 18.557706832885742
 11
 39.391023635864258
 21
 87.68792724609375
  0
LINE
  8
0
  6
CONTINUOUS
 62
     3
 10
-46.808965682983398
 20
 101.045166015625
 11
 46.191015243530273
 21
 101.045166015625
  0
LINE
  8
0
  6
CONTINUOUS
 62
     3
 10
 46.191015243530273
 20
 101.045166015625
 11
 46.191015243530273
 21
 4.0451664924621582
  0
LINE
  8
0
  6
CONTINUOUS
 62
     3
 10
 46.191015243530273
 20
 4.0451664924621582
 11
-46.808965682983398
 21
 4.0451664924621582
  0
LINE
  8
0
  6
CONTINUOUS
 62
     3
 10
-46.808965682983398
 20
 4.0451664924621582
 11
-46.808965682983398
 21
 101.045166015625
  0
LINE
  8
0
  6
DASHDOT
 62
     3
 10
-49.266027450561523
 20
 90.045158386230469
 11
 49.266027450561523
 21
 90.045158386230469
  0
LINE
  8
0
  6
DASHDOT
 62
     3
 10
-50.844549179077148
 20
 15.045163154602051
 11
 49.266027450561523
 21
 15.045163154602051
  0
LINE
  8
0
  6
DOT
 62
     3
 10
-45.608983993530273
 20
 4.0451664924621582
 11
-45.608983993530273
 21
 7.0451645851135254
  0
LINE
  8
0
  6
CONTINUOUS
 62
     3
 10
-45.608983993530273
 20
 7.0451645851135254
 11
-45.608983993530273
 21
 9.0451602935791016
  0
LINE
  8
0
  6
DOT
 62
     3
 10
-45.608983993530273
 20
 9.0451602935791016
 11
-45.608983993530273
 21
 21.04515266418457
  0
LINE
  8
0
  6
CONTINUOUS
 62
     3
 10
-45.608983993530273
 20
 21.04515266418457
 11
-45.608983993530273
 21
 23.045171737670898
  0
LINE
  8
0
  6
DOT
 62
     3
 10
-45.608983993530273
 20
 23.045171737670898
 11
-45.608983993530273
 21
 32.045162200927734
  0
LINE
  8
0
  6
DOT
 62
     3
 10
-45.608983993530273
 20
 48.045162200927734
 11
-45.608983993530273
 21
 57.045158386230469
  0
LINE
  8
0
  6
DOT
 62
     3
 10
-45.608983993530273
 20
 73.045158386230469
 11
-45.608983993530273
 21
 82.295158386230469
  0
LINE
  8
0
  6
DOT
 62
     3
 10
-45.608983993530273
 20
 98.045158386230469
 11
-45.608983993530273
 21
 101.045166015625
  0
LINE
  8
0
  6
CONTINUOUS
 62
     3
 10
-46.808965682983398
 20
 21.04515266418457
 11
-42.808965682983398
 21
 21.04515266418457
  0
LINE
  8
0
  6
CONTINUOUS
 62
     3
 10
-41.808965682983398
 20
 20.045154571533203
 11
-41.808965682983398
 21
 10.045163154602051
  0
ARC
  8
0
  6
CONTINUOUS
 62
     3
 10
-42.808965682983398
 20
 20.045154571533203
 40
 1
 50
 0
 51
 90.000004039712721
  0
LINE
  8
0
  6
CONTINUOUS
 62
     3
 10
-42.808965682983398
 20
 9.0451602935791016
 11
-46.808965682983398
 21
 9.0451602935791016
  0
ARC
  8
0
  6
CONTINUOUS
 62
     3
 10
-42.808965682983398
 20
 10.045163154602051
 40
 1
 50
-90.000000851989171
 51
 0
  0
LINE
  8
0
  6
CONTINUOUS
 62
     3
 10
-46.808965682983398
 20
 23.045171737670898
 11
-32.308935165405273
 21
 23.045171737670898
  0
LINE
  8
0
  6
CONTINUOUS
 62
     3
 10
-29.308935165405273
 20
 20.045169830322266
 11
-29.308935165405273
 21
 10.045169830322266
  0
ARC
  8
0
  6
CONTINUOUS
 62
     3
 10
-32.308935165405273
 20
 20.045169830322266
 40
 3
 50
 0
 51
 90.000004039712721
  0
LINE
  8
0
  6
CONTINUOUS
 62
     3
 10
-32.308935165405273
 20
 7.0451712608337402
 11
-46.808965682983398
 21
 7.0451645851135254
  0
ARC
  8
0
  6
CONTINUOUS
 62
     3
 10
-32.308935165405273
 20
 10.045169830322266
 40
 3
 50
-89.99997353123203
 51
 0
  0
LINE
  8
0
  6
DOT
 62
     3
 10
 44.991022109985352
 20
 101.045166015625
 11
 44.991022109985352
 21
 94.645156860351563
  0
LINE
  8
0
  6
DOT
 62
     3
 10
 44.991022109985352
 20
 85.445159912109375
 11
 44.991022109985352
 21
 69.645156860351563
  0
LINE
  8
0
  6
DOT
 62
     3
 10
 44.991022109985352
 20
 60.445159912109375
 11
 44.991022109985352
 21
 44.645160675048828
  0
LINE
  8
0
  6
DOT
 62
     3
 10
 44.991022109985352
 20
 35.445163726806641
 11
 44.991022109985352
 21
 19.645162582397461
  0
LINE
  8
0
  6
CONTINUOUS
 62
     3
 10
 78.791011810302734
 20
 19.645158767700195
 11
 78.791011810302734
 21
 10.445167541503906
  0
LINE
  8
0
  6
DOT
 62
     3
 10
 44.991022109985352
 20
 10.445167541503906
 11
 44.991022109985352
 21
 4.0451664924621582
  0
LINE
  8
0
  6
CONTINUOUS
 62
     3
 10
 28.691011428833008
 20
 20.045164108276367
 11
 33.691011428833008
 21
 20.045164108276367
  0
LINE
  8
0
  6
CONTINUOUS
 62
     3
 10
 33.691011428833008
 20
 21.245159149169922
 11
 33.691011428833008
 21
 8.8451576232910156
  0
LINE
  8
0
  6
CONTINUOUS
 62
     3
 10
 33.691011428833008
 20
 10.045159339904785
 11
 28.691011428833008
 21
 10.045159339904785
  0
LINE
  8
0
  6
CONTINUOUS
 62
     3
 10
 28.691011428833008
 20
 8.8451576232910156
 11
 28.691011428833008
 21
 21.245159149169922
  0
LINE
  8
0
  6
CONTINUOUS
 62
     3
 10
 78.791011810302734
 20
 19.645158767700195
 11
 75.591012954711914
 21
 19.645158767700195
  0
LINE
  8
0
  6
CONTINUOUS
 62
     3
 10
 75.591012954711914
 20
 10.445167541503906
 11
 78.791011810302734
 21
 10.445167541503906
  0
LINE
  8
0
  6
DOT
 62
     3
 10
 33.691011428833008
 20
 21.545156478881836
 11
 28.691011428833008
 21
 21.545156478881836
  0
LINE
  8
0
  6
DOT
 62
     3
 10
 28.691011428833008
 20
 21.545156478881836
 11
 28.691011428833008
 21
 21.245159149169922
  0
LINE
  8
0
  6
DOT
 62
     3
 10
 28.691011428833008
 20
 8.8451576232910156
 11
 28.691011428833008
 21
 8.5451574325561523
  0
LINE
  8
0
  6
DOT
 62
     3
 10
 28.691011428833008
 20
 8.5451574325561523
 11
 33.691011428833008
 21
 8.5451574325561523
  0
LINE
  8
0
  6
DOT
 62
     3
 10
 33.691011428833008
 20
 8.5451574325561523
 11
 33.691011428833008
 21
 8.8451576232910156
  0
LINE
  8
0
  6
DOT
 62
     3
 10
 33.691011428833008
 20
 21.245159149169922
 11
 28.691011428833008
 21
 21.245159149169922
  0
LINE
  8
0
  6
DOT
 62
     3
 10
 28.691011428833008
 20
 8.8451576232910156
 11
 33.691011428833008
 21
 8.8451576232910156
  0
LINE
  8
0
  6
DASHDOT
 62
     7
 10
-0.6089763641357422
 20
 103.21484375
 11
-0.6089763641357422
 21
-17.914836883544922
  0
LINE
  8
0
  6
CONTINUOUS
 62
     7
 10
-49.266027450561523
 20
 90.045166015625
 11
-60.768987655639648
 21
 90.045166015625
  0
LINE
  8
0
  6
CONTINUOUS
 62
     7
 10
-49.266027450561523
 20
 15.045163154602051
 11
-60.768987655639648
 21
 15.045163154602051
  0
LINE
  8
0
  6
CONTINUOUS
 62
     7
 10
-46.808965682983398
 20
 2.0451676845550537
 11
-46.808965682983398
 21
-22.914827346801758
  0
LINE
  8
0
  6
CONTINUOUS
 62
     7
 10
 46.191015243530273
 20
 2.4975252151489258
 11
 46.191015243530273
 21
-22.914827346801758
  0
LINE
  8
0
  6
CONTINUOUS
 62
     7
 10
 50.395898818969727
 20
 77.545166015625
 11
 63.151018142700195
 21
 77.545166015625
  0
LINE
  8
0
  6
CONTINUOUS
 62
     7
 10
 48.191022872924805
 20
 101.045166015625
 11
 63.151018142700195
 21
 101.045166015625
  0
LINE
  8
0
  6
CONTINUOUS
 62
     7
 10
-60.308996200561523
 20
 15.045163154602051
 11
-60.768987655639648
 21
 15.045163154602051
  0
CIRCLE
  8
0
  6
CONTINUOUS
 62
     3
 10
 39.391023635864258
 20
 77.545150756835938
 40
 4.5
  0
LINE
  8
0
  6
DOT
 62
     6
 10
 34.191011428833008
 20
 101.045166015625
 11
 34.191011428833008
 21
 80.545150756835938
  0
LINE
  8
0
  6
DOT
 62
     6
 10
 34.191011428833008
 20
 80.545150756835938
 11
 35.191003799438477
 21
 79.545150756835938
  0
LINE
  8
0
  6
DOT
 62
     6
 10
 34.191011428833008
 20
 4.0451664924621582
 11
 34.191011428833008
 21
 24.545158386230469
  0
LINE
  8
0
  6
DOT
 62
     6
 10
 34.191011428833008
 20
 30.545150756835937
 11
 34.191011428833008
 21
 74.545158386230469
  0
LINE
  8
0
  6
DOT
 62
     6
 10
 34.191011428833008
 20
 74.545158386230469
 11
 35.191003799438477
 21
 75.545166015625
  0
LINE
  8
0
  6
DASHDOT
 62
     3
 10
-35.608983993530273
 20
 93.803184509277344
 11
-35.608983993530273
 21
 11.489006042480469
  0
LINE
  8
0
  6
CONTINUOUS
 62
     7
 10
 44.283834457397461
 20
 112.43868255615234
 11
 57.663930892944336
 21
 112.43868255615234
  0
TEXT
  8
0
  6
CONTINUOUS
 62
     7
 10
 46.665273666381836
 20
 113.18868255615234
 11
 56.165273666381836
 21
 113.18868255615234
 40
 2.5
 41
 0.8
  1
２－φ９
 50
 0
 72
  5
  0
LINE
  8
0
  6
CONTINUOUS
 62
     7
 10
 44.283834457397461
 20
 112.43868255615234
 11
 40.015909194946289
 21
 82.001556396484375
  0
LINE
  8
0
  6
CONTINUOUS
 62
     7
 10
 40.015909194946289
 20
 82.001556396484375
 11
 41.187236452376382
 21
 84.763438446102228
  0
LINE
  8
0
  6
CONTINUOUS
 62
     7
 10
 40.015909194946289
 20
 82.001556396484375
 11
 39.649367331216979
 21
 84.979080042424712
  0
LINE
  8
0
  6
CONTINUOUS
 62
     6
 10
 39.391016006469727
 20
 79.545150756835938
 11
 35.191003799438477
 21
 79.545150756835938
  0
LINE
  8
0
  6
CONTINUOUS
 62
     6
 10
 39.391016006469727
 20
 75.545166015625
 11
 35.191003799438477
 21
 75.545166015625
  0
LINE
  8
0
  6
CONTINUOUS
 62
     7
 10
-30.772420883178711
 20
 107.43868255615234
 11
-16.565893173217773
 21
 107.43868255615234
  0
TEXT
  8
0
  6
CONTINUOUS
 62
     7
 10
-28.390996932983398
 20
 108.18868255615234
 11
-18.890996932983398
 21
 108.18868255615234
 40
 2.5
 41
 0.8
  1
２－φ４
 50
 0
 72
  5
  0
LINE
  8
0
  6
DASHDOT
 62
     7
 10
-50.564092636108398
 20
 77.545158386230469
 11
 50.395898818969727
 21
 77.545158386230469
  0
LINE
  8
0
  6
DOT
 62
     3
 10
 33.691011428833008
 20
 21.545156478881836
 11
 33.691011428833008
 21
 21.245159149169922
  0
LINE
  8
0
  6
CONTINUOUS
 62
     3
 10
 44.991022109985352
 20
 94.645156860351563
 11
 44.991022109985352
 21
 85.445159912109375
  0
LINE
  8
0
  6
CONTINUOUS
 62
     3
 10
 28.691011428833008
 20
 95.045158386230469
 11
 33.691011428833008
 21
 95.045158386230469
  0
LINE
  8
0
  6
CONTINUOUS
 62
     3
 10
 33.691011428833008
 20
 96.245155334472656
 11
 33.691011428833008
 21
 83.84515380859375
  0
LINE
  8
0
  6
CONTINUOUS
 62
     3
 10
 33.691011428833008
 20
 85.045150756835937
 11
 28.691011428833008
 21
 85.045150756835937
  0
LINE
  8
0
  6
CONTINUOUS
 62
     3
 10
 28.691011428833008
 20
 83.84515380859375
 11
 28.691011428833008
 21
 96.245155334472656
  0
LINE
  8
0
  6
CONTINUOUS
 62
     3
 10
 46.191015243530273
 20
 94.645156860351563
 11
 43.691011428833008
 21
 94.645156860351563
  0
LINE
  8
0
  6
CONTINUOUS
 62
     3
 10
 43.691011428833008
 20
 94.645156860351563
 11
 43.691011428833008
 21
 85.445159912109375
  0
LINE
  8
0
  6
CONTINUOUS
 62
     3
 10
 43.691011428833008
 20
 85.445159912109375
 11
 46.191015243530273
 21
 85.445159912109375
  0
LINE
  8
0
  6
DOT
 62
     3
 10
 33.691011428833008
 20
 96.545158386230469
 11
 28.691011428833008
 21
 96.545158386230469
  0
LINE
  8
0
  6
DOT
 62
     3
 10
 28.691011428833008
 20
 96.545158386230469
 11
 28.691011428833008
 21
 96.245155334472656
  0
LINE
  8
0
  6
DOT
 62
     3
 10
 28.691011428833008
 20
 83.84515380859375
 11
 28.691011428833008
 21
 83.545150756835938
  0
LINE
  8
0
  6
DOT
 62
     3
 10
 28.691011428833008
 20
 83.545150756835938
 11
 33.691011428833008
 21
 83.545150756835938
  0
LINE
  8
0
  6
DOT
 62
     3
 10
 33.691011428833008
 20
 83.545150756835938
 11
 33.691011428833008
 21
 83.84515380859375
  0
LINE
  8
0
  6
DOT
 62
     3
 10
 33.691011428833008
 20
 96.245155334472656
 11
 28.691011428833008
 21
 96.245155334472656
  0
LINE
  8
0
  6
DOT
 62
     3
 10
 28.691011428833008
 20
 83.84515380859375
 11
 33.691011428833008
 21
 83.84515380859375
  0
LINE
  8
0
  6
DOT
 62
     3
 10
 33.691011428833008
 20
 96.545158386230469
 11
 33.691011428833008
 21
 96.245155334472656
  0
CIRCLE
  8
0
  6
CONTINUOUS
 62
     6
 10
-35.608983993530273
 20
 90.045158386230469
 40
 2
  0
ARC
  8
0
  6
CONTINUOUS
 62
     6
 10
 39.391016006469727
 20
 77.545158386230469
 40
 2
 50
-90.000000851989171
 51
 90.000004039712721
  0
LINE
  8
0
  6
CONTINUOUS
 62
     3
 10
-45.608983993530273
 20
 82.045158386230469
 11
-45.608983993530273
 21
 84.045150756835938
  0
LINE
  8
0
  6
DOT
 62
     3
 10
-45.608983993530273
 20
 84.045150756835938
 11
-45.608983993530273
 21
 96.045158386230469
  0
LINE
  8
0
  6
CONTINUOUS
 62
     3
 10
-45.608983993530273
 20
 96.045158386230469
 11
-45.608983993530273
 21
 98.045158386230469
  0
LINE
  8
0
  6
CONTINUOUS
 62
     3
 10
-46.808965682983398
 20
 96.045158386230469
 11
-42.808965682983398
 21
 96.045158386230469
  0
LINE
  8
0
  6
CONTINUOUS
 62
     3
 10
-41.808965682983398
 20
 95.045150756835938
 11
-41.808965682983398
 21
 85.045150756835937
  0
ARC
  8
0
  6
CONTINUOUS
 62
     3
 10
-42.808965682983398
 20
 95.045150756835938
 40
 1
 50
 0
 51
 90.000004039712721
  0
LINE
  8
0
  6
CONTINUOUS
 62
     3
 10
-42.808965682983398
 20
 84.045150756835938
 11
-46.808965682983398
 21
 84.045150756835938
  0
ARC
  8
0
  6
CONTINUOUS
 62
     3
 10
-42.808965682983398
 20
 85.045150756835937
 40
 1
 50
-90.000000851989171
 51
 0
  0
LINE
  8
0
  6
CONTINUOUS
 62
     3
 10
-46.808965682983398
 20
 98.045158386230469
 11
-32.308935165405273
 21
 98.045158386230469
  0
LINE
  8
0
  6
CONTINUOUS
 62
     3
 10
-29.308935165405273
 20
 95.045158386230469
 11
-29.308935165405273
 21
 85.045166015625
  0
ARC
  8
0
  6
CONTINUOUS
 62
     3
 10
-32.308935165405273
 20
 95.045158386230469
 40
 3
 50
 0
 51
 90.000004039712721
  0
LINE
  8
0
  6
CONTINUOUS
 62
     3
 10
-32.308935165405273
 20
 82.045166015625
 11
-46.808965682983398
 21
 82.045158386230469
  0
ARC
  8
0
  6
CONTINUOUS
 62
     3
 10
-32.308935165405273
 20
 85.045166015625
 40
 3
 50
-89.99997353123203
 51
 0
  0
LINE
  8
0
  6
CONTINUOUS
 62
     6
 10
-31.308965682983398
 20
 7.216738224029541
 11
-31.308965682983398
 21
 22.873600006103516
  0
LINE
  8
0
  6
DOT
 62
     6
 10
-31.308965682983398
 20
 4.0451664924621582
 11
-31.308965682983398
 21
 7.216738224029541
  0
LINE
  8
0
  6
DOT
 62
     6
 10
-31.308965682983398
 20
 22.873600006103516
 11
-31.308965682983398
 21
 32.216728210449219
  0
LINE
  8
0
  6
CONTINUOUS
 62
     6
 10
-31.308965682983398
 20
 32.216728210449219
 11
-31.308965682983398
 21
 47.873603820800781
  0
LINE
  8
0
  6
DOT
 62
     6
 10
-31.308965682983398
 20
 47.873603820800781
 11
-31.308965682983398
 21
 57.216724395751953
  0
LINE
  8
0
  6
CONTINUOUS
 62
     6
 10
-31.308965682983398
 20
 57.216724395751953
 11
-31.308965682983398
 21
 72.87359619140625
  0
LINE
  8
0
  6
DOT
 62
     6
 10
-31.308965682983398
 20
 72.87359619140625
 11
-31.308965682983398
 21
 82.216720581054688
  0
LINE
  8
0
  6
CONTINUOUS
 62
     6
 10
-31.308965682983398
 20
 82.216720581054688
 11
-31.308965682983398
 21
 97.87359619140625
  0
LINE
  8
0
  6
DOT
 62
     6
 10
-31.308965682983398
 20
 97.87359619140625
 11
-31.308965682983398
 21
 101.045166015625
  0
CIRCLE
  8
0
  6
CONTINUOUS
 62
     6
 10
-35.608983993530273
 20
 15.045163154602051
 40
 2
  0
LINE
  8
0
  6
CONTINUOUS
 62
     7
 10
-30.772420883178711
 20
 107.43868255615234
 11
-35.073186874389648
 21
 91.972053527832031
  0
LINE
  8
0
  6
CONTINUOUS
 62
     7
 10
-35.073186874389648
 20
 91.972053527832031
 11
-33.548789319684204
 21
 94.555890228401182
  0
LINE
  8
0
  6
CONTINUOUS
 62
     7
 10
-35.073186874389648
 20
 91.972053527832031
 11
-35.044938216832428
 21
 94.971920527108196
  0
LINE
  8
0
  6
DASHDOT
 62
     7
 10
 107.8914999961853
 20
 77.545158386230469
 11
 67.955598831176758
 21
 77.545158386230469
  0
LINE
  8
0
  6
CONTINUOUS
 62
     3
 10
 101.5910120010376
 20
 101.045166015625
 11
 75.591012954711914
 21
 101.045166015625
  0
LINE
  8
0
  6
CONTINUOUS
 62
     3
 10
 75.591012954711914
 20
 101.045166015625
 11
 75.591012954711914
 21
 4.0451664924621582
  0
LINE
  8
0
  6
CONTINUOUS
 62
     3
 10
 75.591012954711914
 20
 4.0451664924621582
 11
 101.5910120010376
 21
 4.0451664924621582
  0
LINE
  8
0
  6
CONTINUOUS
 62
     3
 10
 101.5910120010376
 20
 4.0451664924621582
 11
 101.5910120010376
 21
 101.045166015625
  0
LINE
  8
0
  6
DASHDOT
 62
     3
 10
 71.994062423706055
 20
 90.045158386230469
 11
 104.75047373771667
 21
 90.045158386230469
  0
LINE
  8
0
  6
DASHDOT
 62
     3
 10
 71.994062423706055
 20
 15.045160293579102
 11
 104.75047373771667
 21
 15.045160293579102
  0
LINE
  8
0
  6
DOT
 62
     3
 10
 76.791009902954102
 20
 101.045166015625
 11
 76.791009902954102
 21
 94.645156860351563
  0
LINE
  8
0
  6
DOT
 62
     3
 10
 76.791009902954102
 20
 85.445159912109375
 11
 76.791009902954102
 21
 19.645158767700195
  0
LINE
  8
0
  6
CONTINUOUS
 62
     3
 10
 76.791009902954102
 20
 19.645158767700195
 11
 76.791009902954102
 21
 10.445167541503906
  0
LINE
  8
0
  6
DOT
 62
     3
 10
 76.791009902954102
 20
 10.445167541503906
 11
 76.791009902954102
 21
 4.0451664924621582
  0
LINE
  8
0
  6
CONTINUOUS
 62
     3
 10
 101.5910120010376
 20
 95.145156860351563
 11
 96.291011810302734
 21
 95.145156860351563
  0
LINE
  8
0
  6
CONTINUOUS
 62
     3
 10
 96.291011810302734
 20
 95.145156860351563
 11
 96.291011810302734
 21
 84.945159912109375
  0
LINE
  8
0
  6
CONTINUOUS
 62
     3
 10
 96.291011810302734
 20
 84.945159912109375
 11
 101.5910120010376
 21
 84.945159912109375
  0
LINE
  8
0
  6
DOT
 62
     3
 10
 100.39100122451782
 20
 4.0451664924621582
 11
 100.39100122451782
 21
 9.9451684951782227
  0
LINE
  8
0
  6
DOT
 62
     3
 10
 100.39100122451782
 20
 20.145158767700195
 11
 100.39100122451782
 21
 84.945159912109375
  0
LINE
  8
0
  6
CONTINUOUS
 62
     3
 10
 100.39100122451782
 20
 84.945159912109375
 11
 100.39100122451782
 21
 95.145156860351563
  0
LINE
  8
0
  6
DOT
 62
     3
 10
 100.39100122451782
 20
 95.145156860351563
 11
 100.39100122451782
 21
 101.045166015625
  0
LINE
  8
0
  6
CONTINUOUS
 62
     3
 10
 101.5910120010376
 20
 20.145158767700195
 11
 96.291011810302734
 21
 20.145158767700195
  0
LINE
  8
0
  6
CONTINUOUS
 62
     3
 10
 96.291011810302734
 20
 20.145158767700195
 11
 96.291011810302734
 21
 9.9451684951782227
  0
LINE
  8
0
  6
CONTINUOUS
 62
     3
 10
 96.291011810302734
 20
 9.9451684951782227
 11
 101.5910120010376
 21
 9.9451684951782227
  0
LINE
  8
0
  6
CONTINUOUS
 62
     3
 10
 100.39100122451782
 20
 9.9451684951782227
 11
 100.39100122451782
 21
 20.145158767700195
  0
LINE
  8
0
  6
CONTINUOUS
 62
     3
 10
 78.791011810302734
 20
 94.645156860351563
 11
 78.791011810302734
 21
 85.445159912109375
  0
LINE
  8
0
  6
CONTINUOUS
 62
     3
 10
 78.791011810302734
 20
 94.645156860351563
 11
 75.591012954711914
 21
 94.645156860351563
  0
LINE
  8
0
  6
CONTINUOUS
 62
     3
 10
 75.591012954711914
 20
 85.445159912109375
 11
 78.791011810302734
 21
 85.445159912109375
  0
LINE
  8
0
  6
CONTINUOUS
 62
     3
 10
 76.791009902954102
 20
 94.645156860351563
 11
 76.791009902954102
 21
 85.445159912109375
  0
LINE
  8
0
  6
CONTINUOUS
 62
     3
 10
 44.991022109985352
 20
 19.645162582397461
 11
 44.991022109985352
 21
 10.445171356201172
  0
LINE
  8
0
  6
CONTINUOUS
 62
     3
 10
 46.191015243530273
 20
 19.645162582397461
 11
 43.691011428833008
 21
 19.645162582397461
  0
LINE
  8
0
  6
CONTINUOUS
 62
     3
 10
 43.691011428833008
 20
 19.645162582397461
 11
 43.691011428833008
 21
 10.445171356201172
  0
LINE
  8
0
  6
CONTINUOUS
 62
     3
 10
 43.691011428833008
 20
 10.445171356201172
 11
 46.191015243530273
 21
 10.445171356201172
  0
LINE
  8
0
  6
CONTINUOUS
 62
     3
 10
-45.608983993530273
 20
 57.045158386230469
 11
-45.608983993530273
 21
 59.045150756835938
  0
LINE
  8
0
  6
DOT
 62
     3
 10
-45.608983993530273
 20
 59.045150756835938
 11
-45.608983993530273
 21
 71.045158386230469
  0
LINE
  8
0
  6
CONTINUOUS
 62
     3
 10
-45.608983993530273
 20
 71.045158386230469
 11
-45.608983993530273
 21
 73.045158386230469
  0
LINE
  8
0
  6
CONTINUOUS
 62
     3
 10
-46.808965682983398
 20
 71.045158386230469
 11
-42.808965682983398
 21
 71.045158386230469
  0
LINE
  8
0
  6
CONTINUOUS
 62
     3
 10
-41.808965682983398
 20
 70.045150756835938
 11
-41.808965682983398
 21
 60.045150756835937
  0
ARC
  8
0
  6
CONTINUOUS
 62
     3
 10
-42.808965682983398
 20
 70.045150756835938
 40
 1
 50
 0
 51
 90.000004039712721
  0
LINE
  8
0
  6
CONTINUOUS
 62
     3
 10
-42.808965682983398
 20
 59.045150756835938
 11
-46.808965682983398
 21
 59.045150756835938
  0
ARC
  8
0
  6
CONTINUOUS
 62
     3
 10
-42.808965682983398
 20
 60.045150756835937
 40
 1
 50
-90.000000851989171
 51
 0
  0
LINE
  8
0
  6
CONTINUOUS
 62
     3
 10
-46.808965682983398
 20
 73.045158386230469
 11
-32.308935165405273
 21
 73.045158386230469
  0
LINE
  8
0
  6
CONTINUOUS
 62
     3
 10
-29.308935165405273
 20
 70.045158386230469
 11
-29.308935165405273
 21
 60.045166015625
  0
ARC
  8
0
  6
CONTINUOUS
 62
     3
 10
-32.308935165405273
 20
 70.045158386230469
 40
 3
 50
 0
 51
 90.000004039712721
  0
LINE
  8
0
  6
CONTINUOUS
 62
     3
 10
-32.308935165405273
 20
 57.045166015625
 11
-46.808965682983398
 21
 57.045158386230469
  0
ARC
  8
0
  6
CONTINUOUS
 62
     3
 10
-32.308935165405273
 20
 60.045166015625
 40
 3
 50
-89.99997353123203
 51
 0
  0
LINE
  8
0
  6
CONTINUOUS
 62
     3
 10
-45.608983993530273
 20
 32.045162200927734
 11
-45.608983993530273
 21
 34.045154571533203
  0
LINE
  8
0
  6
DOT
 62
     3
 10
-45.608983993530273
 20
 34.045154571533203
 11
-45.608983993530273
 21
 46.045162200927734
  0
LINE
  8
0
  6
CONTINUOUS
 62
     3
 10
-45.608983993530273
 20
 46.045162200927734
 11
-45.608983993530273
 21
 48.045162200927734
  0
LINE
  8
0
  6
CONTINUOUS
 62
     3
 10
-46.808965682983398
 20
 46.045162200927734
 11
-42.808965682983398
 21
 46.045162200927734
  0
LINE
  8
0
  6
CONTINUOUS
 62
     3
 10
-41.808965682983398
 20
 45.045154571533203
 11
-41.808965682983398
 21
 35.045154571533203
  0
ARC
  8
0
  6
CONTINUOUS
 62
     3
 10
-42.808965682983398
 20
 45.045154571533203
 40
 1
 50
 0
 51
 90.000004039712721
  0
LINE
  8
0
  6
CONTINUOUS
 62
     3
 10
-42.808965682983398
 20
 34.045154571533203
 11
-46.808965682983398
 21
 34.045154571533203
  0
ARC
  8
0
  6
CONTINUOUS
 62
     3
 10
-42.808965682983398
 20
 35.045154571533203
 40
 1
 50
-90.000000851989171
 51
 0
  0
LINE
  8
0
  6
CONTINUOUS
 62
     3
 10
-46.808965682983398
 20
 48.045162200927734
 11
-32.308935165405273
 21
 48.045162200927734
  0
LINE
  8
0
  6
CONTINUOUS
 62
     3
 10
-29.308935165405273
 20
 45.045162200927734
 11
-29.308935165405273
 21
 35.045169830322266
  0
ARC
  8
0
  6
CONTINUOUS
 62
     3
 10
-32.308935165405273
 20
 45.045162200927734
 40
 3
 50
 0
 51
 90.000004039712721
  0
LINE
  8
0
  6
CONTINUOUS
 62
     3
 10
-32.308935165405273
 20
 32.045169830322266
 11
-46.808965682983398
 21
 32.045162200927734
  0
ARC
  8
0
  6
CONTINUOUS
 62
     3
 10
-32.308935165405273
 20
 35.045169830322266
 40
 3
 50
-89.99997353123203
 51
 0
  0
CIRCLE
  8
0
  6
CONTINUOUS
 62
     3
 10
 39.391023635864258
 20
 27.545148849487305
 40
 4.5
  0
LINE
  8
0
  6
DOT
 62
     6
 10
 34.191011428833008
 20
 30.545150756835937
 11
 35.191003799438477
 21
 29.545150756835938
  0
LINE
  8
0
  6
DOT
 62
     6
 10
 34.191011428833008
 20
 24.545158386230469
 11
 35.191003799438477
 21
 25.545166015625
  0
LINE
  8
0
  6
CONTINUOUS
 62
     6
 10
 39.391016006469727
 20
 29.545150756835938
 11
 35.191003799438477
 21
 29.545150756835938
  0
LINE
  8
0
  6
CONTINUOUS
 62
     6
 10
 39.391016006469727
 20
 25.545166015625
 11
 35.191003799438477
 21
 25.545166015625
  0
ARC
  8
0
  6
CONTINUOUS
 62
     6
 10
 39.391016006469727
 20
 27.545158386230469
 40
 2
 50
-90.000000851989171
 51
 90.000004039712721
  0
LINE
  8
0
  6
CONTINUOUS
 62
     3
 10
 44.991022109985352
 20
 69.645156860351563
 11
 44.991022109985352
 21
 60.445159912109375
  0
LINE
  8
0
  6
CONTINUOUS
 62
     3
 10
 28.691011428833008
 20
 70.045158386230469
 11
 33.691011428833008
 21
 70.045158386230469
  0
LINE
  8
0
  6
CONTINUOUS
 62
     3
 10
 33.691011428833008
 20
 71.245155334472656
 11
 33.691011428833008
 21
 58.84515380859375
  0
LINE
  8
0
  6
CONTINUOUS
 62
     3
 10
 33.691011428833008
 20
 60.045150756835937
 11
 28.691011428833008
 21
 60.045150756835937
  0
LINE
  8
0
  6
CONTINUOUS
 62
     3
 10
 28.691011428833008
 20
 58.84515380859375
 11
 28.691011428833008
 21
 71.245155334472656
  0
LINE
  8
0
  6
CONTINUOUS
 62
     3
 10
 46.191015243530273
 20
 69.645156860351563
 11
 43.691011428833008
 21
 69.645156860351563
  0
LINE
  8
0
  6
CONTINUOUS
 62
     3
 10
 43.691011428833008
 20
 69.645156860351563
 11
 43.691011428833008
 21
 60.445159912109375
  0
LINE
  8
0
  6
CONTINUOUS
 62
     3
 10
 43.691011428833008
 20
 60.445159912109375
 11
 46.191015243530273
 21
 60.445159912109375
  0
LINE
  8
0
  6
DOT
 62
     3
 10
 33.691011428833008
 20
 71.545158386230469
 11
 28.691011428833008
 21
 71.545158386230469
  0
LINE
  8
0
  6
DOT
 62
     3
 10
 28.691011428833008
 20
 71.545158386230469
 11
 28.691011428833008
 21
 71.245155334472656
  0
LINE
  8
0
  6
DOT
 62
     3
 10
 28.691011428833008
 20
 58.84515380859375
 11
 28.691011428833008
 21
 58.545150756835938
  0
LINE
  8
0
  6
DOT
 62
     3
 10
 28.691011428833008
 20
 58.545150756835938
 11
 33.691011428833008
 21
 58.545150756835938
  0
LINE
  8
0
  6
DOT
 62
     3
 10
 33.691011428833008
 20
 58.545150756835938
 11
 33.691011428833008
 21
 58.84515380859375
  0
LINE
  8
0
  6
DOT
 62
     3
 10
 33.691011428833008
 20
 71.245155334472656
 11
 28.691011428833008
 21
 71.245155334472656
  0
LINE
  8
0
  6
DOT
 62
     3
 10
 28.691011428833008
 20
 58.84515380859375
 11
 33.691011428833008
 21
 58.84515380859375
  0
LINE
  8
0
  6
DOT
 62
     3
 10
 33.691011428833008
 20
 71.545158386230469
 11
 33.691011428833008
 21
 71.245155334472656
  0
LINE
  8
0
  6
CONTINUOUS
 62
     3
 10
 44.991022109985352
 20
 44.645160675048828
 11
 44.991022109985352
 21
 35.445163726806641
  0
LINE
  8
0
  6
CONTINUOUS
 62
     3
 10
 28.691011428833008
 20
 45.045162200927734
 11
 33.691011428833008
 21
 45.045162200927734
  0
LINE
  8
0
  6
CONTINUOUS
 62
     3
 10
 33.691011428833008
 20
 46.245159149169922
 11
 33.691011428833008
 21
 33.845157623291016
  0
LINE
  8
0
  6
CONTINUOUS
 62
     3
 10
 33.691011428833008
 20
 35.045154571533203
 11
 28.691011428833008
 21
 35.045154571533203
  0
LINE
  8
0
  6
CONTINUOUS
 62
     3
 10
 28.691011428833008
 20
 33.845157623291016
 11
 28.691011428833008
 21
 46.245159149169922
  0
LINE
  8
0
  6
CONTINUOUS
 62
     3
 10
 46.191015243530273
 20
 44.645160675048828
 11
 43.691011428833008
 21
 44.645160675048828
  0
LINE
  8
0
  6
CONTINUOUS
 62
     3
 10
 43.691011428833008
 20
 44.645160675048828
 11
 43.691011428833008
 21
 35.445163726806641
  0
LINE
  8
0
  6
CONTINUOUS
 62
     3
 10
 43.691011428833008
 20
 35.445163726806641
 11
 46.191015243530273
 21
 35.445163726806641
  0
LINE
  8
0
  6
DOT
 62
     3
 10
 33.691011428833008
 20
 46.545162200927734
 11
 28.691011428833008
 21
 46.545162200927734
  0
LINE
  8
0
  6
DOT
 62
     3
 10
 28.691011428833008
 20
 46.545162200927734
 11
 28.691011428833008
 21
 46.245159149169922
  0
LINE
  8
0
  6
DOT
 62
     3
 10
 28.691011428833008
 20
 33.845157623291016
 11
 28.691011428833008
 21
 33.545154571533203
  0
LINE
  8
0
  6
DOT
 62
     3
 10
 28.691011428833008
 20
 33.545154571533203
 11
 33.691011428833008
 21
 33.545154571533203
  0
LINE
  8
0
  6
DOT
 62
     3
 10
 33.691011428833008
 20
 33.545154571533203
 11
 33.691011428833008
 21
 33.845157623291016
  0
LINE
  8
0
  6
DOT
 62
     3
 10
 33.691011428833008
 20
 46.245159149169922
 11
 28.691011428833008
 21
 46.245159149169922
  0
LINE
  8
0
  6
DOT
 62
     3
 10
 28.691011428833008
 20
 33.845157623291016
 11
 33.691011428833008
 21
 33.845157623291016
  0
LINE
  8
0
  6
DOT
 62
     3
 10
 33.691011428833008
 20
 46.545162200927734
 11
 33.691011428833008
 21
 46.245159149169922
  0
LINE
  8
0
  6
DASHDOT
 62
     3
 10
-49.266027450561523
 20
 65.045158386230469
 11
 49.266027450561523
 21
 65.045158386230469
  0
LINE
  8
0
  6
DASHDOT
 62
     3
 10
-49.266027450561523
 20
 40.045162200927734
 11
 49.266027450561523
 21
 40.045162200927734
  0
LINE
  8
0
  6
DASHDOT
 62
     7
 10
-50.564092636108398
 20
 27.545158386230469
 11
 50.395898818969727
 21
 27.545158386230469
  0
LINE
  8
0
  6
DASHDOT
 62
     3
 10
 71.994062423706055
 20
 65.045158386230469
 11
 104.75047373771667
 21
 65.045158386230469
  0
LINE
  8
0
  6
CONTINUOUS
 62
     3
 10
 101.5910120010376
 20
 70.145156860351563
 11
 96.291011810302734
 21
 70.145156860351563
  0
LINE
  8
0
  6
CONTINUOUS
 62
     3
 10
 96.291011810302734
 20
 70.145156860351563
 11
 96.291011810302734
 21
 59.945159912109375
  0
LINE
  8
0
  6
CONTINUOUS
 62
     3
 10
 96.291011810302734
 20
 59.945159912109375
 11
 101.5910120010376
 21
 59.945159912109375
  0
LINE
  8
0
  6
CONTINUOUS
 62
     3
 10
 100.39100122451782
 20
 59.945159912109375
 11
 100.39100122451782
 21
 70.145156860351563
  0
LINE
  8
0
  6
CONTINUOUS
 62
     3
 10
 78.791011810302734
 20
 69.645156860351563
 11
 78.791011810302734
 21
 60.445159912109375
  0
LINE
  8
0
  6
CONTINUOUS
 62
     3
 10
 78.791011810302734
 20
 69.645156860351563
 11
 75.591012954711914
 21
 69.645156860351563
  0
LINE
  8
0
  6
CONTINUOUS
 62
     3
 10
 75.591012954711914
 20
 60.445159912109375
 11
 78.791011810302734
 21
 60.445159912109375
  0
LINE
  8
0
  6
CONTINUOUS
 62
     3
 10
 76.791009902954102
 20
 69.645156860351563
 11
 76.791009902954102
 21
 60.445159912109375
  0
LINE
  8
0
  6
DASHDOT
 62
     7
 10
 107.8914999961853
 20
 27.545162200927734
 11
 67.955598831176758
 21
 27.545162200927734
  0
LINE
  8
0
  6
DASHDOT
 62
     3
 10
 71.994062423706055
 20
 40.045162200927734
 11
 104.75047373771667
 21
 40.045162200927734
  0
LINE
  8
0
  6
CONTINUOUS
 62
     3
 10
 101.5910120010376
 20
 45.145160675048828
 11
 96.291011810302734
 21
 45.145160675048828
  0
LINE
  8
0
  6
CONTINUOUS
 62
     3
 10
 96.291011810302734
 20
 45.145160675048828
 11
 96.291011810302734
 21
 34.945163726806641
  0
LINE
  8
0
  6
CONTINUOUS
 62
     3
 10
 96.291011810302734
 20
 34.945163726806641
 11
 101.5910120010376
 21
 34.945163726806641
  0
LINE
  8
0
  6
CONTINUOUS
 62
     3
 10
 100.39100122451782
 20
 34.945163726806641
 11
 100.39100122451782
 21
 45.145160675048828
  0
LINE
  8
0
  6
CONTINUOUS
 62
     3
 10
 78.791011810302734
 20
 44.645160675048828
 11
 78.791011810302734
 21
 35.445163726806641
  0
LINE
  8
0
  6
CONTINUOUS
 62
     3
 10
 78.791011810302734
 20
 44.645160675048828
 11
 75.591012954711914
 21
 44.645160675048828
  0
LINE
  8
0
  6
CONTINUOUS
 62
     3
 10
 75.591012954711914
 20
 35.445163726806641
 11
 78.791011810302734
 21
 35.445163726806641
  0
LINE
  8
0
  6
CONTINUOUS
 62
     3
 10
 76.791009902954102
 20
 44.645160675048828
 11
 76.791009902954102
 21
 35.445163726806641
  0
CIRCLE
  8
0
  6
CONTINUOUS
 62
     2
 10
-35.608983993530273
 20
 40.045162200927734
 40
 2
  0
LINE
  8
0
  6
CONTINUOUS
 62
     2
 10
-30.772420883178711
 20
 49.938678741455078
 11
-16.565893173217773
 21
 49.938678741455078
  0
TEXT
  8
0
  6
CONTINUOUS
 62
     2
 10
-28.390996932983398
 20
 50.688678741455078
 11
-18.890996932983398
 21
 50.688678741455078
 40
 2.5
 41
 0.8
  1
１－φ４
 50
 0
 72
  5
  0
LINE
  8
0
  6
CONTINUOUS
 62
     2
 10
-30.772420883178711
 20
 49.938678741455078
 11
-34.730611801147461
 21
 41.841945648193359
  0
LINE
  8
0
  6
CONTINUOUS
 62
     2
 10
-34.730611801147461
 20
 41.841945648193359
 11
-32.760369417255049
 21
 44.104277398559333
  0
LINE
  8
0
  6
CONTINUOUS
 62
     2
 10
-34.730611801147461
 20
 41.841945648193359
 11
-34.155497720266808
 21
 44.786303607744607
  0
LINE
  8
0
  6
DASHDOT
 62
     3
 10
 39.999992370605469
 20
-78.445991516113281
 11
 39.999992370605469
 21
-73.309280395507813
  0
LINE
  8
0
  6
DASHDOT
 62
     7
 10
 0
 20
-29.494829177856445
 11
 0
 21
-87.668251037597656
  0
LINE
  8
0
  6
CONTINUOUS
 62
     7
 10
-47.235588073730469
 20
-50.454826354980469
 11
-60.159980773925781
 21
-50.454826354980469
  0
LINE
  8
0
  6
CONTINUOUS
 62
     7
 10
-48.596977233886719
 20
-76.454833984375
 11
-60.159980773925781
 21
-76.454833984375
  0
LINE
  8
0
  6
CONTINUOUS
 62
     3
 10
-45.000038146972656
 20
-52.454837799072266
 11
-45.000038146972656
 21
-45.554824829101563
  0
ARC
  8
0
  6
CONTINUOUS
 62
     3
 10
-44.700035095214844
 20
-45.554824829101563
 40
 0.300000011920929
 50
 90.000004039712721
 51
-179.9999980615126
  0
LINE
  8
0
  6
CONTINUOUS
 62
     3
 10
-44.700035095214844
 20
-45.254840850830078
 11
-41.200019836425781
 21
-45.254840850830078
  0
LINE
  8
0
  6
CONTINUOUS
 62
     3
 10
-41.200019836425781
 20
-44.054832458496094
 11
-44.700035095214844
 21
-44.054832458496094
  0
LINE
  8
0
  6
CONTINUOUS
 62
     3
 10
-46.200035095214844
 20
-45.554824829101563
 11
-46.200035095214844
 21
-52.454837799072266
  0
LINE
  8
0
  6
CONTINUOUS
 62
     3
 10
-46.200035095214844
 20
-52.454837799072266
 11
-46.200019836425781
 21
-74.954841613769531
  0
ARC
  8
0
  6
CONTINUOUS
 62
     3
 10
-44.699989318847656
 20
-74.954841613769531
 40
 0.300000011920929
 50
-179.9999980615126
 51
-90.000000851989171
  0
ARC
  8
0
  6
CONTINUOUS
 62
     3
 10
-44.700035095214844
 20
-45.554824829101563
 40
 1.5
 50
 90.000004039712721
 51
-179.9999980615126
  0
ARC
  8
0
  6
CONTINUOUS
 62
     3
 10
-44.700035095214844
 20
-51.954830169677734
 40
 1.5
 50
 90.000004039712721
 51
 101.537375367397
  0
ARC
  8
0
  6
DOT
 62
     3
 10
-44.700035095214844
 20
-51.954830169677734
 40
 1.5
 50
 101.537375367397
 51
-179.9999980615126
  0
LINE
  8
0
  6
CONTINUOUS
 62
     3
 10
-44.700035095214844
 20
-50.454837799072266
 11
 45.299980163574219
 21
-50.454837799072266
  0
LINE
  8
0
  6
CONTINUOUS
 62
     3
 10
 46.799980163574219
 20
-51.954830169677734
 11
 46.799980163574219
 21
-74.954841613769531
  0
ARC
  8
0
  6
CONTINUOUS
 62
     3
 10
 45.299980163574219
 20
-74.954841613769531
 40
 1.5
 50
-90.000000851989171
 51
 0
  0
ARC
  8
0
  6
CONTINUOUS
 62
     3
 10
 45.299980163574219
 20
-51.954830169677734
 40
 1.5
 50
 0
 51
 90.000004039712721
  0
LINE
  8
0
  6
CONTINUOUS
 62
     3
 10
 45.599983215332031
 20
-74.954841613769531
 11
 45.599983215332031
 21
-51.954830169677734
  0
ARC
  8
0
  6
CONTINUOUS
 62
     3
 10
 45.299980163574219
 20
-74.954841613769531
 40
 0.300000011920929
 50
-90.000000851989171
 51
 0
  0
ARC
  8
0
  6
CONTINUOUS
 62
     3
 10
 45.299980163574219
 20
-51.954830169677734
 40
 0.300000011920929
 50
 0
 51
 90.000004039712721
  0
LINE
  8
0
  6
CONTINUOUS
 62
     3
 10
-44.700035095214844
 20
-51.654827117919922
 11
 29.299980163574219
 21
-51.654827117919922
  0
LINE
  8
0
  6
DOT
 62
     3
 10
 29.299980163574219
 20
-51.654827117919922
 11
 34.299995422363281
 21
-51.654827117919922
  0
LINE
  8
0
  6
CONTINUOUS
 62
     3
 10
 34.299995422363281
 20
-51.654827117919922
 11
 45.299980163574219
 21
-51.654827117919922
  0
ARC
  8
0
  6
CONTINUOUS
 62
     3
 10
-44.700035095214844
 20
-51.954830169677734
 40
 0.300000011920929
 50
 90.000004039712721
 51
-179.9999980615126
  0
LINE
  8
0
  6
CONTINUOUS
 62
     3
 10
-44.699989318847656
 20
-76.454833984375
 11
-30.700035095214844
 21
-76.454833984375
  0
ARC
  8
0
  6
CONTINUOUS
 62
     3
 10
-44.699989318847656
 20
-74.954841613769531
 40
 1.5
 50
-179.9999980615126
 51
-90.000000851989171
  0
LINE
  8
0
  6
CONTINUOUS
 62
     3
 10
-30.700035095214844
 20
-76.454833984375
 11
-30.700035095214844
 21
-75.254844665527344
  0
LINE
  8
0
  6
CONTINUOUS
 62
     3
 10
-44.699989318847656
 20
-75.254844665527344
 11
-30.700035095214844
 21
-75.254844665527344
  0
LINE
  8
0
  6
DASHDOT
 62
     3
 10
-35.000022888183594
 20
-78.94732666015625
 11
-35.000022888183594
 21
-72.972747802734375
  0
LINE
  8
0
  6
DOT
 62
     3
 10
-37.099998474121094
 20
-75.254844665527344
 11
-37.099998474121094
 21
-76.454833984375
  0
LINE
  8
0
  6
DOT
 62
     3
 10
-32.899986267089844
 20
-75.254844665527344
 11
-32.899986267089844
 21
-76.454833984375
  0
LINE
  8
0
  6
CONTINUOUS
 62
     3
 10
 34.299995422363281
 20
-50.454837799072266
 11
 34.299995422363281
 21
-53.854854583740234
  0
LINE
  8
0
  6
CONTINUOUS
 62
     3
 10
 29.299980163574219
 20
-53.854854583740234
 11
 29.299980163574219
 21
-50.454837799072266
  0
LINE
  8
0
  6
CONTINUOUS
 62
     3
 10
 29.299980163574219
 20
-52.654838562011719
 11
 34.299995422363281
 21
-52.654838562011719
  0
LINE
  8
0
  6
CONTINUOUS
 62
     3
 10
 29.299980163574219
 20
-53.854854583740234
 11
 34.299995422363281
 21
-53.854854583740234
  0
LINE
  8
0
  6
CONTINUOUS
 62
     3
 10
-28.700004577636719
 20
-50.454837799072266
 11
-28.700004577636719
 21
-51.654827117919922
  0
LINE
  8
0
  6
CONTINUOUS
 62
     3
 10
-45.000038146972656
 20
-52.454837799072266
 11
-46.200035095214844
 21
-52.454837799072266
  0
LINE
  8
0
  6
CONTINUOUS
 62
     3
 10
 44.299995422363281
 20
-51.654804229736328
 11
 44.299995422363281
 21
-50.454814910888672
  0
LINE
  8
0
  6
CONTINUOUS
 62
     3
 10
 45.599983215332031
 20
-53.654853820800781
 11
 46.799980163574219
 21
-53.654853820800781
  0
LINE
  8
0
  6
CONTINUOUS
 62
     3
 10
-41.200019836425781
 20
-44.054832458496094
 11
-41.200019836425781
 21
-45.254840850830078
  0
LINE
  8
0
  6
CONTINUOUS
 62
     3
 10
 45.299980163574219
 20
-75.254844665527344
 11
 34.799964904785156
 21
-75.254844665527344
  0
LINE
  8
0
  6
CONTINUOUS
 62
     3
 10
 45.299980163574219
 20
-76.454833984375
 11
 34.799964904785156
 21
-76.454833984375
  0
LINE
  8
0
  6
DOT
 62
     3
 10
 41.999984741210938
 20
-75.254844665527344
 11
 41.999984741210938
 21
-76.454833984375
  0
LINE
  8
0
  6
CONTINUOUS
 62
     3
 10
-45.000038146972656
 20
-51.954830169677734
 11
-45.000007629394531
 21
-74.954841613769531
  0
LINE
  8
0
  6
CONTINUOUS
 62
     3
 10
 34.799964904785156
 20
-75.254844665527344
 11
 34.799964904785156
 21
-76.454833984375
  0
LINE
  8
0
  6
CONTINUOUS
 62
     7
 10
-46.200019836425781
 20
-77.628227233886719
 11
-46.200019836425781
 21
-92.414833068847656
  0
LINE
  8
0
  6
CONTINUOUS
 62
     7
 10
 39.999992370605469
 20
-73.309280395507813
 11
 39.999992370605469
 21
-44.494831085205078
  0
TEXT
  8
0
  6
CONTINUOUS
 62
     7
 10
-9.0000213623046879
 20
-94.690696716308594
 11
 8.9999786376953139
 21
-94.690696716308594
 40
 3.5
 41
 0.8
  1
（断面図）
 50
 0
 72
  5
  0
LINE
  8
0
  6
CONTINUOUS
 62
     7
 10
-35.000007629394531
 20
-44.494831085205078
 11
-35.000022888183594
 21
-72.972747802734375
  0
LINE
  8
0
  6
CONTINUOUS
 62
     7
 10
-35.000022888183594
 20
-78.94732666015625
 11
-35.000022888183594
 21
-87.414840698242187
  0
LINE
  8
0
  6
CONTINUOUS
 62
     7
 10
-46.200019836425781
 20
-86.454841613769531
 11
-35.000022888183594
 21
-86.454841613769531
  0
LINE
  8
0
  6
CONTINUOUS
 62
     7
 10
-46.200019836425781
 20
-86.454841613769531
 11
-43.302242357558576
 21
-87.231298749077098
  0
LINE
  8
0
  6
CONTINUOUS
 62
     7
 10
-46.200019836425781
 20
-86.454841613769531
 11
-43.302242357558576
 21
-85.678384478461965
  0
LINE
  8
0
  6
CONTINUOUS
 62
     7
 10
-35.000022888183594
 20
-86.454841613769531
 11
-37.897800367050799
 21
-85.678384478461965
  0
LINE
  8
0
  6
CONTINUOUS
 62
     7
 10
-35.000022888183594
 20
-86.454841613769531
 11
-37.897800367050799
 21
-87.231298749077098
  0
TEXT
  8
0
  6
CONTINUOUS
 62
     7
 10
-44.550007629394528
 20
-85.494850158691406
 11
-36.65000762939453
 21
-85.494850158691406
 40
 2
 41
 0.8
  1
１１．２
 50
 0
 72
  5
  0
LINE
  8
0
  6
CONTINUOUS
 62
     7
 10
-45.180015563964844
 20
-86.454841613769531
 11
-35.000022888183594
 21
-86.454841613769531
  0
LINE
  8
0
  6
CONTINUOUS
 62
     7
 10
-35.000022888183594
 20
-86.454841613769531
 11
-37.897800367050799
 21
-85.678384478461965
  0
LINE
  8
0
  6
CONTINUOUS
 62
     7
 10
-35.000022888183594
 20
-86.454841613769531
 11
-37.897800367050799
 21
-87.231298749077098
  0
LINE
  8
0
  6
CONTINUOUS
 62
     7
 10
-35.000022888183594
 20
-86.454841613769531
 11
-30.700035095214844
 21
-86.454841613769531
  0
TEXT
  8
0
  6
CONTINUOUS
 62
     7
 10
-29.100010681152344
 20
-85.494850158691406
 11
-23.300010681152344
 21
-85.494850158691406
 40
 2
 41
 0.8
  1
４．３
 50
 0
 72
  5
  0
LINE
  8
0
  6
CONTINUOUS
 62
     7
 10
-21.700019836425781
 20
-86.454841613769531
 11
-30.700035095214844
 21
-86.454841613769531
  0
LINE
  8
0
  6
CONTINUOUS
 62
     7
 10
-30.700035095214844
 20
-86.454841613769531
 11
-27.802257616347639
 21
-87.231298749077098
  0
LINE
  8
0
  6
CONTINUOUS
 62
     7
 10
-30.700035095214844
 20
-86.454841613769531
 11
-27.802257616347639
 21
-85.678384478461965
  0
LINE
  8
0
  6
CONTINUOUS
 62
     3
 10
 46.799980163574219
 20
-71.154838562011719
 11
 45.599979400634766
 21
-71.154838562011719
  0
LINE
  8
0
  6
CONTINUOUS
 62
     3
 10
 44.299980163574219
 20
-76.454833984375
 11
 44.299980163574219
 21
-75.254837036132812
  0
LINE
  8
0
  6
DOT
 62
     3
 10
 35.499992370605469
 20
-50.454837799072266
 11
 35.499992370605469
 21
-51.654842376708984
  0
LINE
  8
0
  6
DOT
 62
     3
 10
 44.499992370605469
 20
-50.454837799072266
 11
 44.499992370605469
 21
-51.654842376708984
  0
LINE
  8
256
  6
CONTINUOUS
 62
     7
 10
 104.99998474121094
 20
-121.5
 11
 200
 21
-121.5
  0
LINE
  8
256
  6
CONTINUOUS
 62
     7
 10
 170.99998474121094
 20
-109.5
 11
 170.99998474121094
 21
-121.5
  0
TEXT
  8
256
  6
CONTINUOUS
 62
     7
 10
 112.5
 20
-134.25
 11
 160.5
 21
-134.25
 40
 6
 41
 1
  1
ＢＨ２６ＳＰ－４
 50
 0
 72
  5
  0
TEXT
  8
256
  6
CONTINUOUS
 62
     7
 10
 117.99998474121094
 20
-119.75
 11
 157.99998474121094
 21
-119.75
 40
 5
 41
 0.8
  1
分岐ＭＣＣＢ取付金具
 50
 0
 72
  5
  0
TEXT
  8
256
  6
CONTINUOUS
 62
     7
 10
 106.29998779296875
 20
-112.4499633789062
 11
 111.29998779296875
 21
-112.4499633789062
 40
 2.5
 41
 0.8
  1
品名
 50
 0
 72
  5
  0
TEXT
  8
256
  6
CONTINUOUS
 62
     7
 10
 106.29998779296875
 20
-124.45003051757811
 11
 111.29998779296875
 21
-124.45003051757811
 40
 2.5
 41
 0.8
  1
品番
 50
 0
 72
  5
  0
TEXT
  8
256
  6
CONTINUOUS
 62
     7
 10
 180.55000000000001
 20
-117.25
 11
 189.94999999999999
 21
-117.25
 40
 3.5
 41
 0.8
  1
４個用
 50
 0
 72
  5
  0
LINE
  8
256
  6
CONTINUOUS
 62
     7
 10
 104.99998474121094
 20
-139.5
 11
 104.99998474121094
 21
-109.5
  0
LINE
  8
256
  6
CONTINUOUS
 62
     7
 10
 104.99998474121094
 20
-109.5
 11
 200
 21
-109.5
  0
LINE
  8
256
  6
CONTINUOUS
 62
     7
 10
 200
 20
-139.5
 11
-193.30000000000001
 21
-139.49999999999994
  0
LINE
  8
0
  6
CONTINUOUS
 62
     7
 10
-59.199974060058594
 20
-50.454826354980469
 11
-59.199974060058594
 21
-76.454833984375
  0
LINE
  8
0
  6
CONTINUOUS
 62
     7
 10
-59.199974060058594
 20
-50.454826354980469
 11
-59.976431195366153
 21
-53.352603833847674
  0
LINE
  8
0
  6
CONTINUOUS
 62
     7
 10
-59.199974060058594
 20
-50.454826354980469
 11
-58.423516924751034
 21
-53.352603833847674
  0
LINE
  8
0
  6
CONTINUOUS
 62
     7
 10
-59.199974060058594
 20
-76.454833984375
 11
-58.423516924751034
 21
-73.557056505507802
  0
LINE
  8
0
  6
CONTINUOUS
 62
     7
 10
-59.199974060058594
 20
-76.454833984375
 11
-59.976431195366153
 21
-73.557056505507802
  0
TEXT
  8
0
  6
CONTINUOUS
 62
     7
 10
-60.159980738956669
 20
-65.554836992421428
 11
-60.159980900688815
 21
-61.854836992421419
 40
 2
 41
 0.8
  1
26
 50
 90.000004039712721
 72
  5
  0
LINE
  8
0
  6
CONTINUOUS
 62
     7
 10
-47.095359802246094
 20
-44.054836273193359
 11
-60.159980773925781
 21
-44.054836273193359
  0
LINE
  8
0
  6
CONTINUOUS
 62
     7
 10
-59.199974060058594
 20
-50.454826354980469
 11
-59.199974060058594
 21
-44.054836273193359
  0
LINE
  8
0
  6
CONTINUOUS
 62
     7
 10
-59.199974060058594
 20
-50.454826354980469
 11
-58.423516924751034
 21
-47.557048876113264
  0
LINE
  8
0
  6
CONTINUOUS
 62
     7
 10
-59.199974060058594
 20
-50.454826354980469
 11
-59.976431195366153
 21
-47.557048876113264
  0
LINE
  8
0
  6
CONTINUOUS
 62
     7
 10
-59.199974060058594
 20
-44.054836273193359
 11
-59.976431195366153
 21
-46.952613752060564
  0
LINE
  8
0
  6
CONTINUOUS
 62
     7
 10
-59.199974060058594
 20
-44.054836273193359
 11
-58.423516924751034
 21
-46.952613752060564
  0
TEXT
  8
0
  6
CONTINUOUS
 62
     7
 10
-60.159980738956669
 20
-50.154824022450718
 11
-60.15998099248273
 21
-44.354824022450728
 40
 2
 41
 0.8
  1
6.4
 50
 90.000004039712721
 72
  5
  0
LINE
  8
0
  6
CONTINUOUS
 62
     7
 10
 34.799964904785156
 20
-78.454833984375
 11
 34.799964904785156
 21
-87.414840698242187
  0
LINE
  8
0
  6
CONTINUOUS
 62
     7
 10
 39.999992370605469
 20
-78.445991516113281
 11
 39.999992370605469
 21
-87.414840698242187
  0
LINE
  8
0
  6
CONTINUOUS
 62
     7
 10
 34.799964904785156
 20
-86.454841613769531
 11
 39.999992370605469
 21
-86.454841613769531
  0
LINE
  8
0
  6
CONTINUOUS
 62
     7
 10
 34.799964904785156
 20
-86.454841613769531
 11
 37.697742383652361
 21
-87.231298749077098
  0
LINE
  8
0
  6
CONTINUOUS
 62
     7
 10
 34.799964904785156
 20
-86.454841613769531
 11
 37.697742383652361
 21
-85.678384478461965
  0
LINE
  8
0
  6
CONTINUOUS
 62
     7
 10
 39.999992370605469
 20
-86.454841613769531
 11
 37.102214891738264
 21
-85.678384478461965
  0
LINE
  8
0
  6
CONTINUOUS
 62
     7
 10
 39.999992370605469
 20
-86.454841613769531
 11
 37.102214891738264
 21
-87.231298749077098
  0
TEXT
  8
0
  6
CONTINUOUS
 62
     7
 10
 34.749980163574222
 20
-85.494850158691406
 11
 39.549980163574219
 21
-85.494850158691406
 40
 2
 41
 0.8
  1
5.2
 50
 0
 72
  5
  0
LINE
  8
0
  6
CONTINUOUS
 62
     7
 10
 46.799980163574219
 20
-78.454833984375
 11
 46.799980163574219
 21
-87.414840698242187
  0
LINE
  8
0
  6
CONTINUOUS
 62
     7
 10
 39.999992370605469
 20
-86.454841613769531
 11
 46.799980163574219
 21
-86.454841613769531
  0
LINE
  8
0
  6
CONTINUOUS
 62
     7
 10
 39.999992370605469
 20
-86.454841613769531
 11
 42.897769849472674
 21
-87.231298749077098
  0
LINE
  8
0
  6
CONTINUOUS
 62
     7
 10
 39.999992370605469
 20
-86.454841613769531
 11
 42.897769849472674
 21
-85.678384478461965
  0
LINE
  8
0
  6
CONTINUOUS
 62
     7
 10
 46.799980163574219
 20
-86.454841613769531
 11
 43.902202684707014
 21
-85.678384478461965
  0
LINE
  8
0
  6
CONTINUOUS
 62
     7
 10
 46.799980163574219
 20
-86.454841613769531
 11
 43.902202684707014
 21
-87.231298749077098
  0
TEXT
  8
0
  6
CONTINUOUS
 62
     7
 10
 40.749995422363284
 20
-85.494850158691406
 11
 45.549995422363281
 21
-85.494850158691406
 40
 2
 41
 0.8
  1
6.8
 50
 0
 72
  5
  0
LINE
  8
0
  6
CONTINUOUS
 62
     7
 10
 34.799964904785156
 20
-86.954833984375
 11
 34.799964904785156
 21
-92.414833068847656
  0
LINE
  8
0
  6
CONTINUOUS
 62
     7
 10
 46.799980163574219
 20
-86.954833984375
 11
 46.799980163574219
 21
-92.414833068847656
  0
LINE
  8
0
  6
CONTINUOUS
 62
     7
 10
 34.799964904785156
 20
-91.454841613769531
 11
 46.799980163574219
 21
-91.454841613769531
  0
LINE
  8
0
  6
CONTINUOUS
 62
     7
 10
 34.799964904785156
 20
-91.454841613769531
 11
 37.697742383652361
 21
-92.231298749077098
  0
LINE
  8
0
  6
CONTINUOUS
 62
     7
 10
 34.799964904785156
 20
-91.454841613769531
 11
 37.697742383652361
 21
-90.678384478461965
  0
LINE
  8
0
  6
CONTINUOUS
 62
     7
 10
 46.799980163574219
 20
-91.454841613769531
 11
 43.902202684707014
 21
-90.678384478461965
  0
LINE
  8
0
  6
CONTINUOUS
 62
     7
 10
 46.799980163574219
 20
-91.454841613769531
 11
 43.902202684707014
 21
-92.231298749077098
  0
TEXT
  8
0
  6
CONTINUOUS
 62
     7
 10
 38.949969482421878
 20
-90.494842529296875
 11
 42.649969482421881
 21
-90.494842529296875
 40
 2
 41
 0.8
  1
12
 50
 0
 72
  5
  0
LINE
  8
0
  6
CONTINUOUS
 62
     7
 10
 39.999992370605469
 20
-45.454833984375
 11
 0
 21
-45.454833984375
  0
LINE
  8
0
  6
CONTINUOUS
 62
     7
 10
 39.999992370605469
 20
-45.454833984375
 11
 37.102214891738264
 21
-44.67837684906744
  0
LINE
  8
0
  6
CONTINUOUS
 62
     7
 10
 39.999992370605469
 20
-45.454833984375
 11
 37.102214891738264
 21
-46.23129111968256
  0
LINE
  8
0
  6
CONTINUOUS
 62
     7
 10
 0
 20
-45.454833984375
 11
 2.897777478867205
 21
-46.23129111968256
  0
LINE
  8
0
  6
CONTINUOUS
 62
     7
 10
 0
 20
-45.454833984375
 11
 2.897777478867205
 21
-44.67837684906744
  0
TEXT
  8
0
  6
CONTINUOUS
 62
     7
 10
 18.149996948242187
 20
-44.494834899902344
 11
 21.849996948242186
 21
-44.494834899902344
 40
 2
 41
 0.8
  1
40
 50
 0
 72
  5
  0
LINE
  8
0
  6
CONTINUOUS
 62
     7
 10
-35.000007629394531
 20
-45.454833984375
 11
 0
 21
-45.454833984375
  0
LINE
  8
0
  6
CONTINUOUS
 62
     7
 10
-35.000007629394531
 20
-45.454833984375
 11
-32.102230150527326
 21
-46.23129111968256
  0
LINE
  8
0
  6
CONTINUOUS
 62
     7
 10
-35.000007629394531
 20
-45.454833984375
 11
-32.102230150527326
 21
-44.67837684906744
  0
LINE
  8
0
  6
CONTINUOUS
 62
     7
 10
 0
 20
-45.454833984375
 11
-2.897777478867205
 21
-44.67837684906744
  0
LINE
  8
0
  6
CONTINUOUS
 62
     7
 10
 0
 20
-45.454833984375
 11
-2.897777478867205
 21
-46.23129111968256
  0
TEXT
  8
0
  6
CONTINUOUS
 62
     7
 10
-19.350010681152344
 20
-44.494834899902344
 11
-15.650010681152345
 21
-44.494834899902344
 40
 2
 41
 0.8
  1
35
 50
 0
 72
  5
  0
LINE
  8
0
  6
CONTINUOUS
 62
     7
 10
-59.699989318847656
 20
-44.054836273193359
 11
-65.159996032714844
 21
-44.054836273193359
  0
LINE
  8
0
  6
CONTINUOUS
 62
     7
 10
-59.699989318847656
 20
-76.454833984375
 11
-65.159996032714844
 21
-76.454833984375
  0
LINE
  8
0
  6
CONTINUOUS
 62
     7
 10
-64.199989318847656
 20
-44.054836273193359
 11
-64.199989318847656
 21
-76.454833984375
  0
LINE
  8
0
  6
CONTINUOUS
 62
     7
 10
-64.199989318847656
 20
-44.054836273193359
 11
-64.976446454155223
 21
-46.952613752060564
  0
LINE
  8
0
  6
CONTINUOUS
 62
     7
 10
-64.199989318847656
 20
-44.054836273193359
 11
-63.423532183540097
 21
-46.952613752060564
  0
LINE
  8
0
  6
CONTINUOUS
 62
     7
 10
-64.199989318847656
 20
-76.454833984375
 11
-63.423532183540097
 21
-73.557056505507802
  0
LINE
  8
0
  6
CONTINUOUS
 62
     7
 10
-64.199989318847656
 20
-76.454833984375
 11
-64.976446454155223
 21
-73.557056505507802
  0
TEXT
  8
0
  6
CONTINUOUS
 62
     7
 10
-65.159995997745725
 20
-64.204830888905803
 11
-65.159996343065714
 21
-56.304830888905805
 40
 2
 41
 0.8
  1
32.4
 50
 90.000004039712721
 72
  5
  0
LINE
  8
0
  6
CONTINUOUS
 62
     7
 10
-30.700035095214844
 20
-77.628227233886719
 11
-30.700035095214844
 21
-92.414833068847656
  0
LINE
  8
0
  6
CONTINUOUS
 62
     7
 10
-46.200019836425781
 20
-91.454841613769531
 11
-30.700035095214844
 21
-91.454841613769531
  0
LINE
  8
0
  6
CONTINUOUS
 62
     7
 10
-46.200019836425781
 20
-91.454841613769531
 11
-43.302242357558576
 21
-92.231298749077098
  0
LINE
  8
0
  6
CONTINUOUS
 62
     7
 10
-46.200019836425781
 20
-91.454841613769531
 11
-43.302242357558576
 21
-90.678384478461965
  0
LINE
  8
0
  6
CONTINUOUS
 62
     7
 10
-30.700035095214844
 20
-91.454841613769531
 11
-33.597812574082049
 21
-90.678384478461965
  0
LINE
  8
0
  6
CONTINUOUS
 62
     7
 10
-30.700035095214844
 20
-91.454841613769531
 11
-33.597812574082049
 21
-92.231298749077098
  0
TEXT
  8
0
  6
CONTINUOUS
 62
     7
 10
-42.400028991699216
 20
-90.494842529296875
 11
-34.500028991699217
 21
-90.494842529296875
 40
 2
 41
 0.8
  1
15.5
 50
 0
 72
  5
  0
LINE
  8
256
  6
CONTINUOUS
 62
     7
 10
-193.30000000000001
 20
 124.99999645625348
 11
-93.300000000000011
 21
 124.99999645625348
  0
LINE
  8
256
  6
CONTINUOUS
 62
     7
 10
-93.300000000000011
 20
 124.9999964562535
 11
-93.300000000000011
 21
 136.99999721136808
  0
TEXT
  8
256
  6
CONTINUOUS
 62
     7
 10
-188.30000000000001
 20
 127.99999604817611
 11
-140.30000000000001
 21
 127.99999604817611
 40
 6
 41
 1
  1
ＬＢ－Ｄ７１２０
 50
 0
 72
  5
  0
LINE
  8
256
  6
CONTINUOUS
 62
     7
 10
-193.30000000000001
 20
 136.99999721136808
 11
-193.30000000000001
 21
-139.49999999999994
  0
LINE
  8
256
  6
CONTINUOUS
 62
     7
 10
 200
 20
 136.99999721136808
 11
 200
 21
-139.5
  0
LINE
  8
256
  6
CONTINUOUS
 62
     7
 10
-193.30000000000001
 20
 136.99999721136808
 11
 200
 21
 136.99999721136808
  0
TEXT
  8
0
  6
CONTINUOUS
 62
     7
 10
-34.067284774780276
 20
 112.93868255615234
 11
-20.067284774780273
 21
 112.93868255615234
 40
 3
 41
 0.8
  1
４－切抜き
 50
 0
 72
  5
  0
LINE
  8
0
  6
CONTINUOUS
 62
     7
 10
-35.979223251342773
 20
 112.43869018554687
 11
-19.559347152709961
 21
 112.43869018554687
  0
LINE
  8
0
  6
CONTINUOUS
 62
     7
 10
-35.979223251342773
 20
 112.43869018554687
 11
-38.591161727905273
 21
 92.289337158203125
  0
LINE
  8
0
  6
CONTINUOUS
 62
     7
 10
-38.591161727905273
 20
 92.289337158203125
 11
-37.448628260902908
 21
 95.063254474342799
  0
LINE
  8
0
  6
CONTINUOUS
 62
     7
 10
-38.591161727905273
 20
 92.289337158203125
 11
-38.98865737887715
 21
 95.262886755478817
  0
LINE
  8
0
  6
CONTINUOUS
 62
     7
 10
-48.808965682983398
 20
 101.045166015625
 11
-65.768972396850586
 21
 101.045166015625
  0
LINE
  8
0
  6
CONTINUOUS
 62
     7
 10
-48.808965682983398
 20
 4.0451664924621582
 11
-65.768972396850586
 21
 4.0451664924621582
  0
LINE
  8
0
  6
CONTINUOUS
 62
     7
 10
-64.808996200561523
 20
 101.045166015625
 11
-64.808996200561523
 21
 4.0451664924621582
  0
LINE
  8
0
  6
CONTINUOUS
 62
     7
 10
-64.808996200561523
 20
 101.045166015625
 11
-65.58545333586909
 21
 98.147388536757802
  0
LINE
  8
0
  6
CONTINUOUS
 62
     7
 10
-64.808996200561523
 20
 101.045166015625
 11
-64.032539065253957
 21
 98.147388536757802
  0
LINE
  8
0
  6
CONTINUOUS
 62
     7
 10
-64.808996200561523
 20
 4.0451664924621582
 11
-64.032539065253957
 21
 6.9429439713293633
  0
LINE
  8
0
  6
CONTINUOUS
 62
     7
 10
-64.808996200561523
 20
 4.0451664924621582
 11
-65.58545333586909
 21
 6.9429439713293633
  0
TEXT
  8
0
  6
CONTINUOUS
 62
     7
 10
-65.768987620670529
 20
 50.695166822275844
 11
-65.768987782402675
 21
 54.395166822275847
 40
 2
 41
 0.8
  1
97
 50
 90.000004039712721
 72
  5
  0
LINE
  8
0
  6
CONTINUOUS
 62
     7
 10
 62.191019058227539
 20
 77.545166015625
 11
 62.191019058227539
 21
 101.045166015625
  0
LINE
  8
0
  6
CONTINUOUS
 62
     7
 10
 62.191019058227539
 20
 77.545166015625
 11
 62.967476193535099
 21
 80.442943494492198
  0
LINE
  8
0
  6
CONTINUOUS
 62
     7
 10
 62.191019058227539
 20
 77.545166015625
 11
 61.41456192291998
 21
 80.442943494492198
  0
LINE
  8
0
  6
CONTINUOUS
 62
     7
 10
 62.191019058227539
 20
 101.045166015625
 11
 61.41456192291998
 21
 98.147388536757802
  0
LINE
  8
0
  6
CONTINUOUS
 62
     7
 10
 62.191019058227539
 20
 101.045166015625
 11
 62.967476193535099
 21
 98.147388536757802
  0
TEXT
  8
0
  6
CONTINUOUS
 62
     7
 10
 61.231020008723995
 20
 85.345164533457478
 11
 61.231019663404012
 21
 93.245164533457483
 40
 2
 41
 0.8
  1
23.5
 50
 90.000004039712721
 72
  5
  0
LINE
  8
0
  6
CONTINUOUS
 62
     7
 10
 48.391016006469727
 20
 4.0451602935791016
 11
 63.151018142700195
 21
 4.0451602935791016
  0
LINE
  8
0
  6
CONTINUOUS
 62
     7
 10
 62.191019058227539
 20
 4.0451602935791016
 11
 62.191019058227539
 21
 27.545156478881836
  0
LINE
  8
0
  6
CONTINUOUS
 62
     7
 10
 62.191019058227539
 20
 4.0451602935791016
 11
 62.967476193535099
 21
 6.9429377724463066
  0
LINE
  8
0
  6
CONTINUOUS
 62
     7
 10
 62.191019058227539
 20
 4.0451602935791016
 11
 61.41456192291998
 21
 6.9429377724463066
  0
LINE
  8
0
  6
CONTINUOUS
 62
     7
 10
 62.191019058227539
 20
 27.545156478881836
 11
 61.41456192291998
 21
 24.647379000014631
  0
LINE
  8
0
  6
CONTINUOUS
 62
     7
 10
 62.191019058227539
 20
 27.545156478881836
 11
 62.967476193535099
 21
 24.647379000014631
  0
TEXT
  8
0
  6
CONTINUOUS
 62
     7
 10
 61.231020008723995
 20
 11.845159765085906
 11
 61.231019663404012
 21
 19.745159765085901
 40
 2
 41
 0.8
  1
23.5
 50
 90.000004039712721
 72
  5
  0
LINE
  8
0
  6
CONTINUOUS
 62
     7
 10
-46.808965682983398
 20
-16.954833984375
 11
-0.6089763641357422
 21
-16.954833984375
  0
LINE
  8
0
  6
CONTINUOUS
 62
     7
 10
-46.808965682983398
 20
-16.954833984375
 11
-43.911188204116193
 21
-17.731291119682563
  0
LINE
  8
0
  6
CONTINUOUS
 62
     7
 10
-46.808965682983398
 20
-16.954833984375
 11
-43.911188204116193
 21
-16.178376849067437
  0
LINE
  8
0
  6
CONTINUOUS
 62
     7
 10
-0.6089763641357422
 20
-16.954833984375
 11
-3.5067538430029472
 21
-16.178376849067437
  0
LINE
  8
0
  6
CONTINUOUS
 62
     7
 10
-0.6089763641357422
 20
-16.954833984375
 11
-3.5067538430029472
 21
-17.731291119682563
  0
TEXT
  8
0
  6
CONTINUOUS
 62
     7
 10
-27.658983993530274
 20
-15.994831085205078
 11
-19.758983993530276
 21
-15.994831085205078
 40
 2
 41
 0.8
  1
46.2
 50
 0
 72
  5
  0
LINE
  8
0
  6
CONTINUOUS
 62
     7
 10
-0.6089763641357422
 20
-16.954833984375
 11
 46.191015243530273
 21
-16.954833984375
  0
LINE
  8
0
  6
CONTINUOUS
 62
     7
 10
-0.6089763641357422
 20
-16.954833984375
 11
 2.2888011147314629
 21
-17.731291119682563
  0
LINE
  8
0
  6
CONTINUOUS
 62
     7
 10
-0.6089763641357422
 20
-16.954833984375
 11
 2.2888011147314629
 21
-16.178376849067437
  0
LINE
  8
0
  6
CONTINUOUS
 62
     7
 10
 46.191015243530273
 20
-16.954833984375
 11
 43.293237764663068
 21
-16.178376849067437
  0
LINE
  8
0
  6
CONTINUOUS
 62
     7
 10
 46.191015243530273
 20
-16.954833984375
 11
 43.293237764663068
 21
-17.731291119682563
  0
TEXT
  8
0
  6
CONTINUOUS
 62
     7
 10
 18.841016006469726
 20
-15.994831085205078
 11
 26.741016006469724
 21
-15.994831085205078
 40
 2
 41
 0.8
  1
46.8
 50
 0
 72
  5
  0
LINE
  8
0
  6
CONTINUOUS
 62
     7
 10
-60.308996200561523
 20
 90.045166015625
 11
-60.768987655639648
 21
 90.045166015625
  0
LINE
  8
0
  6
CONTINUOUS
 62
     7
 10
-59.808996200561523
 20
 101.045166015625
 11
-59.808996200561523
 21
 90.045166015625
  0
LINE
  8
0
  6
CONTINUOUS
 62
     7
 10
-59.808996200561523
 20
 101.045166015625
 11
-60.585453335869083
 21
 98.147388536757802
  0
LINE
  8
0
  6
CONTINUOUS
 62
     7
 10
-59.808996200561523
 20
 101.045166015625
 11
-59.032539065253964
 21
 98.147388536757802
  0
LINE
  8
0
  6
CONTINUOUS
 62
     7
 10
-59.808996200561523
 20
 90.045166015625
 11
-59.032539065253964
 21
 92.942943494492198
  0
LINE
  8
0
  6
CONTINUOUS
 62
     7
 10
-59.808996200561523
 20
 90.045166015625
 11
-60.585453335869083
 21
 92.942943494492198
  0
TEXT
  8
0
  6
CONTINUOUS
 62
     7
 10
-60.768987620670536
 20
 93.695163007578572
 11
-60.768987782402682
 21
 97.395163007578574
 40
 2
 41
 0.8
  1
11
 50
 90.000004039712721
 72
  5
  0
LINE
  8
0
  6
CONTINUOUS
 62
     7
 10
-59.808996200561523
 20
 90.045166015625
 11
-59.808996200561523
 21
 65.045158386230469
  0
LINE
  8
0
  6
CONTINUOUS
 62
     7
 10
-59.808996200561523
 20
 90.045166015625
 11
-60.585453335869083
 21
 87.147388536757802
  0
LINE
  8
0
  6
CONTINUOUS
 62
     7
 10
-59.808996200561523
 20
 90.045166015625
 11
-59.032539065253964
 21
 87.147388536757802
  0
LINE
  8
0
  6
CONTINUOUS
 62
     7
 10
-59.808996200561523
 20
 65.045158386230469
 11
-59.032539065253964
 21
 67.942935865097667
  0
LINE
  8
0
  6
CONTINUOUS
 62
     7
 10
-59.808996200561523
 20
 65.045158386230469
 11
-60.585453335869083
 21
 67.942935865097667
  0
TEXT
  8
0
  6
CONTINUOUS
 62
     7
 10
-60.768987620670536
 20
 75.695163007578572
 11
-60.768987782402682
 21
 79.395163007578574
 40
 2
 41
 0.8
  1
25
 50
 90.000004039712721
 72
  5
  0
LINE
  8
0
  6
CONTINUOUS
 62
     7
 10
-59.808996200561523
 20
 15.045163154602051
 11
-59.808996200561523
 21
 4.0451664924621582
  0
LINE
  8
0
  6
CONTINUOUS
 62
     7
 10
-59.808996200561523
 20
 15.045163154602051
 11
-60.585453335869083
 21
 12.147385675734846
  0
LINE
  8
0
  6
CONTINUOUS
 62
     7
 10
-59.808996200561523
 20
 15.045163154602051
 11
-59.032539065253964
 21
 12.147385675734846
  0
LINE
  8
0
  6
CONTINUOUS
 62
     7
 10
-59.808996200561523
 20
 4.0451664924621582
 11
-59.032539065253964
 21
 6.9429439713293633
  0
LINE
  8
0
  6
CONTINUOUS
 62
     7
 10
-59.808996200561523
 20
 4.0451664924621582
 11
-60.585453335869083
 21
 6.9429439713293633
  0
TEXT
  8
0
  6
CONTINUOUS
 62
     7
 10
-60.768987620670536
 20
 7.6951668222758469
 11
-60.768987782402682
 21
 11.395166822275845
 40
 2
 41
 0.8
  1
11
 50
 90.000004039712721
 72
  5
  0
LINE
  8
0
  6
CONTINUOUS
 62
     7
 10
-46.808965682983398
 20
-21.954830169677734
 11
 46.191015243530273
 21
-21.954830169677734
  0
LINE
  8
0
  6
CONTINUOUS
 62
     7
 10
-46.808965682983398
 20
-21.954830169677734
 11
-43.911188204116193
 21
-22.731287304985297
  0
LINE
  8
0
  6
CONTINUOUS
 62
     7
 10
-46.808965682983398
 20
-21.954830169677734
 11
-43.911188204116193
 21
-21.178373034370171
  0
LINE
  8
0
  6
CONTINUOUS
 62
     7
 10
 46.191015243530273
 20
-21.954830169677734
 11
 43.293237764663068
 21
-21.178373034370171
  0
LINE
  8
0
  6
CONTINUOUS
 62
     7
 10
 46.191015243530273
 20
-21.954830169677734
 11
 43.293237764663068
 21
-22.731287304985297
  0
TEXT
  8
0
  6
CONTINUOUS
 62
     7
 10
-2.158976364135742
 20
-20.994829177856445
 11
 1.5410236358642582
 21
-20.994829177856445
 40
 2
 41
 0.8
  1
93
 50
 0
 72
  5
  0
LINE
  8
0
  6
CONTINUOUS
 62
     7
 10
 32.625299453735352
 20
 79.545150756835938
 11
 18.231012344360352
 21
 79.545150756835938
  0
LINE
  8
0
  6
CONTINUOUS
 62
     7
 10
 32.625299453735352
 20
 75.545166015625
 11
 18.231012344360352
 21
 75.545166015625
  0
LINE
  8
0
  6
CONTINUOUS
 62
     7
 10
 19.191019058227539
 20
 79.545150756835938
 11
 19.191019058227539
 21
 75.545166015625
  0
LINE
  8
0
  6
CONTINUOUS
 62
     7
 10
 19.191019058227539
 20
 79.545150756835938
 11
 18.414561922919976
 21
 76.64737327796874
  0
LINE
  8
0
  6
CONTINUOUS
 62
     7
 10
 19.191019058227539
 20
 79.545150756835938
 11
 19.967476193535102
 21
 76.64737327796874
  0
LINE
  8
0
  6
CONTINUOUS
 62
     7
 10
 19.191019058227539
 20
 75.545166015625
 11
 19.967476193535102
 21
 78.442943494492198
  0
LINE
  8
0
  6
CONTINUOUS
 62
     7
 10
 19.191019058227539
 20
 75.545166015625
 11
 18.414561922919976
 21
 78.442943494492198
  0
TEXT
  8
0
  6
CONTINUOUS
 62
     7
 10
 18.23101237932946
 20
 76.745158429941853
 11
 18.23101230939124
 21
 78.345158429941861
 40
 2
 41
 0.8
  1
4
 50
 90.000004039712721
 72
  5
  0
LINE
  8
0
  6
CONTINUOUS
 62
     7
 10
 39.391031265258789
 20
 18.557706832885742
 11
 39.391031265258789
 21
-7.9148297309875488
  0
LINE
  8
0
  6
CONTINUOUS
 62
     7
 10
 46.191015243530273
 20
-6.954826831817627
 11
 39.391031265258789
 21
-6.954826831817627
  0
LINE
  8
0
  6
CONTINUOUS
 62
     7
 10
 46.191015243530273
 20
-6.954826831817627
 11
 43.293237764663068
 21
-6.1783696965100647
  0
LINE
  8
0
  6
CONTINUOUS
 62
     7
 10
 46.191015243530273
 20
-6.954826831817627
 11
 43.293237764663068
 21
-7.7312839671251892
  0
LINE
  8
0
  6
CONTINUOUS
 62
     7
 10
 39.391031265258789
 20
-6.954826831817627
 11
 42.288808744125994
 21
-7.7312839671251892
  0
LINE
  8
0
  6
CONTINUOUS
 62
     7
 10
 39.391031265258789
 20
-6.954826831817627
 11
 42.288808744125994
 21
-6.1783696965100647
  0
TEXT
  8
0
  6
CONTINUOUS
 62
     7
 10
 39.891019058227542
 20
-5.9948248863220215
 11
 45.691019058227539
 21
-5.9948248863220215
 40
 2
 41
 0.8
  1
6.8
 50
 0
 72
  5
  0
LINE
  8
0
  6
CONTINUOUS
 62
     7
 10
-35.608983993530273
 20
 11.23900318145752
 11
-35.608983993530273
 21
-7.9148297309875488
  0
LINE
  8
0
  6
CONTINUOUS
 62
     7
 10
-46.808965682983398
 20
-6.9548330307006836
 11
-35.608983993530273
 21
-6.9548330307006836
  0
LINE
  8
0
  6
CONTINUOUS
 62
     7
 10
-46.808965682983398
 20
-6.9548330307006836
 11
-43.911188204116193
 21
-7.7312901660082458
  0
LINE
  8
0
  6
CONTINUOUS
 62
     7
 10
-46.808965682983398
 20
-6.9548330307006836
 11
-43.911188204116193
 21
-6.1783758953931214
  0
LINE
  8
0
  6
CONTINUOUS
 62
     7
 10
-35.608983993530273
 20
-6.9548330307006836
 11
-38.506761472397478
 21
-6.1783758953931214
  0
LINE
  8
0
  6
CONTINUOUS
 62
     7
 10
-35.608983993530273
 20
-6.9548330307006836
 11
-38.506761472397478
 21
-7.7312901660082458
  0
TEXT
  8
0
  6
CONTINUOUS
 62
     7
 10
-45.158968734741208
 20
-5.9948310852050781
 11
-37.25896873474121
 21
-5.9948310852050781
 40
 2
 41
 0.8
  1
11.2
 50
 0
 72
  5
  0
LINE
  8
0
  6
CONTINUOUS
 62
     7
 10
 50.395898818969727
 20
 27.545158386230469
 11
 63.151018142700195
 21
 27.545158386230469
  0
LINE
  8
0
  6
CONTINUOUS
 62
     7
 10
 62.191019058227539
 20
 27.545158386230469
 11
 62.191019058227539
 21
 77.545166015625
  0
LINE
  8
0
  6
CONTINUOUS
 62
     7
 10
 62.191019058227539
 20
 27.545158386230469
 11
 62.967476193535099
 21
 30.442935865097674
  0
LINE
  8
0
  6
CONTINUOUS
 62
     7
 10
 62.191019058227539
 20
 27.545158386230469
 11
 61.41456192291998
 21
 30.442935865097674
  0
LINE
  8
0
  6
CONTINUOUS
 62
     7
 10
 62.191019058227539
 20
 77.545166015625
 11
 61.41456192291998
 21
 74.647388536757802
  0
LINE
  8
0
  6
CONTINUOUS
 62
     7
 10
 62.191019058227539
 20
 77.545166015625
 11
 62.967476193535099
 21
 74.647388536757802
  0
TEXT
  8
0
  6
CONTINUOUS
 62
     7
 10
 61.231020008723995
 20
 50.695163007578579
 11
 61.231019846991849
 21
 54.395163007578581
 40
 2
 41
 0.8
  1
50
 50
 90.000004039712721
 72
  5
  0
LINE
  8
0
  6
CONTINUOUS
 62
     7
 10
-49.266027450561523
 20
 65.045158386230469
 11
-60.769002914428711
 21
 65.045158386230469
  0
LINE
  8
0
  6
CONTINUOUS
 62
     7
 10
-49.266027450561523
 20
 40.045162200927734
 11
-60.769002914428711
 21
 40.045162200927734
  0
LINE
  8
0
  6
CONTINUOUS
 62
     7
 10
-59.808996200561523
 20
 65.045158386230469
 11
-59.808996200561523
 21
 40.045162200927734
  0
LINE
  8
0
  6
CONTINUOUS
 62
     7
 10
-59.808996200561523
 20
 65.045158386230469
 11
-60.585453335869083
 21
 62.147380907363264
  0
LINE
  8
0
  6
CONTINUOUS
 62
     7
 10
-59.808996200561523
 20
 65.045158386230469
 11
-59.032539065253964
 21
 62.147380907363264
  0
LINE
  8
0
  6
CONTINUOUS
 62
     7
 10
-59.808996200561523
 20
 40.045162200927734
 11
-59.032539065253964
 21
 42.942939679794939
  0
LINE
  8
0
  6
CONTINUOUS
 62
     7
 10
-59.808996200561523
 20
 40.045162200927734
 11
-60.585453335869083
 21
 42.942939679794939
  0
TEXT
  8
0
  6
CONTINUOUS
 62
     7
 10
-60.769002879459599
 20
 50.695159192881313
 11
-60.769003041191745
 21
 54.395159192881316
 40
 2
 41
 0.8
  1
25
 50
 90.000004039712721
 72
  5
  0
LINE
  8
0
  6
CONTINUOUS
 62
     7
 10
-59.808996200561523
 20
 40.045162200927734
 11
-59.808996200561523
 21
 15.045163154602051
  0
LINE
  8
0
  6
CONTINUOUS
 62
     7
 10
-59.808996200561523
 20
 40.045162200927734
 11
-60.585453335869083
 21
 37.147384722060529
  0
LINE
  8
0
  6
CONTINUOUS
 62
     7
 10
-59.808996200561523
 20
 40.045162200927734
 11
-59.032539065253964
 21
 37.147384722060529
  0
LINE
  8
0
  6
CONTINUOUS
 62
     7
 10
-59.808996200561523
 20
 15.045163154602051
 11
-59.032539065253964
 21
 17.942940633469256
  0
LINE
  8
0
  6
CONTINUOUS
 62
     7
 10
-59.808996200561523
 20
 15.045163154602051
 11
-60.585453335869083
 21
 17.942940633469256
  0
TEXT
  8
0
  6
CONTINUOUS
 62
     7
 10
-60.769002879459599
 20
 25.695163007578582
 11
-60.769003041191745
 21
 29.395163007578581
 40
 2
 41
 0.8
  1
25
 50
 90.000004039712721
 72
  5
  0
LINE
  8
0
  6
CONTINUOUS
 62
     7
 10
-35.608983993530273
 20
-6.954826831817627
 11
 39.391031265258789
 21
-6.954826831817627
  0
LINE
  8
0
  6
CONTINUOUS
 62
     7
 10
-35.608983993530273
 20
-6.954826831817627
 11
-32.711206514663068
 21
-7.7312839671251892
  0
LINE
  8
0
  6
CONTINUOUS
 62
     7
 10
-35.608983993530273
 20
-6.954826831817627
 11
-32.711206514663068
 21
-6.1783696965100647
  0
LINE
  8
0
  6
CONTINUOUS
 62
     7
 10
 39.391031265258789
 20
-6.954826831817627
 11
 36.493253786391584
 21
-6.1783696965100647
  0
LINE
  8
0
  6
CONTINUOUS
 62
     7
 10
 39.391031265258789
 20
-6.954826831817627
 11
 36.493253786391584
 21
-7.7312839671251892
  0
TEXT
  8
0
  6
CONTINUOUS
 62
     7
 10
 0.0410205841064453
 20
-5.9948248863220215
 11
 3.7410205841064457
 21
-5.9948248863220215
 40
 2
 41
 0.8
  1
75
 50
 0
 72
  5
  0
ENDSEC
  0
EOF
