  0
SECTION
  2
HEADER
  9
$INSBASE
 10
0.0
20
0.0
  9
$REGENMODE
 70
     1
  9
$DRAGMODE
 70
     1
  9
$DIMTAD
 70
     1
  9
$EXTMIN
 10
-210.000000
 20
-148.500000
 30
 0.0
  9
$EXTMAX
 10
210.000000
 20
148.500000
 30
 0.0
  9
$LUPREC
 70
    3
  9
$AUPREC
 70
    3
  9
$LTSCALE
 40
26.250000
  0
ENDSEC
  0
SECTION
  2
TABLES
  0
TABLE
  2
LTYPE
 70
     6
  0
LTYPE
  2
CONTINUOUS
 70
    64
  3
SOLID
 72
    65
 73
     0
 40
0.0
  0
LTYPE
  2
DASHED2
 70
    64
  3
_ _ _ _ _ _ _ _ _ _ _ _ _ _ _ _ _ _ _ _ _ _ 
 72
    65
 73
     2
 40
0.5
 49
0.25
 49
-0.25
  0
LTYPE
  2
DASHED
 70
    64
  3
__ __ __ __ __ __ __ __ __ __ __ __ __ __ __
 72
    65
 73
     2
 40
0.75
 49
0.5
 49
-0.25
  0
LTYPE
  2
DASHEDX2
 70
    64
  3
____  ____  ____  ____  ____  ____  ____  __
 72
    65
 73
     2
 40
1.5
 49
1.0
 49
-0.5
  0
LTYPE
  2
DOT
 70
    64
  3
............................................
 72
    65
 73
     2
 40
0.25
 49
0
 49
-0.25
  0
LTYPE
  2
DASHDOT
 70
    64
  3
__ . __ . __ . __ . __ . __ . __ . __ . __ .
 72
    65
 73
     4
 40
1.0
 49
0.5
 49
-0.25
 49
0.0
 49
-0.25
  0
LTYPE
  2
CENTER
 70
    64
  3
____ _ ____ _ ____ _ ____ _ ____ _ ____ _ __
 72
    65
 73
     4
 40
2.0
 49
1.25
 49
-0.25
 49
0.25
 49
-0.25
  0
LTYPE
  2
DIVIDE
 70
    64
  3
__ . . __ . . __ . . __ . . __ . . __ . . __
 72
    65
 73
     6
 40
1.25
 49
0.5
 49
-0.25
 49
0.0
 49
-0.25
 49
0.0
 49
-0.25
  0
LTYPE
  2
PHANTOM2
 70
    64
  3
___ _ _ ___ _ _ ___ _ _ ___ _ _ ___ _ _ ___ 
 72
    65
 73
     6
 40
1.25
 49
0.625
 49
-0.125
 49
0.125
 49
-0.125
 49
0.125
 49
-0.125
  0
LTYPE
  2
DOTX2
 70
    64
  3
. . . . . . . . . . . . . . . . . . . . . . 
 72
    65
 73
     2
 40
0.5
 49
0
 49
-0.5
  0
ENDTAB
  0
TABLE
  2
LAYER
 70
   255
  0
LAYER
  2
0
 70
    64
 62
     7
  6
CONTINUOUS
  0
LAYER
  2
1
 70
    64
 62
     7
  6
CONTINUOUS
  0
LAYER
  2
2
 70
    64
 62
     7
  6
CONTINUOUS
  0
LAYER
  2
3
 70
    64
 62
     7
  6
CONTINUOUS
  0
LAYER
  2
4
 70
    64
 62
     7
  6
CONTINUOUS
  0
LAYER
  2
5
 70
    64
 62
     7
  6
CONTINUOUS
  0
LAYER
  2
6
 70
    64
 62
     7
  6
CONTINUOUS
  0
LAYER
  2
7
 70
    64
 62
     7
  6
CONTINUOUS
  0
LAYER
  2
8
 70
    64
 62
     7
  6
CONTINUOUS
  0
LAYER
  2
9
 70
    64
 62
     7
  6
CONTINUOUS
  0
LAYER
  2
10
 70
    64
 62
     7
  6
CONTINUOUS
  0
LAYER
  2
11
 70
    64
 62
     7
  6
CONTINUOUS
  0
LAYER
  2
12
 70
    64
 62
     7
  6
CONTINUOUS
  0
LAYER
  2
13
 70
    64
 62
     7
  6
CONTINUOUS
  0
LAYER
  2
14
 70
    64
 62
     7
  6
CONTINUOUS
  0
LAYER
  2
15
 70
    64
 62
     7
  6
CONTINUOUS
  0
LAYER
  2
16
 70
    64
 62
     7
  6
CONTINUOUS
  0
LAYER
  2
17
 70
    64
 62
     7
  6
CONTINUOUS
  0
LAYER
  2
18
 70
    64
 62
     7
  6
CONTINUOUS
  0
LAYER
  2
19
 70
    64
 62
     7
  6
CONTINUOUS
  0
LAYER
  2
20
 70
    64
 62
     7
  6
CONTINUOUS
  0
LAYER
  2
21
 70
    64
 62
     7
  6
CONTINUOUS
  0
LAYER
  2
22
 70
    64
 62
     7
  6
CONTINUOUS
  0
LAYER
  2
23
 70
    64
 62
     7
  6
CONTINUOUS
  0
LAYER
  2
24
 70
    64
 62
     7
  6
CONTINUOUS
  0
LAYER
  2
25
 70
    64
 62
     7
  6
CONTINUOUS
  0
LAYER
  2
26
 70
    64
 62
     7
  6
CONTINUOUS
  0
LAYER
  2
27
 70
    64
 62
     7
  6
CONTINUOUS
  0
LAYER
  2
28
 70
    64
 62
     7
  6
CONTINUOUS
  0
LAYER
  2
29
 70
    64
 62
     7
  6
CONTINUOUS
  0
LAYER
  2
30
 70
    64
 62
     7
  6
CONTINUOUS
  0
LAYER
  2
31
 70
    64
 62
     7
  6
CONTINUOUS
  0
LAYER
  2
32
 70
    64
 62
     7
  6
CONTINUOUS
  0
LAYER
  2
33
 70
    64
 62
     7
  6
CONTINUOUS
  0
LAYER
  2
34
 70
    64
 62
     7
  6
CONTINUOUS
  0
LAYER
  2
35
 70
    64
 62
     7
  6
CONTINUOUS
  0
LAYER
  2
36
 70
    64
 62
     7
  6
CONTINUOUS
  0
LAYER
  2
37
 70
    64
 62
     7
  6
CONTINUOUS
  0
LAYER
  2
38
 70
    64
 62
     7
  6
CONTINUOUS
  0
LAYER
  2
39
 70
    64
 62
     7
  6
CONTINUOUS
  0
LAYER
  2
40
 70
    64
 62
     7
  6
CONTINUOUS
  0
LAYER
  2
41
 70
    64
 62
     7
  6
CONTINUOUS
  0
LAYER
  2
42
 70
    64
 62
     7
  6
CONTINUOUS
  0
LAYER
  2
43
 70
    64
 62
     7
  6
CONTINUOUS
  0
LAYER
  2
44
 70
    64
 62
     7
  6
CONTINUOUS
  0
LAYER
  2
45
 70
    64
 62
     7
  6
CONTINUOUS
  0
LAYER
  2
46
 70
    64
 62
     7
  6
CONTINUOUS
  0
LAYER
  2
47
 70
    64
 62
     7
  6
CONTINUOUS
  0
LAYER
  2
48
 70
    64
 62
     7
  6
CONTINUOUS
  0
LAYER
  2
49
 70
    64
 62
     7
  6
CONTINUOUS
  0
LAYER
  2
50
 70
    64
 62
     7
  6
CONTINUOUS
  0
LAYER
  2
51
 70
    64
 62
     7
  6
CONTINUOUS
  0
LAYER
  2
52
 70
    64
 62
     7
  6
CONTINUOUS
  0
LAYER
  2
53
 70
    64
 62
     7
  6
CONTINUOUS
  0
LAYER
  2
54
 70
    64
 62
     7
  6
CONTINUOUS
  0
LAYER
  2
55
 70
    64
 62
     7
  6
CONTINUOUS
  0
LAYER
  2
56
 70
    64
 62
     7
  6
CONTINUOUS
  0
LAYER
  2
57
 70
    64
 62
     7
  6
CONTINUOUS
  0
LAYER
  2
58
 70
    64
 62
     7
  6
CONTINUOUS
  0
LAYER
  2
59
 70
    64
 62
     7
  6
CONTINUOUS
  0
LAYER
  2
60
 70
    64
 62
     7
  6
CONTINUOUS
  0
LAYER
  2
61
 70
    64
 62
     7
  6
CONTINUOUS
  0
LAYER
  2
62
 70
    64
 62
     7
  6
CONTINUOUS
  0
LAYER
  2
63
 70
    64
 62
     7
  6
CONTINUOUS
  0
LAYER
  2
64
 70
    64
 62
     7
  6
CONTINUOUS
  0
LAYER
  2
65
 70
    64
 62
     7
  6
CONTINUOUS
  0
LAYER
  2
66
 70
    64
 62
     7
  6
CONTINUOUS
  0
LAYER
  2
67
 70
    64
 62
     7
  6
CONTINUOUS
  0
LAYER
  2
68
 70
    64
 62
     7
  6
CONTINUOUS
  0
LAYER
  2
69
 70
    64
 62
     7
  6
CONTINUOUS
  0
LAYER
  2
70
 70
    64
 62
     7
  6
CONTINUOUS
  0
LAYER
  2
71
 70
    64
 62
     7
  6
CONTINUOUS
  0
LAYER
  2
72
 70
    64
 62
     7
  6
CONTINUOUS
  0
LAYER
  2
73
 70
    64
 62
     7
  6
CONTINUOUS
  0
LAYER
  2
74
 70
    64
 62
     7
  6
CONTINUOUS
  0
LAYER
  2
75
 70
    64
 62
     7
  6
CONTINUOUS
  0
LAYER
  2
76
 70
    64
 62
     7
  6
CONTINUOUS
  0
LAYER
  2
77
 70
    64
 62
     7
  6
CONTINUOUS
  0
LAYER
  2
78
 70
    64
 62
     7
  6
CONTINUOUS
  0
LAYER
  2
79
 70
    64
 62
     7
  6
CONTINUOUS
  0
LAYER
  2
80
 70
    64
 62
     7
  6
CONTINUOUS
  0
LAYER
  2
81
 70
    64
 62
     7
  6
CONTINUOUS
  0
LAYER
  2
82
 70
    64
 62
     7
  6
CONTINUOUS
  0
LAYER
  2
83
 70
    64
 62
     7
  6
CONTINUOUS
  0
LAYER
  2
84
 70
    64
 62
     7
  6
CONTINUOUS
  0
LAYER
  2
85
 70
    64
 62
     7
  6
CONTINUOUS
  0
LAYER
  2
86
 70
    64
 62
     7
  6
CONTINUOUS
  0
LAYER
  2
87
 70
    64
 62
     7
  6
CONTINUOUS
  0
LAYER
  2
88
 70
    64
 62
     7
  6
CONTINUOUS
  0
LAYER
  2
89
 70
    64
 62
     7
  6
CONTINUOUS
  0
LAYER
  2
90
 70
    64
 62
     7
  6
CONTINUOUS
  0
LAYER
  2
91
 70
    64
 62
     7
  6
CONTINUOUS
  0
LAYER
  2
92
 70
    64
 62
     7
  6
CONTINUOUS
  0
LAYER
  2
93
 70
    64
 62
     7
  6
CONTINUOUS
  0
LAYER
  2
94
 70
    64
 62
     7
  6
CONTINUOUS
  0
LAYER
  2
95
 70
    64
 62
     7
  6
CONTINUOUS
  0
LAYER
  2
96
 70
    64
 62
     7
  6
CONTINUOUS
  0
LAYER
  2
97
 70
    64
 62
     7
  6
CONTINUOUS
  0
LAYER
  2
98
 70
    64
 62
     7
  6
CONTINUOUS
  0
LAYER
  2
99
 70
    64
 62
     7
  6
CONTINUOUS
  0
LAYER
  2
100
 70
    64
 62
     7
  6
CONTINUOUS
  0
LAYER
  2
101
 70
    64
 62
     7
  6
CONTINUOUS
  0
LAYER
  2
102
 70
    64
 62
     7
  6
CONTINUOUS
  0
LAYER
  2
103
 70
    64
 62
     7
  6
CONTINUOUS
  0
LAYER
  2
104
 70
    64
 62
     7
  6
CONTINUOUS
  0
LAYER
  2
105
 70
    64
 62
     7
  6
CONTINUOUS
  0
LAYER
  2
106
 70
    64
 62
     7
  6
CONTINUOUS
  0
LAYER
  2
107
 70
    64
 62
     7
  6
CONTINUOUS
  0
LAYER
  2
108
 70
    64
 62
     7
  6
CONTINUOUS
  0
LAYER
  2
109
 70
    64
 62
     7
  6
CONTINUOUS
  0
LAYER
  2
110
 70
    64
 62
     7
  6
CONTINUOUS
  0
LAYER
  2
111
 70
    64
 62
     7
  6
CONTINUOUS
  0
LAYER
  2
112
 70
    64
 62
     7
  6
CONTINUOUS
  0
LAYER
  2
113
 70
    64
 62
     7
  6
CONTINUOUS
  0
LAYER
  2
114
 70
    64
 62
     7
  6
CONTINUOUS
  0
LAYER
  2
115
 70
    64
 62
     7
  6
CONTINUOUS
  0
LAYER
  2
116
 70
    64
 62
     7
  6
CONTINUOUS
  0
LAYER
  2
117
 70
    64
 62
     7
  6
CONTINUOUS
  0
LAYER
  2
118
 70
    64
 62
     7
  6
CONTINUOUS
  0
LAYER
  2
119
 70
    64
 62
     7
  6
CONTINUOUS
  0
LAYER
  2
120
 70
    64
 62
     7
  6
CONTINUOUS
  0
LAYER
  2
121
 70
    64
 62
     7
  6
CONTINUOUS
  0
LAYER
  2
122
 70
    64
 62
     7
  6
CONTINUOUS
  0
LAYER
  2
123
 70
    64
 62
     7
  6
CONTINUOUS
  0
LAYER
  2
124
 70
    64
 62
     7
  6
CONTINUOUS
  0
LAYER
  2
125
 70
    64
 62
     7
  6
CONTINUOUS
  0
LAYER
  2
126
 70
    64
 62
     7
  6
CONTINUOUS
  0
LAYER
  2
127
 70
    64
 62
     7
  6
CONTINUOUS
  0
LAYER
  2
128
 70
    64
 62
     7
  6
CONTINUOUS
  0
LAYER
  2
129
 70
    64
 62
     7
  6
CONTINUOUS
  0
LAYER
  2
130
 70
    64
 62
     7
  6
CONTINUOUS
  0
LAYER
  2
131
 70
    64
 62
     7
  6
CONTINUOUS
  0
LAYER
  2
132
 70
    64
 62
     7
  6
CONTINUOUS
  0
LAYER
  2
133
 70
    64
 62
     7
  6
CONTINUOUS
  0
LAYER
  2
134
 70
    64
 62
     7
  6
CONTINUOUS
  0
LAYER
  2
135
 70
    64
 62
     7
  6
CONTINUOUS
  0
LAYER
  2
136
 70
    64
 62
     7
  6
CONTINUOUS
  0
LAYER
  2
137
 70
    64
 62
     7
  6
CONTINUOUS
  0
LAYER
  2
138
 70
    64
 62
     7
  6
CONTINUOUS
  0
LAYER
  2
139
 70
    64
 62
     7
  6
CONTINUOUS
  0
LAYER
  2
140
 70
    64
 62
     7
  6
CONTINUOUS
  0
LAYER
  2
141
 70
    64
 62
     7
  6
CONTINUOUS
  0
LAYER
  2
142
 70
    64
 62
     7
  6
CONTINUOUS
  0
LAYER
  2
143
 70
    64
 62
     7
  6
CONTINUOUS
  0
LAYER
  2
144
 70
    64
 62
     7
  6
CONTINUOUS
  0
LAYER
  2
145
 70
    64
 62
     7
  6
CONTINUOUS
  0
LAYER
  2
146
 70
    64
 62
     7
  6
CONTINUOUS
  0
LAYER
  2
147
 70
    64
 62
     7
  6
CONTINUOUS
  0
LAYER
  2
148
 70
    64
 62
     7
  6
CONTINUOUS
  0
LAYER
  2
149
 70
    64
 62
     7
  6
CONTINUOUS
  0
LAYER
  2
150
 70
    64
 62
     7
  6
CONTINUOUS
  0
LAYER
  2
151
 70
    64
 62
     7
  6
CONTINUOUS
  0
LAYER
  2
152
 70
    64
 62
     7
  6
CONTINUOUS
  0
LAYER
  2
153
 70
    64
 62
     7
  6
CONTINUOUS
  0
LAYER
  2
154
 70
    64
 62
     7
  6
CONTINUOUS
  0
LAYER
  2
155
 70
    64
 62
     7
  6
CONTINUOUS
  0
LAYER
  2
156
 70
    64
 62
     7
  6
CONTINUOUS
  0
LAYER
  2
157
 70
    64
 62
     7
  6
CONTINUOUS
  0
LAYER
  2
158
 70
    64
 62
     7
  6
CONTINUOUS
  0
LAYER
  2
159
 70
    64
 62
     7
  6
CONTINUOUS
  0
LAYER
  2
160
 70
    64
 62
     7
  6
CONTINUOUS
  0
LAYER
  2
161
 70
    64
 62
     7
  6
CONTINUOUS
  0
LAYER
  2
162
 70
    64
 62
     7
  6
CONTINUOUS
  0
LAYER
  2
163
 70
    64
 62
     7
  6
CONTINUOUS
  0
LAYER
  2
164
 70
    64
 62
     7
  6
CONTINUOUS
  0
LAYER
  2
165
 70
    64
 62
     7
  6
CONTINUOUS
  0
LAYER
  2
166
 70
    64
 62
     7
  6
CONTINUOUS
  0
LAYER
  2
167
 70
    64
 62
     7
  6
CONTINUOUS
  0
LAYER
  2
168
 70
    64
 62
     7
  6
CONTINUOUS
  0
LAYER
  2
169
 70
    64
 62
     7
  6
CONTINUOUS
  0
LAYER
  2
170
 70
    64
 62
     7
  6
CONTINUOUS
  0
LAYER
  2
171
 70
    64
 62
     7
  6
CONTINUOUS
  0
LAYER
  2
172
 70
    64
 62
     7
  6
CONTINUOUS
  0
LAYER
  2
173
 70
    64
 62
     7
  6
CONTINUOUS
  0
LAYER
  2
174
 70
    64
 62
     7
  6
CONTINUOUS
  0
LAYER
  2
175
 70
    64
 62
     7
  6
CONTINUOUS
  0
LAYER
  2
176
 70
    64
 62
     7
  6
CONTINUOUS
  0
LAYER
  2
177
 70
    64
 62
     7
  6
CONTINUOUS
  0
LAYER
  2
178
 70
    64
 62
     7
  6
CONTINUOUS
  0
LAYER
  2
179
 70
    64
 62
     7
  6
CONTINUOUS
  0
LAYER
  2
180
 70
    64
 62
     7
  6
CONTINUOUS
  0
LAYER
  2
181
 70
    64
 62
     7
  6
CONTINUOUS
  0
LAYER
  2
182
 70
    64
 62
     7
  6
CONTINUOUS
  0
LAYER
  2
183
 70
    64
 62
     7
  6
CONTINUOUS
  0
LAYER
  2
184
 70
    64
 62
     7
  6
CONTINUOUS
  0
LAYER
  2
185
 70
    64
 62
     7
  6
CONTINUOUS
  0
LAYER
  2
186
 70
    64
 62
     7
  6
CONTINUOUS
  0
LAYER
  2
187
 70
    64
 62
     7
  6
CONTINUOUS
  0
LAYER
  2
188
 70
    64
 62
     7
  6
CONTINUOUS
  0
LAYER
  2
189
 70
    64
 62
     7
  6
CONTINUOUS
  0
LAYER
  2
190
 70
    64
 62
     7
  6
CONTINUOUS
  0
LAYER
  2
191
 70
    64
 62
     7
  6
CONTINUOUS
  0
LAYER
  2
192
 70
    64
 62
     7
  6
CONTINUOUS
  0
LAYER
  2
193
 70
    64
 62
     7
  6
CONTINUOUS
  0
LAYER
  2
194
 70
    64
 62
     7
  6
CONTINUOUS
  0
LAYER
  2
195
 70
    64
 62
     7
  6
CONTINUOUS
  0
LAYER
  2
196
 70
    64
 62
     7
  6
CONTINUOUS
  0
LAYER
  2
197
 70
    64
 62
     7
  6
CONTINUOUS
  0
LAYER
  2
198
 70
    64
 62
     7
  6
CONTINUOUS
  0
LAYER
  2
199
 70
    64
 62
     7
  6
CONTINUOUS
  0
LAYER
  2
200
 70
    64
 62
     7
  6
CONTINUOUS
  0
LAYER
  2
201
 70
    64
 62
     7
  6
CONTINUOUS
  0
LAYER
  2
202
 70
    64
 62
     7
  6
CONTINUOUS
  0
LAYER
  2
203
 70
    64
 62
     7
  6
CONTINUOUS
  0
LAYER
  2
204
 70
    64
 62
     7
  6
CONTINUOUS
  0
LAYER
  2
205
 70
    64
 62
     7
  6
CONTINUOUS
  0
LAYER
  2
206
 70
    64
 62
     7
  6
CONTINUOUS
  0
LAYER
  2
207
 70
    64
 62
     7
  6
CONTINUOUS
  0
LAYER
  2
208
 70
    64
 62
     7
  6
CONTINUOUS
  0
LAYER
  2
209
 70
    64
 62
     7
  6
CONTINUOUS
  0
LAYER
  2
210
 70
    64
 62
     7
  6
CONTINUOUS
  0
LAYER
  2
211
 70
    64
 62
     7
  6
CONTINUOUS
  0
LAYER
  2
212
 70
    64
 62
     7
  6
CONTINUOUS
  0
LAYER
  2
213
 70
    64
 62
     7
  6
CONTINUOUS
  0
LAYER
  2
214
 70
    64
 62
     7
  6
CONTINUOUS
  0
LAYER
  2
215
 70
    64
 62
     7
  6
CONTINUOUS
  0
LAYER
  2
216
 70
    64
 62
     7
  6
CONTINUOUS
  0
LAYER
  2
217
 70
    64
 62
     7
  6
CONTINUOUS
  0
LAYER
  2
218
 70
    64
 62
     7
  6
CONTINUOUS
  0
LAYER
  2
219
 70
    64
 62
     7
  6
CONTINUOUS
  0
LAYER
  2
220
 70
    64
 62
     7
  6
CONTINUOUS
  0
LAYER
  2
221
 70
    64
 62
     7
  6
CONTINUOUS
  0
LAYER
  2
222
 70
    64
 62
     7
  6
CONTINUOUS
  0
LAYER
  2
223
 70
    64
 62
     7
  6
CONTINUOUS
  0
LAYER
  2
224
 70
    64
 62
     7
  6
CONTINUOUS
  0
LAYER
  2
225
 70
    64
 62
     7
  6
CONTINUOUS
  0
LAYER
  2
226
 70
    64
 62
     7
  6
CONTINUOUS
  0
LAYER
  2
227
 70
    64
 62
     7
  6
CONTINUOUS
  0
LAYER
  2
228
 70
    64
 62
     7
  6
CONTINUOUS
  0
LAYER
  2
229
 70
    64
 62
     7
  6
CONTINUOUS
  0
LAYER
  2
230
 70
    64
 62
     7
  6
CONTINUOUS
  0
LAYER
  2
231
 70
    64
 62
     7
  6
CONTINUOUS
  0
LAYER
  2
232
 70
    64
 62
     7
  6
CONTINUOUS
  0
LAYER
  2
233
 70
    64
 62
     7
  6
CONTINUOUS
  0
LAYER
  2
234
 70
    64
 62
     7
  6
CONTINUOUS
  0
LAYER
  2
235
 70
    64
 62
     7
  6
CONTINUOUS
  0
LAYER
  2
236
 70
    64
 62
     7
  6
CONTINUOUS
  0
LAYER
  2
237
 70
    64
 62
     7
  6
CONTINUOUS
  0
LAYER
  2
238
 70
    64
 62
     7
  6
CONTINUOUS
  0
LAYER
  2
239
 70
    64
 62
     7
  6
CONTINUOUS
  0
LAYER
  2
240
 70
    64
 62
     7
  6
CONTINUOUS
  0
LAYER
  2
241
 70
    64
 62
     7
  6
CONTINUOUS
  0
LAYER
  2
242
 70
    64
 62
     7
  6
CONTINUOUS
  0
LAYER
  2
243
 70
    64
 62
     7
  6
CONTINUOUS
  0
LAYER
  2
244
 70
    64
 62
     7
  6
CONTINUOUS
  0
LAYER
  2
245
 70
    64
 62
     7
  6
CONTINUOUS
  0
LAYER
  2
246
 70
    64
 62
     7
  6
CONTINUOUS
  0
LAYER
  2
247
 70
    64
 62
     7
  6
CONTINUOUS
  0
LAYER
  2
248
 70
    64
 62
     7
  6
CONTINUOUS
  0
LAYER
  2
249
 70
    64
 62
     7
  6
CONTINUOUS
  0
LAYER
  2
250
 70
    64
 62
     7
  6
CONTINUOUS
  0
LAYER
  2
251
 70
    64
 62
     7
  6
CONTINUOUS
  0
LAYER
  2
252
 70
    64
 62
     7
  6
CONTINUOUS
  0
LAYER
  2
253
 70
    64
 62
     7
  6
CONTINUOUS
  0
LAYER
  2
254
 70
    64
 62
     7
  6
CONTINUOUS
  0
LAYER
  2
255
 70
    64
 62
     7
  6
CONTINUOUS
  0
ENDTAB
  0
TABLE
  2
STYLE
 70
     2
  0
STYLE
  2
STANDARD
 70
    64
 40
0.0
 41
1.0
 50
0.0
 71
     0
 42
3.000000
  3
TXT
  4
BIGFONT
  0
ENDTAB
  0
ENDSEC
  0
SECTION
  2
ENTITIES
  0
LINE
  8
0
  6
DASHDOT
 62
     3
 10
 39.999992370605469
 20
-78.445991516113281
 11
 39.999992370605469
 21
-73.309280395507813
  0
LINE
  8
0
  6
CONTINUOUS
 62
     3
 10
 79.399988174438477
 20
 32.145164012908943
 11
 79.399988174438477
 21
 22.945170879364021
  0
LINE
  8
0
  6
CONTINUOUS
 62
     3
 10
 79.399988174438477
 20
 32.145164012908943
 11
 76.199989318847656
 21
 32.145164012908943
  0
LINE
  8
0
  6
CONTINUOUS
 62
     3
 10
 76.199989318847656
 20
 22.945170879364021
 11
 79.399988174438477
 21
 22.945170879364021
  0
LINE
  8
0
  6
DASHDOT
 62
     7
 10
 0
 20
-29.494829177856445
 11
 0
 21
-87.668251037597656
  0
LINE
  8
0
  6
CONTINUOUS
 62
     7
 10
-47.235588073730469
 20
-50.454826354980469
 11
-60.159980773925781
 21
-50.454826354980469
  0
LINE
  8
0
  6
CONTINUOUS
 62
     7
 10
-48.596977233886719
 20
-76.454833984375
 11
-60.159980773925781
 21
-76.454833984375
  0
LINE
  8
0
  6
CONTINUOUS
 62
     3
 10
-45.000038146972656
 20
-52.454837799072266
 11
-45.000038146972656
 21
-45.554824829101563
  0
ARC
  8
0
  6
CONTINUOUS
 62
     3
 10
-44.700035095214844
 20
-45.554824829101563
 40
 0.300000011920929
 50
 90.000004039712721
 51
-179.9999980615126
  0
LINE
  8
0
  6
CONTINUOUS
 62
     3
 10
-44.700035095214844
 20
-45.254840850830078
 11
-41.200019836425781
 21
-45.254840850830078
  0
LINE
  8
0
  6
CONTINUOUS
 62
     3
 10
-41.200019836425781
 20
-44.054832458496094
 11
-44.700035095214844
 21
-44.054832458496094
  0
LINE
  8
0
  6
CONTINUOUS
 62
     3
 10
-46.200035095214844
 20
-45.554824829101563
 11
-46.200035095214844
 21
-52.454837799072266
  0
LINE
  8
0
  6
CONTINUOUS
 62
     3
 10
-46.200035095214844
 20
-52.454837799072266
 11
-46.200019836425781
 21
-74.954841613769531
  0
ARC
  8
0
  6
CONTINUOUS
 62
     3
 10
-44.699989318847656
 20
-74.954841613769531
 40
 0.300000011920929
 50
-179.9999980615126
 51
-90.000000851989171
  0
ARC
  8
0
  6
CONTINUOUS
 62
     3
 10
-44.700035095214844
 20
-45.554824829101563
 40
 1.5
 50
 90.000004039712721
 51
-179.9999980615126
  0
ARC
  8
0
  6
CONTINUOUS
 62
     3
 10
-44.700035095214844
 20
-51.954830169677734
 40
 1.5
 50
 90.000004039712721
 51
 101.537375367397
  0
ARC
  8
0
  6
DOT
 62
     3
 10
-44.700035095214844
 20
-51.954830169677734
 40
 1.5
 50
 101.537375367397
 51
-179.9999980615126
  0
LINE
  8
0
  6
CONTINUOUS
 62
     3
 10
-44.700035095214844
 20
-50.454837799072266
 11
 45.299980163574219
 21
-50.454837799072266
  0
LINE
  8
0
  6
CONTINUOUS
 62
     3
 10
 46.799980163574219
 20
-51.954830169677734
 11
 46.799980163574219
 21
-74.954841613769531
  0
ARC
  8
0
  6
CONTINUOUS
 62
     3
 10
 45.299980163574219
 20
-74.954841613769531
 40
 1.5
 50
-90.000000851989171
 51
 0
  0
ARC
  8
0
  6
CONTINUOUS
 62
     3
 10
 45.299980163574219
 20
-51.954830169677734
 40
 1.5
 50
 0
 51
 90.000004039712721
  0
LINE
  8
0
  6
CONTINUOUS
 62
     3
 10
 45.599983215332031
 20
-74.954841613769531
 11
 45.599983215332031
 21
-51.954830169677734
  0
ARC
  8
0
  6
CONTINUOUS
 62
     3
 10
 45.299980163574219
 20
-74.954841613769531
 40
 0.300000011920929
 50
-90.000000851989171
 51
 0
  0
ARC
  8
0
  6
CONTINUOUS
 62
     3
 10
 45.299980163574219
 20
-51.954830169677734
 40
 0.300000011920929
 50
 0
 51
 90.000004039712721
  0
LINE
  8
0
  6
CONTINUOUS
 62
     3
 10
-44.700035095214844
 20
-51.654827117919922
 11
 29.299980163574219
 21
-51.654827117919922
  0
LINE
  8
0
  6
DOT
 62
     3
 10
 29.299980163574219
 20
-51.654827117919922
 11
 34.299995422363281
 21
-51.654827117919922
  0
LINE
  8
0
  6
CONTINUOUS
 62
     3
 10
 34.299995422363281
 20
-51.654827117919922
 11
 45.299980163574219
 21
-51.654827117919922
  0
ARC
  8
0
  6
CONTINUOUS
 62
     3
 10
-44.700035095214844
 20
-51.954830169677734
 40
 0.300000011920929
 50
 90.000004039712721
 51
-179.9999980615126
  0
LINE
  8
0
  6
CONTINUOUS
 62
     3
 10
-44.699989318847656
 20
-76.454833984375
 11
-30.700035095214844
 21
-76.454833984375
  0
ARC
  8
0
  6
CONTINUOUS
 62
     3
 10
-44.699989318847656
 20
-74.954841613769531
 40
 1.5
 50
-179.9999980615126
 51
-90.000000851989171
  0
LINE
  8
0
  6
CONTINUOUS
 62
     3
 10
-30.700035095214844
 20
-76.454833984375
 11
-30.700035095214844
 21
-75.254844665527344
  0
LINE
  8
0
  6
CONTINUOUS
 62
     3
 10
-44.699989318847656
 20
-75.254844665527344
 11
-30.700035095214844
 21
-75.254844665527344
  0
LINE
  8
0
  6
DASHDOT
 62
     3
 10
-35.000022888183594
 20
-78.94732666015625
 11
-35.000022888183594
 21
-72.972747802734375
  0
LINE
  8
0
  6
DOT
 62
     3
 10
-37.099998474121094
 20
-75.254844665527344
 11
-37.099998474121094
 21
-76.454833984375
  0
LINE
  8
0
  6
DOT
 62
     3
 10
-32.899986267089844
 20
-75.254844665527344
 11
-32.899986267089844
 21
-76.454833984375
  0
LINE
  8
0
  6
CONTINUOUS
 62
     3
 10
 34.299995422363281
 20
-50.454837799072266
 11
 34.299995422363281
 21
-53.854854583740234
  0
LINE
  8
0
  6
CONTINUOUS
 62
     3
 10
 29.299980163574219
 20
-53.854854583740234
 11
 29.299980163574219
 21
-50.454837799072266
  0
LINE
  8
0
  6
CONTINUOUS
 62
     3
 10
 29.299980163574219
 20
-52.654838562011719
 11
 34.299995422363281
 21
-52.654838562011719
  0
LINE
  8
0
  6
CONTINUOUS
 62
     3
 10
 29.299980163574219
 20
-53.854854583740234
 11
 34.299995422363281
 21
-53.854854583740234
  0
LINE
  8
0
  6
CONTINUOUS
 62
     3
 10
-28.700004577636719
 20
-50.454837799072266
 11
-28.700004577636719
 21
-51.654827117919922
  0
LINE
  8
0
  6
CONTINUOUS
 62
     3
 10
-45.000038146972656
 20
-52.454837799072266
 11
-46.200035095214844
 21
-52.454837799072266
  0
LINE
  8
0
  6
CONTINUOUS
 62
     3
 10
 44.299995422363281
 20
-51.654804229736328
 11
 44.299995422363281
 21
-50.454814910888672
  0
LINE
  8
0
  6
CONTINUOUS
 62
     3
 10
 45.599983215332031
 20
-53.654853820800781
 11
 46.799980163574219
 21
-53.654853820800781
  0
LINE
  8
0
  6
CONTINUOUS
 62
     3
 10
-41.200019836425781
 20
-44.054832458496094
 11
-41.200019836425781
 21
-45.254840850830078
  0
LINE
  8
0
  6
CONTINUOUS
 62
     3
 10
 45.299980163574219
 20
-75.254844665527344
 11
 34.799964904785156
 21
-75.254844665527344
  0
LINE
  8
0
  6
CONTINUOUS
 62
     3
 10
 45.299980163574219
 20
-76.454833984375
 11
 34.799964904785156
 21
-76.454833984375
  0
LINE
  8
0
  6
DOT
 62
     3
 10
 41.999984741210938
 20
-75.254844665527344
 11
 41.999984741210938
 21
-76.454833984375
  0
LINE
  8
0
  6
CONTINUOUS
 62
     3
 10
-45.000038146972656
 20
-51.954830169677734
 11
-45.000007629394531
 21
-74.954841613769531
  0
LINE
  8
0
  6
CONTINUOUS
 62
     3
 10
 34.799964904785156
 20
-75.254844665527344
 11
 34.799964904785156
 21
-76.454833984375
  0
LINE
  8
0
  6
CONTINUOUS
 62
     7
 10
-46.200019836425781
 20
-77.628227233886719
 11
-46.200019836425781
 21
-92.414833068847656
  0
LINE
  8
0
  6
CONTINUOUS
 62
     7
 10
 39.999992370605469
 20
-73.309280395507813
 11
 39.999992370605469
 21
-44.494831085205078
  0
TEXT
  8
0
  6
CONTINUOUS
 62
     7
 10
-9.0000213623046879
 20
-94.690696716308594
 11
 8.9999786376953139
 21
-94.690696716308594
 40
 3.5
 41
 0.8
  1
（断面図）
 50
 0
 72
  5
  0
LINE
  8
0
  6
CONTINUOUS
 62
     7
 10
-35.000007629394531
 20
-44.494831085205078
 11
-35.000022888183594
 21
-72.972747802734375
  0
LINE
  8
0
  6
CONTINUOUS
 62
     7
 10
-35.000022888183594
 20
-78.94732666015625
 11
-35.000022888183594
 21
-87.414840698242187
  0
LINE
  8
0
  6
CONTINUOUS
 62
     7
 10
-46.200019836425781
 20
-86.454841613769531
 11
-35.000022888183594
 21
-86.454841613769531
  0
LINE
  8
0
  6
CONTINUOUS
 62
     7
 10
-46.200019836425781
 20
-86.454841613769531
 11
-43.302242357558576
 21
-87.231298749077098
  0
LINE
  8
0
  6
CONTINUOUS
 62
     7
 10
-46.200019836425781
 20
-86.454841613769531
 11
-43.302242357558576
 21
-85.678384478461965
  0
LINE
  8
0
  6
CONTINUOUS
 62
     7
 10
-35.000022888183594
 20
-86.454841613769531
 11
-37.897800367050799
 21
-85.678384478461965
  0
LINE
  8
0
  6
CONTINUOUS
 62
     7
 10
-35.000022888183594
 20
-86.454841613769531
 11
-37.897800367050799
 21
-87.231298749077098
  0
TEXT
  8
0
  6
CONTINUOUS
 62
     7
 10
-44.550007629394528
 20
-85.494850158691406
 11
-36.65000762939453
 21
-85.494850158691406
 40
 2
 41
 0.8
  1
１１．２
 50
 0
 72
  5
  0
LINE
  8
0
  6
CONTINUOUS
 62
     7
 10
-45.180015563964844
 20
-86.454841613769531
 11
-35.000022888183594
 21
-86.454841613769531
  0
LINE
  8
0
  6
CONTINUOUS
 62
     7
 10
-35.000022888183594
 20
-86.454841613769531
 11
-37.897800367050799
 21
-85.678384478461965
  0
LINE
  8
0
  6
CONTINUOUS
 62
     7
 10
-35.000022888183594
 20
-86.454841613769531
 11
-37.897800367050799
 21
-87.231298749077098
  0
LINE
  8
0
  6
CONTINUOUS
 62
     7
 10
-35.000022888183594
 20
-86.454841613769531
 11
-30.700035095214844
 21
-86.454841613769531
  0
TEXT
  8
0
  6
CONTINUOUS
 62
     7
 10
-29.100010681152344
 20
-85.494850158691406
 11
-23.300010681152344
 21
-85.494850158691406
 40
 2
 41
 0.8
  1
４．３
 50
 0
 72
  5
  0
LINE
  8
0
  6
CONTINUOUS
 62
     7
 10
-21.700019836425781
 20
-86.454841613769531
 11
-30.700035095214844
 21
-86.454841613769531
  0
LINE
  8
0
  6
CONTINUOUS
 62
     7
 10
-30.700035095214844
 20
-86.454841613769531
 11
-27.802257616347639
 21
-87.231298749077098
  0
LINE
  8
0
  6
CONTINUOUS
 62
     7
 10
-30.700035095214844
 20
-86.454841613769531
 11
-27.802257616347639
 21
-85.678384478461965
  0
LINE
  8
0
  6
DASHDOT
 62
     7
 10
 109.27969181537628
 20
 52.545166015625
 11
 69.792514801025391
 21
 52.545166015625
  0
LINE
  8
0
  6
CONTINUOUS
 62
     3
 10
 102.19998836517334
 20
 88.545173645019531
 11
 76.199989318847656
 21
 88.545173645019531
  0
LINE
  8
0
  6
CONTINUOUS
 62
     3
 10
 76.199989318847656
 20
 88.545173645019531
 11
 76.199989318847656
 21
 16.54517316818238
  0
LINE
  8
0
  6
CONTINUOUS
 62
     3
 10
 76.199989318847656
 20
 16.54517316818238
 11
 102.19998836517334
 21
 16.54517316818238
  0
LINE
  8
0
  6
CONTINUOUS
 62
     3
 10
 102.19998836517334
 20
 16.54517316818238
 11
 102.19998836517334
 21
 88.545173645019531
  0
LINE
  8
0
  6
DASHDOT
 62
     3
 10
 72.821357727050781
 20
 77.545166015625
 11
 105.46558928489685
 21
 77.545166015625
  0
LINE
  8
0
  6
DASHDOT
 62
     3
 10
 72.821357727050781
 20
 27.545165538787849
 11
 105.46558928489685
 21
 27.545165538787849
  0
LINE
  8
0
  6
DOT
 62
     3
 10
 77.399986267089844
 20
 88.545173645019531
 11
 77.399986267089844
 21
 82.145164489746094
  0
LINE
  8
0
  6
DOT
 62
     3
 10
 77.399986267089844
 20
 72.945171356201172
 11
 77.399986267089844
 21
 32.145164012908943
  0
LINE
  8
0
  6
CONTINUOUS
 62
     3
 10
 77.399986267089844
 20
 32.145164012908943
 11
 77.399986267089844
 21
 22.945170879364021
  0
LINE
  8
0
  6
DOT
 62
     3
 10
 77.399986267089844
 20
 22.945170879364021
 11
 77.399986267089844
 21
 16.54517316818238
  0
LINE
  8
0
  6
CONTINUOUS
 62
     3
 10
 102.19998836517334
 20
 82.645164489746094
 11
 96.899988174438477
 21
 82.645164489746094
  0
LINE
  8
0
  6
CONTINUOUS
 62
     3
 10
 96.899988174438477
 20
 82.645164489746094
 11
 96.899988174438477
 21
 72.445167541503906
  0
LINE
  8
0
  6
CONTINUOUS
 62
     3
 10
 96.899988174438477
 20
 72.445167541503906
 11
 102.19998836517334
 21
 72.445167541503906
  0
LINE
  8
0
  6
DOT
 62
     3
 10
 100.99997758865356
 20
 16.54517316818238
 11
 100.99997758865356
 21
 22.445170879364021
  0
LINE
  8
0
  6
DOT
 62
     3
 10
 100.99997758865356
 20
 32.645167827606208
 11
 100.99997758865356
 21
 72.445167541503906
  0
LINE
  8
0
  6
CONTINUOUS
 62
     3
 10
 100.99997758865356
 20
 72.445167541503906
 11
 100.99997758865356
 21
 82.645164489746094
  0
LINE
  8
0
  6
DOT
 62
     3
 10
 100.99997758865356
 20
 82.645164489746094
 11
 100.99997758865356
 21
 88.545173645019531
  0
LINE
  8
0
  6
CONTINUOUS
 62
     3
 10
 102.19998836517334
 20
 32.645167827606208
 11
 96.899988174438477
 21
 32.645167827606208
  0
LINE
  8
0
  6
CONTINUOUS
 62
     3
 10
 96.899988174438477
 20
 32.645167827606208
 11
 96.899988174438477
 21
 22.445170879364021
  0
LINE
  8
0
  6
CONTINUOUS
 62
     3
 10
 96.899988174438477
 20
 22.445170879364021
 11
 102.19998836517334
 21
 22.445170879364021
  0
LINE
  8
0
  6
CONTINUOUS
 62
     3
 10
 100.99997758865356
 20
 22.445170879364021
 11
 100.99997758865356
 21
 32.645167827606208
  0
LINE
  8
0
  6
CONTINUOUS
 62
     3
 10
 79.399988174438477
 20
 82.145164489746094
 11
 79.399988174438477
 21
 72.945171356201172
  0
LINE
  8
0
  6
CONTINUOUS
 62
     3
 10
 79.399988174438477
 20
 82.145164489746094
 11
 76.199989318847656
 21
 82.145164489746094
  0
LINE
  8
0
  6
CONTINUOUS
 62
     3
 10
 76.199989318847656
 20
 72.945171356201172
 11
 79.399988174438477
 21
 72.945171356201172
  0
LINE
  8
0
  6
CONTINUOUS
 62
     3
 10
 77.399986267089844
 20
 82.145164489746094
 11
 77.399986267089844
 21
 72.945171356201172
  0
LINE
  8
0
  6
CONTINUOUS
 62
     3
 10
 46.799980163574219
 20
-71.154838562011719
 11
 45.599979400634766
 21
-71.154838562011719
  0
LINE
  8
0
  6
CONTINUOUS
 62
     3
 10
 44.299980163574219
 20
-76.454833984375
 11
 44.299980163574219
 21
-75.254837036132812
  0
LINE
  8
0
  6
DOT
 62
     3
 10
 35.499992370605469
 20
-50.454837799072266
 11
 35.499992370605469
 21
-51.654842376708984
  0
LINE
  8
0
  6
DOT
 62
     3
 10
 44.499992370605469
 20
-50.454837799072266
 11
 44.499992370605469
 21
-51.654842376708984
  0
LINE
  8
256
  6
CONTINUOUS
 62
     7
 10
-193.30000000000001
 20
 124.99999645625348
 11
-93.300000000000011
 21
 124.99999645625348
  0
LINE
  8
256
  6
CONTINUOUS
 62
     7
 10
-93.300000000000011
 20
 124.9999964562535
 11
-93.300000000000011
 21
 136.99999721136808
  0
TEXT
  8
256
  6
CONTINUOUS
 62
     7
 10
-188.30000000000001
 20
 127.99999604817611
 11
-140.30000000000001
 21
 127.99999604817611
 40
 6
 41
 1
  1
ＬＢ－Ｄ７１１０
 50
 0
 72
  5
  0
LINE
  8
256
  6
CONTINUOUS
 62
     7
 10
 104.99998474121094
 20
-121.5
 11
 200
 21
-121.5
  0
LINE
  8
256
  6
CONTINUOUS
 62
     7
 10
 170.99998474121094
 20
-109.5
 11
 170.99998474121094
 21
-121.5
  0
TEXT
  8
256
  6
CONTINUOUS
 62
     7
 10
 112.5
 20
-134.25
 11
 160.5
 21
-134.25
 40
 6
 41
 1
  1
ＢＨ２６ＳＰ－３
 50
 0
 72
  5
  0
TEXT
  8
256
  6
CONTINUOUS
 62
     7
 10
 117.99998474121094
 20
-119.75
 11
 157.99998474121094
 21
-119.75
 40
 5
 41
 0.8
  1
分岐ＭＣＣＢ取付金具
 50
 0
 72
  5
  0
TEXT
  8
256
  6
CONTINUOUS
 62
     7
 10
 106.29998779296875
 20
-112.4499633789062
 11
 111.29998779296875
 21
-112.4499633789062
 40
 2.5
 41
 0.8
  1
品名
 50
 0
 72
  5
  0
TEXT
  8
256
  6
CONTINUOUS
 62
     7
 10
 106.29998779296875
 20
-124.45003051757811
 11
 111.29998779296875
 21
-124.45003051757811
 40
 2.5
 41
 0.8
  1
品番
 50
 0
 72
  5
  0
TEXT
  8
256
  6
CONTINUOUS
 62
     7
 10
 180.55000000000001
 20
-117.25
 11
 189.94999999999999
 21
-117.25
 40
 3.5
 41
 0.8
  1
３個用
 50
 0
 72
  5
  0
LINE
  8
256
  6
CONTINUOUS
 62
     7
 10
 104.99998474121094
 20
-139.5
 11
 104.99998474121094
 21
-109.5
  0
LINE
  8
256
  6
CONTINUOUS
 62
     7
 10
 104.99998474121094
 20
-109.5
 11
 200
 21
-109.5
  0
LINE
  8
256
  6
CONTINUOUS
 62
     7
 10
-193.30000000000001
 20
 136.99999721136808
 11
-193.30000000000001
 21
-139.49999999999994
  0
LINE
  8
256
  6
CONTINUOUS
 62
     7
 10
-193.30000000000001
 20
 136.99999721136808
 11
 200
 21
 136.99999721136808
  0
LINE
  8
256
  6
CONTINUOUS
 62
     7
 10
 200
 20
-139.5
 11
-193.30000000000001
 21
-139.49999999999994
  0
LINE
  8
256
  6
CONTINUOUS
 62
     7
 10
 200
 20
 136.99999721136808
 11
 200
 21
-139.5
  0
LINE
  8
0
  6
CONTINUOUS
 62
     7
 10
-59.199974060058594
 20
-50.454826354980469
 11
-59.199974060058594
 21
-76.454833984375
  0
LINE
  8
0
  6
CONTINUOUS
 62
     7
 10
-59.199974060058594
 20
-50.454826354980469
 11
-59.976431195366153
 21
-53.352603833847674
  0
LINE
  8
0
  6
CONTINUOUS
 62
     7
 10
-59.199974060058594
 20
-50.454826354980469
 11
-58.423516924751034
 21
-53.352603833847674
  0
LINE
  8
0
  6
CONTINUOUS
 62
     7
 10
-59.199974060058594
 20
-76.454833984375
 11
-58.423516924751034
 21
-73.557056505507802
  0
LINE
  8
0
  6
CONTINUOUS
 62
     7
 10
-59.199974060058594
 20
-76.454833984375
 11
-59.976431195366153
 21
-73.557056505507802
  0
TEXT
  8
0
  6
CONTINUOUS
 62
     7
 10
-60.159980738956669
 20
-65.554836992421428
 11
-60.159980900688815
 21
-61.854836992421419
 40
 2
 41
 0.8
  1
26
 50
 90.000004039712721
 72
  5
  0
LINE
  8
0
  6
CONTINUOUS
 62
     7
 10
-47.095359802246094
 20
-44.054836273193359
 11
-60.159980773925781
 21
-44.054836273193359
  0
LINE
  8
0
  6
CONTINUOUS
 62
     7
 10
-59.199974060058594
 20
-50.454826354980469
 11
-59.199974060058594
 21
-44.054836273193359
  0
LINE
  8
0
  6
CONTINUOUS
 62
     7
 10
-59.199974060058594
 20
-50.454826354980469
 11
-58.423516924751034
 21
-47.557048876113264
  0
LINE
  8
0
  6
CONTINUOUS
 62
     7
 10
-59.199974060058594
 20
-50.454826354980469
 11
-59.976431195366153
 21
-47.557048876113264
  0
LINE
  8
0
  6
CONTINUOUS
 62
     7
 10
-59.199974060058594
 20
-44.054836273193359
 11
-59.976431195366153
 21
-46.952613752060564
  0
LINE
  8
0
  6
CONTINUOUS
 62
     7
 10
-59.199974060058594
 20
-44.054836273193359
 11
-58.423516924751034
 21
-46.952613752060564
  0
TEXT
  8
0
  6
CONTINUOUS
 62
     7
 10
-60.159980738956669
 20
-50.154824022450718
 11
-60.15998099248273
 21
-44.354824022450728
 40
 2
 41
 0.8
  1
6.4
 50
 90.000004039712721
 72
  5
  0
LINE
  8
0
  6
CONTINUOUS
 62
     7
 10
 34.799964904785156
 20
-78.454833984375
 11
 34.799964904785156
 21
-87.414840698242187
  0
LINE
  8
0
  6
CONTINUOUS
 62
     7
 10
 39.999992370605469
 20
-78.445991516113281
 11
 39.999992370605469
 21
-87.414840698242187
  0
LINE
  8
0
  6
CONTINUOUS
 62
     7
 10
 34.799964904785156
 20
-86.454841613769531
 11
 39.999992370605469
 21
-86.454841613769531
  0
LINE
  8
0
  6
CONTINUOUS
 62
     7
 10
 34.799964904785156
 20
-86.454841613769531
 11
 37.697742383652361
 21
-87.231298749077098
  0
LINE
  8
0
  6
CONTINUOUS
 62
     7
 10
 34.799964904785156
 20
-86.454841613769531
 11
 37.697742383652361
 21
-85.678384478461965
  0
LINE
  8
0
  6
CONTINUOUS
 62
     7
 10
 39.999992370605469
 20
-86.454841613769531
 11
 37.102214891738264
 21
-85.678384478461965
  0
LINE
  8
0
  6
CONTINUOUS
 62
     7
 10
 39.999992370605469
 20
-86.454841613769531
 11
 37.102214891738264
 21
-87.231298749077098
  0
TEXT
  8
0
  6
CONTINUOUS
 62
     7
 10
 34.749980163574222
 20
-85.494850158691406
 11
 39.549980163574219
 21
-85.494850158691406
 40
 2
 41
 0.8
  1
5.2
 50
 0
 72
  5
  0
LINE
  8
0
  6
CONTINUOUS
 62
     7
 10
 46.799980163574219
 20
-78.454833984375
 11
 46.799980163574219
 21
-87.414840698242187
  0
LINE
  8
0
  6
CONTINUOUS
 62
     7
 10
 39.999992370605469
 20
-86.454841613769531
 11
 46.799980163574219
 21
-86.454841613769531
  0
LINE
  8
0
  6
CONTINUOUS
 62
     7
 10
 39.999992370605469
 20
-86.454841613769531
 11
 42.897769849472674
 21
-87.231298749077098
  0
LINE
  8
0
  6
CONTINUOUS
 62
     7
 10
 39.999992370605469
 20
-86.454841613769531
 11
 42.897769849472674
 21
-85.678384478461965
  0
LINE
  8
0
  6
CONTINUOUS
 62
     7
 10
 46.799980163574219
 20
-86.454841613769531
 11
 43.902202684707014
 21
-85.678384478461965
  0
LINE
  8
0
  6
CONTINUOUS
 62
     7
 10
 46.799980163574219
 20
-86.454841613769531
 11
 43.902202684707014
 21
-87.231298749077098
  0
TEXT
  8
0
  6
CONTINUOUS
 62
     7
 10
 40.749995422363284
 20
-85.494850158691406
 11
 45.549995422363281
 21
-85.494850158691406
 40
 2
 41
 0.8
  1
6.8
 50
 0
 72
  5
  0
LINE
  8
0
  6
CONTINUOUS
 62
     7
 10
 34.799964904785156
 20
-86.954833984375
 11
 34.799964904785156
 21
-92.414833068847656
  0
LINE
  8
0
  6
CONTINUOUS
 62
     7
 10
 46.799980163574219
 20
-86.954833984375
 11
 46.799980163574219
 21
-92.414833068847656
  0
LINE
  8
0
  6
CONTINUOUS
 62
     7
 10
 34.799964904785156
 20
-91.454841613769531
 11
 46.799980163574219
 21
-91.454841613769531
  0
LINE
  8
0
  6
CONTINUOUS
 62
     7
 10
 34.799964904785156
 20
-91.454841613769531
 11
 37.697742383652361
 21
-92.231298749077098
  0
LINE
  8
0
  6
CONTINUOUS
 62
     7
 10
 34.799964904785156
 20
-91.454841613769531
 11
 37.697742383652361
 21
-90.678384478461965
  0
LINE
  8
0
  6
CONTINUOUS
 62
     7
 10
 46.799980163574219
 20
-91.454841613769531
 11
 43.902202684707014
 21
-90.678384478461965
  0
LINE
  8
0
  6
CONTINUOUS
 62
     7
 10
 46.799980163574219
 20
-91.454841613769531
 11
 43.902202684707014
 21
-92.231298749077098
  0
TEXT
  8
0
  6
CONTINUOUS
 62
     7
 10
 38.949969482421878
 20
-90.494842529296875
 11
 42.649969482421881
 21
-90.494842529296875
 40
 2
 41
 0.8
  1
12
 50
 0
 72
  5
  0
LINE
  8
0
  6
CONTINUOUS
 62
     7
 10
 39.999992370605469
 20
-45.454833984375
 11
 0
 21
-45.454833984375
  0
LINE
  8
0
  6
CONTINUOUS
 62
     7
 10
 39.999992370605469
 20
-45.454833984375
 11
 37.102214891738264
 21
-44.67837684906744
  0
LINE
  8
0
  6
CONTINUOUS
 62
     7
 10
 39.999992370605469
 20
-45.454833984375
 11
 37.102214891738264
 21
-46.23129111968256
  0
LINE
  8
0
  6
CONTINUOUS
 62
     7
 10
 0
 20
-45.454833984375
 11
 2.897777478867205
 21
-46.23129111968256
  0
LINE
  8
0
  6
CONTINUOUS
 62
     7
 10
 0
 20
-45.454833984375
 11
 2.897777478867205
 21
-44.67837684906744
  0
TEXT
  8
0
  6
CONTINUOUS
 62
     7
 10
 18.149996948242187
 20
-44.494834899902344
 11
 21.849996948242186
 21
-44.494834899902344
 40
 2
 41
 0.8
  1
40
 50
 0
 72
  5
  0
LINE
  8
0
  6
CONTINUOUS
 62
     7
 10
-35.000007629394531
 20
-45.454833984375
 11
 0
 21
-45.454833984375
  0
LINE
  8
0
  6
CONTINUOUS
 62
     7
 10
-35.000007629394531
 20
-45.454833984375
 11
-32.102230150527326
 21
-46.23129111968256
  0
LINE
  8
0
  6
CONTINUOUS
 62
     7
 10
-35.000007629394531
 20
-45.454833984375
 11
-32.102230150527326
 21
-44.67837684906744
  0
LINE
  8
0
  6
CONTINUOUS
 62
     7
 10
 0
 20
-45.454833984375
 11
-2.897777478867205
 21
-44.67837684906744
  0
LINE
  8
0
  6
CONTINUOUS
 62
     7
 10
 0
 20
-45.454833984375
 11
-2.897777478867205
 21
-46.23129111968256
  0
TEXT
  8
0
  6
CONTINUOUS
 62
     7
 10
-19.350010681152344
 20
-44.494834899902344
 11
-15.650010681152345
 21
-44.494834899902344
 40
 2
 41
 0.8
  1
35
 50
 0
 72
  5
  0
LINE
  8
0
  6
CONTINUOUS
 62
     7
 10
-59.699989318847656
 20
-44.054836273193359
 11
-65.159996032714844
 21
-44.054836273193359
  0
LINE
  8
0
  6
CONTINUOUS
 62
     7
 10
-59.699989318847656
 20
-76.454833984375
 11
-65.159996032714844
 21
-76.454833984375
  0
LINE
  8
0
  6
CONTINUOUS
 62
     7
 10
-64.199989318847656
 20
-44.054836273193359
 11
-64.199989318847656
 21
-76.454833984375
  0
LINE
  8
0
  6
CONTINUOUS
 62
     7
 10
-64.199989318847656
 20
-44.054836273193359
 11
-64.976446454155223
 21
-46.952613752060564
  0
LINE
  8
0
  6
CONTINUOUS
 62
     7
 10
-64.199989318847656
 20
-44.054836273193359
 11
-63.423532183540097
 21
-46.952613752060564
  0
LINE
  8
0
  6
CONTINUOUS
 62
     7
 10
-64.199989318847656
 20
-76.454833984375
 11
-63.423532183540097
 21
-73.557056505507802
  0
LINE
  8
0
  6
CONTINUOUS
 62
     7
 10
-64.199989318847656
 20
-76.454833984375
 11
-64.976446454155223
 21
-73.557056505507802
  0
TEXT
  8
0
  6
CONTINUOUS
 62
     7
 10
-65.159995997745725
 20
-64.204830888905803
 11
-65.159996343065714
 21
-56.304830888905805
 40
 2
 41
 0.8
  1
32.4
 50
 90.000004039712721
 72
  5
  0
LINE
  8
0
  6
CONTINUOUS
 62
     7
 10
-30.700035095214844
 20
-77.628227233886719
 11
-30.700035095214844
 21
-92.414833068847656
  0
LINE
  8
0
  6
CONTINUOUS
 62
     7
 10
-46.200019836425781
 20
-91.454841613769531
 11
-30.700035095214844
 21
-91.454841613769531
  0
LINE
  8
0
  6
CONTINUOUS
 62
     7
 10
-46.200019836425781
 20
-91.454841613769531
 11
-43.302242357558576
 21
-92.231298749077098
  0
LINE
  8
0
  6
CONTINUOUS
 62
     7
 10
-46.200019836425781
 20
-91.454841613769531
 11
-43.302242357558576
 21
-90.678384478461965
  0
LINE
  8
0
  6
CONTINUOUS
 62
     7
 10
-30.700035095214844
 20
-91.454841613769531
 11
-33.597812574082049
 21
-90.678384478461965
  0
LINE
  8
0
  6
CONTINUOUS
 62
     7
 10
-30.700035095214844
 20
-91.454841613769531
 11
-33.597812574082049
 21
-92.231298749077098
  0
TEXT
  8
0
  6
CONTINUOUS
 62
     7
 10
-42.400028991699216
 20
-90.494842529296875
 11
-34.500028991699217
 21
-90.494842529296875
 40
 2
 41
 0.8
  1
15.5
 50
 0
 72
  5
  0
LINE
  8
0
  6
DASHDOT
 62
     3
 10
 40
 20
 31.057708740234375
 11
 40
 21
 75.187931060791016
  0
LINE
  8
0
  6
CONTINUOUS
 62
     3
 10
-46.199996948242187
 20
 88.545173645019531
 11
 46.79998779296875
 21
 88.545173645019531
  0
LINE
  8
0
  6
CONTINUOUS
 62
     3
 10
 46.79998779296875
 20
 88.545173645019531
 11
 46.79998779296875
 21
 16.545173168182373
  0
LINE
  8
0
  6
CONTINUOUS
 62
     3
 10
 46.79998779296875
 20
 16.545173168182373
 11
-46.199996948242187
 21
 16.545173168182373
  0
LINE
  8
0
  6
CONTINUOUS
 62
     3
 10
-46.199996948242187
 20
 16.545173168182373
 11
-46.199996948242187
 21
 88.545173645019531
  0
LINE
  8
0
  6
DASHDOT
 62
     3
 10
-48.657047271728516
 20
 77.545166015625
 11
 49.875
 21
 77.545166015625
  0
LINE
  8
0
  6
DASHDOT
 62
     3
 10
-50.516006469726563
 20
 27.545166015625
 11
 49.875
 21
 27.545166015625
  0
LINE
  8
0
  6
DOT
 62
     3
 10
-45
 20
 16.545173168182373
 11
-45
 21
 19.54517126083374
  0
LINE
  8
0
  6
CONTINUOUS
 62
     3
 10
-45
 20
 19.54517126083374
 11
-45
 21
 21.545166969299316
  0
LINE
  8
0
  6
DOT
 62
     3
 10
-45
 20
 21.545166969299316
 11
-45
 21
 33.545162200927734
  0
LINE
  8
0
  6
CONTINUOUS
 62
     3
 10
-45
 20
 33.545162200927734
 11
-45
 21
 35.545171737670898
  0
LINE
  8
0
  6
DOT
 62
     3
 10
-45
 20
 35.545171737670898
 11
-45
 21
 69.795166015625
  0
LINE
  8
0
  6
DOT
 62
     3
 10
-45
 20
 85.545166015625
 11
-45
 21
 88.545173645019531
  0
LINE
  8
0
  6
CONTINUOUS
 62
     3
 10
-46.199996948242187
 20
 33.545162200927734
 11
-42.199996948242187
 21
 33.545162200927734
  0
LINE
  8
0
  6
CONTINUOUS
 62
     3
 10
-41.199981689453125
 20
 32.545156478881836
 11
-41.199981689453125
 21
 22.545166015625
  0
ARC
  8
0
  6
CONTINUOUS
 62
     3
 10
-42.199996948242187
 20
 32.545156478881836
 40
 1
 50
 0
 51
 90.000004039712721
  0
LINE
  8
0
  6
CONTINUOUS
 62
     3
 10
-42.199996948242187
 20
 21.545166969299316
 11
-46.199996948242187
 21
 21.545166969299316
  0
ARC
  8
0
  6
CONTINUOUS
 62
     3
 10
-42.199996948242187
 20
 22.545166015625
 40
 1
 50
-90.000000851989171
 51
 0
  0
LINE
  8
0
  6
CONTINUOUS
 62
     3
 10
-46.199996948242187
 20
 35.545171737670898
 11
-31.699966430664063
 21
 35.545171737670898
  0
LINE
  8
0
  6
CONTINUOUS
 62
     3
 10
-28.699966430664063
 20
 32.545169830322266
 11
-28.699966430664063
 21
 22.545172691345215
  0
ARC
  8
0
  6
CONTINUOUS
 62
     3
 10
-31.699966430664063
 20
 32.545169830322266
 40
 3
 50
 0
 51
 90.000004039712721
  0
LINE
  8
0
  6
CONTINUOUS
 62
     3
 10
-31.699966430664063
 20
 19.54517126083374
 11
-46.199996948242187
 21
 19.54517126083374
  0
ARC
  8
0
  6
CONTINUOUS
 62
     3
 10
-31.699966430664063
 20
 22.545172691345215
 40
 3
 50
-89.99997353123203
 51
 0
  0
LINE
  8
0
  6
DOT
 62
     3
 10
 45.599990844726562
 20
 88.545173645019531
 11
 45.599990844726562
 21
 82.145164489746094
  0
LINE
  8
0
  6
DOT
 62
     3
 10
 45.599990844726562
 20
 72.945171356201172
 11
 45.599990844726562
 21
 57.145164489746094
  0
LINE
  8
0
  6
DOT
 62
     3
 10
 45.599990844726562
 20
 47.945171356201172
 11
 45.599990844726562
 21
 32.145164489746094
  0
LINE
  8
0
  6
CONTINUOUS
 62
     3
 10
 45.599990844726562
 20
 32.145164489746094
 11
 45.599990844726562
 21
 22.945171356201172
  0
LINE
  8
0
  6
DOT
 62
     3
 10
 45.599990844726562
 20
 22.945171356201172
 11
 45.599990844726562
 21
 16.545173168182373
  0
LINE
  8
0
  6
CONTINUOUS
 62
     3
 10
 29.29998779296875
 20
 32.545166015625
 11
 34.29998779296875
 21
 32.545166015625
  0
LINE
  8
0
  6
CONTINUOUS
 62
     3
 10
 34.29998779296875
 20
 33.745161056518555
 11
 34.29998779296875
 21
 21.345161437988281
  0
LINE
  8
0
  6
CONTINUOUS
 62
     3
 10
 34.29998779296875
 20
 22.545163154602051
 11
 29.29998779296875
 21
 22.545163154602051
  0
LINE
  8
0
  6
CONTINUOUS
 62
     3
 10
 29.29998779296875
 20
 21.345161437988281
 11
 29.29998779296875
 21
 33.745161056518555
  0
LINE
  8
0
  6
CONTINUOUS
 62
     3
 10
 46.79998779296875
 20
 32.145164489746094
 11
 44.29998779296875
 21
 32.145164489746094
  0
LINE
  8
0
  6
CONTINUOUS
 62
     3
 10
 44.29998779296875
 20
 32.145164489746094
 11
 44.29998779296875
 21
 22.945171356201172
  0
LINE
  8
0
  6
CONTINUOUS
 62
     3
 10
 44.29998779296875
 20
 22.945171356201172
 11
 46.79998779296875
 21
 22.945171356201172
  0
LINE
  8
0
  6
DOT
 62
     3
 10
 34.29998779296875
 20
 34.045162200927734
 11
 29.29998779296875
 21
 34.045162200927734
  0
LINE
  8
0
  6
DOT
 62
     3
 10
 29.29998779296875
 20
 34.045162200927734
 11
 29.29998779296875
 21
 33.745161056518555
  0
LINE
  8
0
  6
DOT
 62
     3
 10
 29.29998779296875
 20
 21.345161437988281
 11
 29.29998779296875
 21
 21.045160293579102
  0
LINE
  8
0
  6
DOT
 62
     3
 10
 29.29998779296875
 20
 21.045160293579102
 11
 34.29998779296875
 21
 21.045160293579102
  0
LINE
  8
0
  6
DOT
 62
     3
 10
 34.29998779296875
 20
 21.045160293579102
 11
 34.29998779296875
 21
 21.345161437988281
  0
LINE
  8
0
  6
DOT
 62
     3
 10
 34.29998779296875
 20
 33.745161056518555
 11
 29.29998779296875
 21
 33.745161056518555
  0
LINE
  8
0
  6
DOT
 62
     3
 10
 29.29998779296875
 20
 21.345161437988281
 11
 34.29998779296875
 21
 21.345161437988281
  0
LINE
  8
0
  6
CONTINUOUS
 62
     7
 10
-48.657047271728516
 20
 77.545173645019531
 11
-60.160003662109375
 21
 77.545173645019531
  0
LINE
  8
0
  6
CONTINUOUS
 62
     7
 10
-48.657047271728516
 20
 27.545166015625
 11
-60.160003662109375
 21
 27.545166015625
  0
LINE
  8
0
  6
CONTINUOUS
 62
     7
 10
-46.199996948242187
 20
 14.545174121856689
 11
-46.199996948242187
 21
-10.414819717407227
  0
LINE
  8
0
  6
CONTINUOUS
 62
     7
 10
 46.79998779296875
 20
 14.997531652450562
 11
 46.79998779296875
 21
-10.414819717407227
  0
LINE
  8
0
  6
CONTINUOUS
 62
     7
 10
 51.004867553710938
 20
 65.045166015625
 11
 63.759979248046875
 21
 65.045166015625
  0
LINE
  8
0
  6
CONTINUOUS
 62
     7
 10
 48.79998779296875
 20
 88.545173645019531
 11
 63.759979248046875
 21
 88.545173645019531
  0
LINE
  8
0
  6
CONTINUOUS
 62
     7
 10
-59.70001220703125
 20
 27.545166015625
 11
-60.160011291503906
 21
 27.545166015625
  0
CIRCLE
  8
0
  6
CONTINUOUS
 62
     3
 10
 40
 20
 65.045162200927734
 40
 4.5
  0
LINE
  8
0
  6
DOT
 62
     6
 10
 34.79998779296875
 20
 88.545173645019531
 11
 34.79998779296875
 21
 68.045166015625
  0
LINE
  8
0
  6
DOT
 62
     6
 10
 34.79998779296875
 20
 68.045166015625
 11
 35.79998779296875
 21
 67.045158386230469
  0
LINE
  8
0
  6
DOT
 62
     6
 10
 34.79998779296875
 20
 16.545173168182373
 11
 34.79998779296875
 21
 37.045167922973633
  0
LINE
  8
0
  6
DOT
 62
     6
 10
 34.79998779296875
 20
 43.045166015625
 11
 34.79998779296875
 21
 62.045166015625
  0
LINE
  8
0
  6
DOT
 62
     6
 10
 34.79998779296875
 20
 62.045166015625
 11
 35.79998779296875
 21
 63.045166015625
  0
LINE
  8
0
  6
DASHDOT
 62
     3
 10
-35.000015258789063
 20
 81.303192138671875
 11
-35.000015258789063
 21
 23.239006042480469
  0
LINE
  8
0
  6
CONTINUOUS
 62
     7
 10
 44.892807006835938
 20
 99.938690185546875
 11
 58.326950073242188
 21
 99.938690185546875
  0
TEXT
  8
0
  6
CONTINUOUS
 62
     7
 10
 47.274246215820313
 20
 100.68869018554687
 11
 56.774246215820312
 21
 100.68869018554687
 40
 2.5
 41
 0.8
  1
２－φ９
 50
 0
 72
  5
  0
LINE
  8
0
  6
CONTINUOUS
 62
     7
 10
 44.892807006835938
 20
 99.938690185546875
 11
 40.6248779296875
 21
 69.501564025878906
  0
LINE
  8
0
  6
CONTINUOUS
 62
     7
 10
 40.6248779296875
 20
 69.501564025878906
 11
 41.796205526590668
 21
 72.263445931524586
  0
LINE
  8
0
  6
CONTINUOUS
 62
     7
 10
 40.6248779296875
 20
 69.501564025878906
 11
 40.258336431936584
 21
 72.479087716872229
  0
LINE
  8
0
  6
CONTINUOUS
 62
     6
 10
 40
 20
 67.045158386230469
 11
 35.79998779296875
 21
 67.045158386230469
  0
LINE
  8
0
  6
CONTINUOUS
 62
     6
 10
 40
 20
 63.045166015625
 11
 35.79998779296875
 21
 63.045166015625
  0
LINE
  8
0
  6
CONTINUOUS
 62
     7
 10
-30.1634521484375
 20
 94.938690185546875
 11
-15.9569091796875
 21
 94.938690185546875
  0
TEXT
  8
0
  6
CONTINUOUS
 62
     7
 10
-27.782012939453125
 20
 95.688690185546875
 11
-18.282012939453125
 21
 95.688690185546875
 40
 2.5
 41
 0.8
  1
３－φ４
 50
 0
 72
  5
  0
TEXT
  8
0
  6
CONTINUOUS
 62
     7
 10
-33.458300781250003
 20
 100.43869018554687
 11
-19.458300781249999
 21
 100.43869018554687
 40
 3
 41
 0.8
  1
３－切抜き
 50
 0
 72
  5
  0
LINE
  8
0
  6
CONTINUOUS
 62
     7
 10
-35.370254516601563
 20
 99.938697814941406
 11
-18.95037841796875
 21
 99.938697814941406
  0
LINE
  8
0
  6
CONTINUOUS
 62
     7
 10
-35.370254516601563
 20
 99.938697814941406
 11
-37.982177734375
 21
 79.789344787597656
  0
LINE
  8
0
  6
CONTINUOUS
 62
     7
 10
-37.982177734375
 20
 79.789344787597656
 11
-36.839646333302078
 21
 82.563262954660686
  0
LINE
  8
0
  6
CONTINUOUS
 62
     7
 10
-37.982177734375
 20
 79.789344787597656
 11
-38.379675599955945
 21
 82.762894088829867
  0
LINE
  8
0
  6
DASHDOT
 62
     7
 10
 0
 20
 93.269256591796875
 11
 0
 21
-5.4148292541503906
  0
LINE
  8
0
  6
DASHDOT
 62
     7
 10
-49.955108642578125
 20
 65.045166015625
 11
 51.004867553710938
 21
 65.045166015625
  0
LINE
  8
0
  6
DOT
 62
     3
 10
 34.29998779296875
 20
 34.045162200927734
 11
 34.29998779296875
 21
 33.745161056518555
  0
LINE
  8
0
  6
CONTINUOUS
 62
     3
 10
 45.599990844726562
 20
 82.145164489746094
 11
 45.599990844726562
 21
 72.945171356201172
  0
LINE
  8
0
  6
CONTINUOUS
 62
     3
 10
 29.29998779296875
 20
 82.545166015625
 11
 34.29998779296875
 21
 82.545166015625
  0
LINE
  8
0
  6
CONTINUOUS
 62
     3
 10
 34.29998779296875
 20
 83.745162963867188
 11
 34.29998779296875
 21
 71.345161437988281
  0
LINE
  8
0
  6
CONTINUOUS
 62
     3
 10
 34.29998779296875
 20
 72.545162200927734
 11
 29.29998779296875
 21
 72.545162200927734
  0
LINE
  8
0
  6
CONTINUOUS
 62
     3
 10
 29.29998779296875
 20
 71.345161437988281
 11
 29.29998779296875
 21
 83.745162963867188
  0
LINE
  8
0
  6
CONTINUOUS
 62
     3
 10
 46.79998779296875
 20
 82.145164489746094
 11
 44.29998779296875
 21
 82.145164489746094
  0
LINE
  8
0
  6
CONTINUOUS
 62
     3
 10
 44.29998779296875
 20
 82.145164489746094
 11
 44.29998779296875
 21
 72.945171356201172
  0
LINE
  8
0
  6
CONTINUOUS
 62
     3
 10
 44.29998779296875
 20
 72.945171356201172
 11
 46.79998779296875
 21
 72.945171356201172
  0
LINE
  8
0
  6
DOT
 62
     3
 10
 34.29998779296875
 20
 84.045166015625
 11
 29.29998779296875
 21
 84.045166015625
  0
LINE
  8
0
  6
DOT
 62
     3
 10
 29.29998779296875
 20
 84.045166015625
 11
 29.29998779296875
 21
 83.745162963867188
  0
LINE
  8
0
  6
DOT
 62
     3
 10
 29.29998779296875
 20
 71.345161437988281
 11
 29.29998779296875
 21
 71.045162200927734
  0
LINE
  8
0
  6
DOT
 62
     3
 10
 29.29998779296875
 20
 71.045162200927734
 11
 34.29998779296875
 21
 71.045162200927734
  0
LINE
  8
0
  6
DOT
 62
     3
 10
 34.29998779296875
 20
 71.045162200927734
 11
 34.29998779296875
 21
 71.345161437988281
  0
LINE
  8
0
  6
DOT
 62
     3
 10
 34.29998779296875
 20
 83.745162963867188
 11
 29.29998779296875
 21
 83.745162963867188
  0
LINE
  8
0
  6
DOT
 62
     3
 10
 29.29998779296875
 20
 71.345161437988281
 11
 34.29998779296875
 21
 71.345161437988281
  0
LINE
  8
0
  6
DOT
 62
     3
 10
 34.29998779296875
 20
 84.045166015625
 11
 34.29998779296875
 21
 83.745162963867188
  0
CIRCLE
  8
0
  6
CONTINUOUS
 62
     6
 10
-35.000015258789063
 20
 77.545166015625
 40
 2
  0
ARC
  8
0
  6
CONTINUOUS
 62
     6
 10
 40
 20
 65.045166015625
 40
 2
 50
-90.000000851989171
 51
 90.000004039712721
  0
LINE
  8
0
  6
CONTINUOUS
 62
     3
 10
-45
 20
 69.545166015625
 11
-45
 21
 71.545162200927734
  0
LINE
  8
0
  6
DOT
 62
     3
 10
-45
 20
 71.545162200927734
 11
-45
 21
 83.545166015625
  0
LINE
  8
0
  6
CONTINUOUS
 62
     3
 10
-45
 20
 83.545166015625
 11
-45
 21
 85.545166015625
  0
LINE
  8
0
  6
CONTINUOUS
 62
     3
 10
-46.199996948242187
 20
 83.545166015625
 11
-42.199996948242187
 21
 83.545166015625
  0
LINE
  8
0
  6
CONTINUOUS
 62
     3
 10
-41.199981689453125
 20
 82.545158386230469
 11
-41.199981689453125
 21
 72.545162200927734
  0
ARC
  8
0
  6
CONTINUOUS
 62
     3
 10
-42.199996948242187
 20
 82.545158386230469
 40
 1
 50
 0
 51
 90.000004039712721
  0
LINE
  8
0
  6
CONTINUOUS
 62
     3
 10
-42.199996948242187
 20
 71.545162200927734
 11
-46.199996948242187
 21
 71.545162200927734
  0
ARC
  8
0
  6
CONTINUOUS
 62
     3
 10
-42.199996948242187
 20
 72.545162200927734
 40
 1
 50
-90.000000851989171
 51
 0
  0
LINE
  8
0
  6
CONTINUOUS
 62
     3
 10
-46.199996948242187
 20
 85.545166015625
 11
-31.699966430664063
 21
 85.545166015625
  0
LINE
  8
0
  6
CONTINUOUS
 62
     3
 10
-28.699966430664063
 20
 82.545166015625
 11
-28.699966430664063
 21
 72.545169830322266
  0
ARC
  8
0
  6
CONTINUOUS
 62
     3
 10
-31.699966430664063
 20
 82.545166015625
 40
 3
 50
 0
 51
 90.000004039712721
  0
LINE
  8
0
  6
CONTINUOUS
 62
     3
 10
-31.699966430664063
 20
 69.545169830322266
 11
-46.199996948242187
 21
 69.545166015625
  0
ARC
  8
0
  6
CONTINUOUS
 62
     3
 10
-31.699966430664063
 20
 72.545169830322266
 40
 3
 50
-89.99997353123203
 51
 0
  0
LINE
  8
0
  6
CONTINUOUS
 62
     6
 10
-30.699996948242188
 20
 19.466735363006592
 11
-30.699996948242188
 21
 35.623607635498047
  0
LINE
  8
0
  6
DOT
 62
     6
 10
-30.699996948242188
 20
 16.545173168182373
 11
-30.699996948242188
 21
 19.466735363006592
  0
LINE
  8
0
  6
DOT
 62
     6
 10
-30.699996948242188
 20
 35.623607635498047
 11
-30.699996948242188
 21
 69.716732025146484
  0
LINE
  8
0
  6
CONTINUOUS
 62
     6
 10
-30.699996948242188
 20
 69.716732025146484
 11
-30.699996948242188
 21
 85.373603820800781
  0
LINE
  8
0
  6
DOT
 62
     6
 10
-30.699996948242188
 20
 85.373603820800781
 11
-30.699996948242188
 21
 88.545173645019531
  0
CIRCLE
  8
0
  6
CONTINUOUS
 62
     6
 10
-35.000015258789063
 20
 27.545166015625
 40
 2
  0
LINE
  8
0
  6
CONTINUOUS
 62
     7
 10
-30.1634521484375
 20
 94.938690185546875
 11
-34.464202880859375
 21
 79.472061157226563
  0
LINE
  8
0
  6
CONTINUOUS
 62
     7
 10
-34.464202880859375
 20
 79.472061157226563
 11
-32.939807692315313
 21
 82.055899253768928
  0
LINE
  8
0
  6
CONTINUOUS
 62
     7
 10
-34.464202880859375
 20
 79.472061157226563
 11
-34.435956970444636
 21
 82.47192818237032
  0
CIRCLE
  8
0
  6
CONTINUOUS
 62
     6
 10
-35.000015258789063
 20
 52.545169830322266
 40
 2
  0
LINE
  8
0
  6
CONTINUOUS
 62
     3
 10
-45
 20
 44.545169830322266
 11
-45
 21
 46.545166015625
  0
LINE
  8
0
  6
DOT
 62
     3
 10
-45
 20
 46.545166015625
 11
-45
 21
 58.545169830322266
  0
LINE
  8
0
  6
CONTINUOUS
 62
     3
 10
-45
 20
 58.545169830322266
 11
-45
 21
 60.545169830322266
  0
LINE
  8
0
  6
CONTINUOUS
 62
     3
 10
-46.199996948242187
 20
 58.545169830322266
 11
-42.199996948242187
 21
 58.545169830322266
  0
LINE
  8
0
  6
CONTINUOUS
 62
     3
 10
-41.199981689453125
 20
 57.545162200927734
 11
-41.199981689453125
 21
 47.545166015625
  0
ARC
  8
0
  6
CONTINUOUS
 62
     3
 10
-42.199996948242187
 20
 57.545162200927734
 40
 1
 50
 0
 51
 90.000004039712721
  0
LINE
  8
0
  6
CONTINUOUS
 62
     3
 10
-42.199996948242187
 20
 46.545166015625
 11
-46.199996948242187
 21
 46.545166015625
  0
ARC
  8
0
  6
CONTINUOUS
 62
     3
 10
-42.199996948242187
 20
 47.545166015625
 40
 1
 50
-90.000000851989171
 51
 0
  0
LINE
  8
0
  6
CONTINUOUS
 62
     3
 10
-46.199996948242187
 20
 60.545169830322266
 11
-31.699966430664063
 21
 60.545169830322266
  0
LINE
  8
0
  6
CONTINUOUS
 62
     3
 10
-28.699966430664063
 20
 57.545169830322266
 11
-28.699966430664063
 21
 47.545173645019531
  0
ARC
  8
0
  6
CONTINUOUS
 62
     3
 10
-31.699966430664063
 20
 57.545169830322266
 40
 3
 50
 0
 51
 90.000004039712721
  0
LINE
  8
0
  6
CONTINUOUS
 62
     3
 10
-31.699966430664063
 20
 44.545173645019531
 11
-46.199996948242187
 21
 44.545169830322266
  0
ARC
  8
0
  6
CONTINUOUS
 62
     3
 10
-31.699966430664063
 20
 47.545173645019531
 40
 3
 50
-89.99997353123203
 51
 0
  0
LINE
  8
0
  6
CONTINUOUS
 62
     6
 10
-30.699996948242188
 20
 44.71673583984375
 11
-30.699996948242188
 21
 60.373607635498047
  0
CIRCLE
  8
0
  6
CONTINUOUS
 62
     3
 10
 40
 20
 40.045162200927734
 40
 4.5
  0
LINE
  8
0
  6
DOT
 62
     6
 10
 34.79998779296875
 20
 43.045166015625
 11
 35.79998779296875
 21
 42.045160293579102
  0
LINE
  8
0
  6
DOT
 62
     6
 10
 34.79998779296875
 20
 37.045167922973633
 11
 35.79998779296875
 21
 38.045166015625
  0
LINE
  8
0
  6
CONTINUOUS
 62
     6
 10
 40
 20
 42.045160293579102
 11
 35.79998779296875
 21
 42.045160293579102
  0
LINE
  8
0
  6
CONTINUOUS
 62
     6
 10
 40
 20
 38.045166015625
 11
 35.79998779296875
 21
 38.045166015625
  0
ARC
  8
0
  6
CONTINUOUS
 62
     6
 10
 40
 20
 40.045167922973633
 40
 2
 50
-90.000000851989171
 51
 90.000004039712721
  0
LINE
  8
0
  6
CONTINUOUS
 62
     3
 10
 45.599990844726562
 20
 57.145164489746094
 11
 45.599990844726562
 21
 47.945171356201172
  0
LINE
  8
0
  6
CONTINUOUS
 62
     3
 10
 29.29998779296875
 20
 57.545166015625
 11
 34.29998779296875
 21
 57.545166015625
  0
LINE
  8
0
  6
CONTINUOUS
 62
     3
 10
 34.29998779296875
 20
 58.745162963867188
 11
 34.29998779296875
 21
 46.345161437988281
  0
LINE
  8
0
  6
CONTINUOUS
 62
     3
 10
 34.29998779296875
 20
 47.545162200927734
 11
 29.29998779296875
 21
 47.545162200927734
  0
LINE
  8
0
  6
CONTINUOUS
 62
     3
 10
 29.29998779296875
 20
 46.345161437988281
 11
 29.29998779296875
 21
 58.745162963867188
  0
LINE
  8
0
  6
CONTINUOUS
 62
     3
 10
 46.79998779296875
 20
 57.145164489746094
 11
 44.29998779296875
 21
 57.145164489746094
  0
LINE
  8
0
  6
CONTINUOUS
 62
     3
 10
 44.29998779296875
 20
 57.145164489746094
 11
 44.29998779296875
 21
 47.945171356201172
  0
LINE
  8
0
  6
CONTINUOUS
 62
     3
 10
 44.29998779296875
 20
 47.945171356201172
 11
 46.79998779296875
 21
 47.945171356201172
  0
LINE
  8
0
  6
DOT
 62
     3
 10
 34.29998779296875
 20
 59.045166015625
 11
 29.29998779296875
 21
 59.045166015625
  0
LINE
  8
0
  6
DOT
 62
     3
 10
 29.29998779296875
 20
 59.045166015625
 11
 29.29998779296875
 21
 58.745162963867188
  0
LINE
  8
0
  6
DOT
 62
     3
 10
 29.29998779296875
 20
 46.345161437988281
 11
 29.29998779296875
 21
 46.045162200927734
  0
LINE
  8
0
  6
DOT
 62
     3
 10
 29.29998779296875
 20
 46.045162200927734
 11
 34.29998779296875
 21
 46.045162200927734
  0
LINE
  8
0
  6
DOT
 62
     3
 10
 34.29998779296875
 20
 46.045162200927734
 11
 34.29998779296875
 21
 46.345161437988281
  0
LINE
  8
0
  6
DOT
 62
     3
 10
 34.29998779296875
 20
 58.745162963867188
 11
 29.29998779296875
 21
 58.745162963867188
  0
LINE
  8
0
  6
DOT
 62
     3
 10
 29.29998779296875
 20
 46.345161437988281
 11
 34.29998779296875
 21
 46.345161437988281
  0
LINE
  8
0
  6
DOT
 62
     3
 10
 34.29998779296875
 20
 59.045166015625
 11
 34.29998779296875
 21
 58.745162963867188
  0
LINE
  8
0
  6
DASHDOT
 62
     7
 10
-49.955108642578125
 20
 40.045167922973633
 11
 51.004867553710938
 21
 40.045167922973633
  0
LINE
  8
0
  6
DASHDOT
 62
     3
 10
-48.657047271728516
 20
 52.545166015625
 11
 49.875
 21
 52.545166015625
  0
LINE
  8
0
  6
DASHDOT
 62
     3
 10
 72.821357727050781
 20
 52.545166015625
 11
 105.46558928489685
 21
 52.545166015625
  0
LINE
  8
0
  6
CONTINUOUS
 62
     3
 10
 102.19998836517334
 20
 57.645164489746094
 11
 96.899988174438477
 21
 57.645164489746094
  0
LINE
  8
0
  6
CONTINUOUS
 62
     3
 10
 96.899988174438477
 20
 57.645164489746094
 11
 96.899988174438477
 21
 47.445167541503906
  0
LINE
  8
0
  6
CONTINUOUS
 62
     3
 10
 96.899988174438477
 20
 47.445167541503906
 11
 102.19998836517334
 21
 47.445167541503906
  0
LINE
  8
0
  6
CONTINUOUS
 62
     3
 10
 100.99997758865356
 20
 47.445167541503906
 11
 100.99997758865356
 21
 57.645164489746094
  0
LINE
  8
0
  6
CONTINUOUS
 62
     3
 10
 79.399988174438477
 20
 57.145164489746094
 11
 79.399988174438477
 21
 47.945171356201172
  0
LINE
  8
0
  6
CONTINUOUS
 62
     3
 10
 79.399988174438477
 20
 57.145164489746094
 11
 76.199989318847656
 21
 57.145164489746094
  0
LINE
  8
0
  6
CONTINUOUS
 62
     3
 10
 76.199989318847656
 20
 47.945171356201172
 11
 79.399988174438477
 21
 47.945171356201172
  0
LINE
  8
0
  6
CONTINUOUS
 62
     3
 10
 77.399986267089844
 20
 57.145164489746094
 11
 77.399986267089844
 21
 47.945171356201172
  0
LINE
  8
0
  6
CONTINUOUS
 62
     7
 10
-48.199996948242187
 20
 88.545173645019531
 11
-65.159996032714844
 21
 88.545173645019531
  0
LINE
  8
0
  6
CONTINUOUS
 62
     7
 10
-48.199996948242187
 20
 16.545173168182373
 11
-65.159996032714844
 21
 16.545173168182373
  0
LINE
  8
0
  6
CONTINUOUS
 62
     7
 10
-64.20001220703125
 20
 88.545173645019531
 11
-64.20001220703125
 21
 16.545173168182373
  0
LINE
  8
0
  6
CONTINUOUS
 62
     7
 10
-64.20001220703125
 20
 88.545173645019531
 11
-64.976469342338817
 21
 85.647396166152333
  0
LINE
  8
0
  6
CONTINUOUS
 62
     7
 10
-64.20001220703125
 20
 88.545173645019531
 11
-63.42355507172369
 21
 85.647396166152333
  0
LINE
  8
0
  6
CONTINUOUS
 62
     7
 10
-64.20001220703125
 20
 16.545173168182373
 11
-63.42355507172369
 21
 19.442950647049578
  0
LINE
  8
0
  6
CONTINUOUS
 62
     7
 10
-64.20001220703125
 20
 16.545173168182373
 11
-64.976469342338817
 21
 19.442950647049578
  0
TEXT
  8
0
  6
CONTINUOUS
 62
     7
 10
-65.160011256534787
 20
 50.695174451670376
 11
-65.160011418266933
 21
 54.395174451670378
 40
 2
 41
 0.8
  1
72
 50
 90.000004039712721
 72
  5
  0
LINE
  8
0
  6
CONTINUOUS
 62
     7
 10
 62.799972534179688
 20
 65.045166015625
 11
 62.799972534179688
 21
 88.545173645019531
  0
LINE
  8
0
  6
CONTINUOUS
 62
     7
 10
 62.799972534179688
 20
 65.045166015625
 11
 63.576429669487247
 21
 67.942943494492198
  0
LINE
  8
0
  6
CONTINUOUS
 62
     7
 10
 62.799972534179688
 20
 65.045166015625
 11
 62.023515398872128
 21
 67.942943494492198
  0
LINE
  8
0
  6
CONTINUOUS
 62
     7
 10
 62.799972534179688
 20
 88.545173645019531
 11
 62.023515398872128
 21
 85.647396166152333
  0
LINE
  8
0
  6
CONTINUOUS
 62
     7
 10
 62.799972534179688
 20
 88.545173645019531
 11
 63.576429669487247
 21
 85.647396166152333
  0
TEXT
  8
0
  6
CONTINUOUS
 62
     7
 10
 61.839981114070675
 20
 72.845168348154743
 11
 61.839980768750692
 21
 80.745168348154749
 40
 2
 41
 0.8
  1
23.5
 50
 90.000004039712721
 72
  5
  0
LINE
  8
0
  6
CONTINUOUS
 62
     7
 10
 48.999984741210937
 20
 16.545166492462158
 11
 63.759979248046875
 21
 16.545166492462158
  0
LINE
  8
0
  6
CONTINUOUS
 62
     7
 10
 62.799972534179688
 20
 16.545166492462158
 11
 62.799972534179688
 21
 40.045158386230469
  0
LINE
  8
0
  6
CONTINUOUS
 62
     7
 10
 62.799972534179688
 20
 16.545166492462158
 11
 63.576429669487247
 21
 19.442943971329363
  0
LINE
  8
0
  6
CONTINUOUS
 62
     7
 10
 62.799972534179688
 20
 16.545166492462158
 11
 62.023515398872128
 21
 19.442943971329363
  0
LINE
  8
0
  6
CONTINUOUS
 62
     7
 10
 62.799972534179688
 20
 40.045158386230469
 11
 62.023515398872128
 21
 37.147380907363264
  0
LINE
  8
0
  6
CONTINUOUS
 62
     7
 10
 62.799972534179688
 20
 40.045158386230469
 11
 63.576429669487247
 21
 37.147380907363264
  0
TEXT
  8
0
  6
CONTINUOUS
 62
     7
 10
 61.839981114070675
 20
 24.345162626108856
 11
 61.839980768750692
 21
 32.245162626108851
 40
 2
 41
 0.8
  1
23.5
 50
 90.000004039712721
 72
  5
  0
LINE
  8
0
  6
CONTINUOUS
 62
     7
 10
-46.199996948242187
 20
-4.4548263549804687
 11
 0
 21
-4.4548263549804687
  0
LINE
  8
0
  6
CONTINUOUS
 62
     7
 10
-46.199996948242187
 20
-4.4548263549804687
 11
-43.302219469374982
 21
-5.231283490288031
  0
LINE
  8
0
  6
CONTINUOUS
 62
     7
 10
-46.199996948242187
 20
-4.4548263549804687
 11
-43.302219469374982
 21
-3.6783692196729065
  0
LINE
  8
0
  6
CONTINUOUS
 62
     7
 10
 0
 20
-4.4548263549804687
 11
-2.897777478867205
 21
-3.6783692196729065
  0
LINE
  8
0
  6
CONTINUOUS
 62
     7
 10
 0
 20
-4.4548263549804687
 11
-2.897777478867205
 21
-5.231283490288031
  0
TEXT
  8
0
  6
CONTINUOUS
 62
     7
 10
-27.050000000000001
 20
-3.4948253631591797
 11
-19.150000000000002
 21
-3.4948253631591797
 40
 2
 41
 0.8
  1
46.2
 50
 0
 72
  5
  0
LINE
  8
0
  6
CONTINUOUS
 62
     7
 10
 0
 20
-4.4548263549804687
 11
 46.79998779296875
 21
-4.4548263549804687
  0
LINE
  8
0
  6
CONTINUOUS
 62
     7
 10
 0
 20
-4.4548263549804687
 11
 2.897777478867205
 21
-5.231283490288031
  0
LINE
  8
0
  6
CONTINUOUS
 62
     7
 10
 0
 20
-4.4548263549804687
 11
 2.897777478867205
 21
-3.6783692196729065
  0
LINE
  8
0
  6
CONTINUOUS
 62
     7
 10
 46.79998779296875
 20
-4.4548263549804687
 11
 43.902210314101545
 21
-3.6783692196729065
  0
LINE
  8
0
  6
CONTINUOUS
 62
     7
 10
 46.79998779296875
 20
-4.4548263549804687
 11
 43.902210314101545
 21
-5.231283490288031
  0
TEXT
  8
0
  6
CONTINUOUS
 62
     7
 10
 19.449999999999999
 20
-3.4948253631591797
 11
 27.349999999999998
 21
-3.4948253631591797
 40
 2
 41
 0.8
  1
46.8
 50
 0
 72
  5
  0
LINE
  8
0
  6
CONTINUOUS
 62
     7
 10
-59.70001220703125
 20
 77.545173645019531
 11
-60.160011291503906
 21
 77.545173645019531
  0
LINE
  8
0
  6
CONTINUOUS
 62
     7
 10
-59.200019836425781
 20
 88.545173645019531
 11
-59.200019836425781
 21
 77.545173645019531
  0
LINE
  8
0
  6
CONTINUOUS
 62
     7
 10
-59.200019836425781
 20
 88.545173645019531
 11
-59.976476971733341
 21
 85.647396166152333
  0
LINE
  8
0
  6
CONTINUOUS
 62
     7
 10
-59.200019836425781
 20
 88.545173645019531
 11
-58.423562701118222
 21
 85.647396166152333
  0
LINE
  8
0
  6
CONTINUOUS
 62
     7
 10
-59.200019836425781
 20
 77.545173645019531
 11
-58.423562701118222
 21
 80.442951123886729
  0
LINE
  8
0
  6
CONTINUOUS
 62
     7
 10
-59.200019836425781
 20
 77.545173645019531
 11
-59.976476971733341
 21
 80.442951123886729
  0
TEXT
  8
0
  6
CONTINUOUS
 62
     7
 10
-60.160011256534794
 20
 81.195170636973103
 11
-60.16001141826694
 21
 84.895170636973106
 40
 2
 41
 0.8
  1
11
 50
 90.000004039712721
 72
  5
  0
LINE
  8
0
  6
CONTINUOUS
 62
     7
 10
-59.200019836425781
 20
 77.545173645019531
 11
-59.200019836425781
 21
 52.545166015625
  0
LINE
  8
0
  6
CONTINUOUS
 62
     7
 10
-59.200019836425781
 20
 77.545173645019531
 11
-59.976476971733341
 21
 74.647396166152333
  0
LINE
  8
0
  6
CONTINUOUS
 62
     7
 10
-59.200019836425781
 20
 77.545173645019531
 11
-58.423562701118222
 21
 74.647396166152333
  0
LINE
  8
0
  6
CONTINUOUS
 62
     7
 10
-59.200019836425781
 20
 52.545166015625
 11
-58.423562701118222
 21
 55.442943494492205
  0
LINE
  8
0
  6
CONTINUOUS
 62
     7
 10
-59.200019836425781
 20
 52.545166015625
 11
-59.976476971733341
 21
 55.442943494492205
  0
TEXT
  8
0
  6
CONTINUOUS
 62
     7
 10
-60.160011256534794
 20
 63.19517063697311
 11
-60.16001141826694
 21
 66.895170636973106
 40
 2
 41
 0.8
  1
25
 50
 90.000004039712721
 72
  5
  0
LINE
  8
0
  6
CONTINUOUS
 62
     7
 10
-59.200019836425781
 20
 27.545166015625
 11
-59.200019836425781
 21
 16.545173168182373
  0
LINE
  8
0
  6
CONTINUOUS
 62
     7
 10
-59.200019836425781
 20
 27.545166015625
 11
-59.976476971733341
 21
 24.647388536757795
  0
LINE
  8
0
  6
CONTINUOUS
 62
     7
 10
-59.200019836425781
 20
 27.545166015625
 11
-58.423562701118222
 21
 24.647388536757795
  0
LINE
  8
0
  6
CONTINUOUS
 62
     7
 10
-59.200019836425781
 20
 16.545173168182373
 11
-58.423562701118222
 21
 19.442950647049578
  0
LINE
  8
0
  6
CONTINUOUS
 62
     7
 10
-59.200019836425781
 20
 16.545173168182373
 11
-59.976476971733341
 21
 19.442950647049578
  0
TEXT
  8
0
  6
CONTINUOUS
 62
     7
 10
-60.160011256534794
 20
 20.195169683298797
 11
-60.16001141826694
 21
 23.895169683298796
 40
 2
 41
 0.8
  1
11
 50
 90.000004039712721
 72
  5
  0
LINE
  8
0
  6
CONTINUOUS
 62
     7
 10
-46.199996948242187
 20
-9.4548244476318359
 11
 46.79998779296875
 21
-9.4548244476318359
  0
LINE
  8
0
  6
CONTINUOUS
 62
     7
 10
-46.199996948242187
 20
-9.4548244476318359
 11
-43.302219469374982
 21
-10.231281582939399
  0
LINE
  8
0
  6
CONTINUOUS
 62
     7
 10
-46.199996948242187
 20
-9.4548244476318359
 11
-43.302219469374982
 21
-8.6783673123242728
  0
LINE
  8
0
  6
CONTINUOUS
 62
     7
 10
 46.79998779296875
 20
-9.4548244476318359
 11
 43.902210314101545
 21
-8.6783673123242728
  0
LINE
  8
0
  6
CONTINUOUS
 62
     7
 10
 46.79998779296875
 20
-9.4548244476318359
 11
 43.902210314101545
 21
-10.231281582939399
  0
TEXT
  8
0
  6
CONTINUOUS
 62
     7
 10
-1.5499923706054688
 20
-8.4948215484619141
 11
 2.1500076293945316
 21
-8.4948215484619141
 40
 2
 41
 0.8
  1
93
 50
 0
 72
  5
  0
LINE
  8
0
  6
CONTINUOUS
 62
     7
 10
 33.234268188476562
 20
 67.045158386230469
 11
 18.8399658203125
 21
 67.045158386230469
  0
LINE
  8
0
  6
CONTINUOUS
 62
     7
 10
 33.234268188476562
 20
 63.045166015625
 11
 18.8399658203125
 21
 63.045166015625
  0
LINE
  8
0
  6
CONTINUOUS
 62
     7
 10
 19.79998779296875
 20
 67.045158386230469
 11
 19.79998779296875
 21
 63.045166015625
  0
LINE
  8
0
  6
CONTINUOUS
 62
     7
 10
 19.79998779296875
 20
 67.045158386230469
 11
 19.023530657661187
 21
 64.147380907363271
  0
LINE
  8
0
  6
CONTINUOUS
 62
     7
 10
 19.79998779296875
 20
 67.045158386230469
 11
 20.576444928276313
 21
 64.147380907363271
  0
LINE
  8
0
  6
CONTINUOUS
 62
     7
 10
 19.79998779296875
 20
 63.045166015625
 11
 20.576444928276313
 21
 65.942943494492198
  0
LINE
  8
0
  6
CONTINUOUS
 62
     7
 10
 19.79998779296875
 20
 63.045166015625
 11
 19.023530657661187
 21
 65.942943494492198
  0
TEXT
  8
0
  6
CONTINUOUS
 62
     7
 10
 18.839981114070671
 20
 64.245166059336384
 11
 18.83998104413245
 21
 65.845166059336393
 40
 2
 41
 0.8
  1
4
 50
 90.000004039712721
 72
  5
  0
LINE
  8
0
  6
CONTINUOUS
 62
     7
 10
 40
 20
 31.057708740234375
 11
 40
 21
 4.585176944732666
  0
LINE
  8
0
  6
CONTINUOUS
 62
     7
 10
 46.79998779296875
 20
 5.5451793670654297
 11
 40
 21
 5.5451793670654297
  0
LINE
  8
0
  6
CONTINUOUS
 62
     7
 10
 46.79998779296875
 20
 5.5451793670654297
 11
 43.902210314101545
 21
 6.3216365023729919
  0
LINE
  8
0
  6
CONTINUOUS
 62
     7
 10
 46.79998779296875
 20
 5.5451793670654297
 11
 43.902210314101545
 21
 4.7687222317578675
  0
LINE
  8
0
  6
CONTINUOUS
 62
     7
 10
 40
 20
 5.5451793670654297
 11
 42.897777478867205
 21
 4.7687222317578675
  0
LINE
  8
0
  6
CONTINUOUS
 62
     7
 10
 40
 20
 5.5451793670654297
 11
 42.897777478867205
 21
 6.3216365023729919
  0
TEXT
  8
0
  6
CONTINUOUS
 62
     7
 10
 40.499987792968753
 20
 6.5051817893981934
 11
 46.29998779296875
 21
 6.5051817893981934
 40
 2
 41
 0.8
  1
6.8
 50
 0
 72
  5
  0
LINE
  8
0
  6
CONTINUOUS
 62
     7
 10
-49.157047271728516
 20
 52.545166015625
 11
-60.160015106201172
 21
 52.545166015625
  0
LINE
  8
0
  6
CONTINUOUS
 62
     7
 10
-59.200019836425781
 20
 27.545166015625
 11
-59.200019836425781
 21
 52.545166015625
  0
LINE
  8
0
  6
CONTINUOUS
 62
     7
 10
-59.200019836425781
 20
 27.545166015625
 11
-58.423562701118222
 21
 30.442943494492205
  0
LINE
  8
0
  6
CONTINUOUS
 62
     7
 10
-59.200019836425781
 20
 27.545166015625
 11
-59.976476971733341
 21
 30.442943494492205
  0
LINE
  8
0
  6
CONTINUOUS
 62
     7
 10
-59.200019836425781
 20
 52.545166015625
 11
-59.976476971733341
 21
 49.647388536757795
  0
LINE
  8
0
  6
CONTINUOUS
 62
     7
 10
-59.200019836425781
 20
 52.545166015625
 11
-58.423562701118222
 21
 49.647388536757795
  0
TEXT
  8
0
  6
CONTINUOUS
 62
     7
 10
-60.16001507123206
 20
 38.195164914927211
 11
-60.160015232964206
 21
 41.895164914927214
 40
 2
 41
 0.8
  1
25
 50
 90.000004039712721
 72
  5
  0
LINE
  8
0
  6
CONTINUOUS
 62
     7
 10
 51.004867553710938
 20
 40.045167922973633
 11
 63.759979248046875
 21
 40.045167922973633
  0
LINE
  8
0
  6
CONTINUOUS
 62
     7
 10
 62.799972534179688
 20
 40.045167922973633
 11
 62.799972534179688
 21
 65.045166015625
  0
LINE
  8
0
  6
CONTINUOUS
 62
     7
 10
 62.799972534179688
 20
 40.045167922973633
 11
 63.576429669487247
 21
 42.942945401840838
  0
LINE
  8
0
  6
CONTINUOUS
 62
     7
 10
 62.799972534179688
 20
 40.045167922973633
 11
 62.023515398872128
 21
 42.942945401840838
  0
LINE
  8
0
  6
CONTINUOUS
 62
     7
 10
 62.799972534179688
 20
 65.045166015625
 11
 62.023515398872128
 21
 62.147388536757795
  0
LINE
  8
0
  6
CONTINUOUS
 62
     7
 10
 62.799972534179688
 20
 65.045166015625
 11
 63.576429669487247
 21
 62.147388536757795
  0
TEXT
  8
0
  6
CONTINUOUS
 62
     7
 10
 61.839965855281612
 20
 50.695166822275844
 11
 61.839965693549466
 21
 54.395166822275847
 40
 2
 41
 0.8
  1
25
 50
 90.000004039712721
 72
  5
  0
LINE
  8
0
  6
CONTINUOUS
 62
     7
 10
-35.000015258789063
 20
 23.239006042480469
 11
-35.000015258789063
 21
 4.585176944732666
  0
LINE
  8
0
  6
CONTINUOUS
 62
     7
 10
-46.199996948242187
 20
 5.5451793670654297
 11
-35.000015258789063
 21
 5.5451793670654297
  0
LINE
  8
0
  6
CONTINUOUS
 62
     7
 10
-46.199996948242187
 20
 5.5451793670654297
 11
-43.302219469374982
 21
 4.7687222317578675
  0
LINE
  8
0
  6
CONTINUOUS
 62
     7
 10
-46.199996948242187
 20
 5.5451793670654297
 11
-43.302219469374982
 21
 6.3216365023729919
  0
LINE
  8
0
  6
CONTINUOUS
 62
     7
 10
-35.000015258789063
 20
 5.5451793670654297
 11
-37.897792737656268
 21
 6.3216365023729919
  0
LINE
  8
0
  6
CONTINUOUS
 62
     7
 10
-35.000015258789063
 20
 5.5451793670654297
 11
-37.897792737656268
 21
 4.7687222317578675
  0
TEXT
  8
0
  6
CONTINUOUS
 62
     7
 10
-44.550007629394528
 20
 6.5051817893981934
 11
-36.65000762939453
 21
 6.5051817893981934
 40
 2
 41
 0.8
  1
11.2
 50
 0
 72
  5
  0
LINE
  8
0
  6
CONTINUOUS
 62
     7
 10
-35.000015258789063
 20
 5.5451793670654297
 11
 40
 21
 5.5451793670654297
  0
LINE
  8
0
  6
CONTINUOUS
 62
     7
 10
-35.000015258789063
 20
 5.5451793670654297
 11
-32.102237779921857
 21
 4.7687222317578675
  0
LINE
  8
0
  6
CONTINUOUS
 62
     7
 10
-35.000015258789063
 20
 5.5451793670654297
 11
-32.102237779921857
 21
 6.3216365023729919
  0
LINE
  8
0
  6
CONTINUOUS
 62
     7
 10
 40
 20
 5.5451793670654297
 11
 37.102222521132795
 21
 6.3216365023729919
  0
LINE
  8
0
  6
CONTINUOUS
 62
     7
 10
 40
 20
 5.5451793670654297
 11
 37.102222521132795
 21
 4.7687222317578675
  0
TEXT
  8
0
  6
CONTINUOUS
 62
     7
 10
 0.6499969482421875
 20
 6.5051817893981934
 11
 4.3499969482421879
 21
 6.5051817893981934
 40
 2
 41
 0.8
  1
75
 50
 0
 72
  5
  0
ENDSEC
  0
EOF
